ISO-10303-21;
HEADER;
FILE_DESCRIPTION (( 'STEP AP214' ),
    '1' );
FILE_NAME ('GL-211-010-x Dichtung G10-x heco.STEP',
    '2017-09-01T09:24:18',
    ( '' ),
    ( '' ),
    'SwSTEP 2.0',
    'SolidWorks 2016',
    '' );
FILE_SCHEMA (( 'AUTOMOTIVE_DESIGN' ));
ENDSEC;

DATA;
#1 = ADVANCED_FACE ( 'NONE', ( #222 ), #67, .T. ) ;
#2 = TOROIDAL_SURFACE ( 'NONE', #235, 6.100000000000000500, 0.1000000000000000100 ) ;
#3 = CIRCLE ( 'NONE', #49, 1.999999999999999100 ) ;
#4 = DIRECTION ( 'NONE',  ( -1.000000000000000000, -0.0000000000000000000, -0.0000000000000000000 ) ) ;
#5 = EDGE_CURVE ( 'NONE', #179, #214, #143, .T. ) ;
#6 = ADVANCED_FACE ( 'NONE', ( #112 ), #2, .T. ) ;
#7 = TOROIDAL_SURFACE ( 'NONE', #167, 9.899999999999998600, 0.1000000000000000100 ) ;
#8 = DIRECTION ( 'NONE',  ( -1.000000000000000000, -0.0000000000000000000, -0.0000000000000000000 ) ) ;
#9 = ORIENTED_EDGE ( 'NONE', *, *, #56, .F. ) ;
#10 = AXIS2_PLACEMENT_3D ( 'NONE', #163, #271, #31 ) ;
#11 = VERTEX_POINT ( 'NONE', #142 ) ;
#12 = DIRECTION ( 'NONE',  ( 0.0000000000000000000, 0.0000000000000000000, -1.000000000000000000 ) ) ;
#13 = UNCERTAINTY_MEASURE_WITH_UNIT (LENGTH_MEASURE( 1.000000000000000100E-005 ), #148, 'distance_accuracy_value', 'NONE');
#14 = CARTESIAN_POINT ( 'NONE',  ( 0.1000000000000000100, 0.0000000000000000000, 0.0000000000000000000 ) ) ;
#15 =( LENGTH_UNIT ( ) NAMED_UNIT ( * ) SI_UNIT ( .MILLI., .METRE. ) );
#16 = ADVANCED_FACE ( 'NONE', ( #35 ), #186, .T. ) ;
#17 = AXIS2_PLACEMENT_3D ( 'NONE', #27, #144, #85 ) ;
#18 = CARTESIAN_POINT ( 'NONE',  ( 0.0000000000000000000, 0.0000000000000000000, 0.0000000000000000000 ) ) ;
#19 = ORIENTED_EDGE ( 'NONE', *, *, #135, .T. ) ;
#20 = DIRECTION ( 'NONE',  ( 0.0000000000000000000, -1.000000000000000000, 0.0000000000000000000 ) ) ;
#21 = ADVANCED_FACE ( 'NONE', ( #158 ), #269, .T. ) ;
#22 = VERTEX_POINT ( 'NONE', #328 ) ;
#23 = EDGE_CURVE ( 'NONE', #11, #214, #191, .T. ) ;
#24 = ORIENTED_EDGE ( 'NONE', *, *, #159, .F. ) ;
#25 = EDGE_CURVE ( 'NONE', #179, #233, #253, .T. ) ;
#26 = DIRECTION ( 'NONE',  ( -1.000000000000000000, -0.0000000000000000000, -0.0000000000000000000 ) ) ;
#27 = CARTESIAN_POINT ( 'NONE',  ( 0.0000000000000000000, 0.0000000000000000000, 0.0000000000000000000 ) ) ;
#28 = ADVANCED_FACE ( 'NONE', ( #115 ), #240, .T. ) ;
#29 = CARTESIAN_POINT ( 'NONE',  ( 0.1000000000000000100, 0.0000000000000000000, 0.0000000000000000000 ) ) ;
#30 = CARTESIAN_POINT ( 'NONE',  ( 0.1000000000000000100, 0.0000000000000000000, 0.0000000000000000000 ) ) ;
#31 = DIRECTION ( 'NONE',  ( 0.0000000000000000000, 0.0000000000000000000, 1.000000000000000000 ) ) ;
#32 = DIRECTION ( 'NONE',  ( 1.000000000000000000, 0.0000000000000000000, 0.0000000000000000000 ) ) ;
#33 = DIRECTION ( 'NONE',  ( 0.0000000000000000000, 0.0000000000000000000, -1.000000000000000000 ) ) ;
#34 = CARTESIAN_POINT ( 'NONE',  ( 0.1000000000000000100, 7.470345474798855300E-016, 6.100000000000000500 ) ) ;
#35 = FACE_OUTER_BOUND ( 'NONE', #334, .T. ) ;
#36 = ORIENTED_EDGE ( 'NONE', *, *, #56, .T. ) ;
#37 =( NAMED_UNIT ( * ) SI_UNIT ( $, .STERADIAN. ) SOLID_ANGLE_UNIT ( ) );
#38 = AXIS2_PLACEMENT_3D ( 'NONE', #29, #267, #83 ) ;
#39 = DIRECTION ( 'NONE',  ( 0.0000000000000000000, 0.0000000000000000000, -1.000000000000000000 ) ) ;
#40 = EDGE_CURVE ( 'NONE', #288, #233, #71, .T. ) ;
#41 = EDGE_LOOP ( 'NONE', ( #315, #19, #156, #308 ) ) ;
#42 = DIRECTION ( 'NONE',  ( 1.000000000000000000, 0.0000000000000000000, 0.0000000000000000000 ) ) ;
#43 = CARTESIAN_POINT ( 'NONE',  ( 0.1000000000000000100, 0.0000000000000000000, 0.0000000000000000000 ) ) ;
#44 = SURFACE_STYLE_FILL_AREA ( #125 ) ;
#45 = ORIENTED_EDGE ( 'NONE', *, *, #40, .F. ) ;
#46 = ORIENTED_EDGE ( 'NONE', *, *, #258, .T. ) ;
#47 = DIRECTION ( 'NONE',  ( 0.0000000000000000000, 0.0000000000000000000, -1.000000000000000000 ) ) ;
#48 = CIRCLE ( 'NONE', #149, 9.999999999999998200 ) ;
#49 = AXIS2_PLACEMENT_3D ( 'NONE', #219, #268, #324 ) ;
#50 = ORIENTED_EDGE ( 'NONE', *, *, #322, .F. ) ;
#51 = VERTEX_POINT ( 'NONE', #197 ) ;
#52 = PRODUCT_RELATED_PRODUCT_CATEGORY ( 'part', '', ( #152 ) ) ;
#53 = AXIS2_PLACEMENT_3D ( 'NONE', #43, #101, #68 ) ;
#54 = EDGE_LOOP ( 'NONE', ( #323, #254 ) ) ;
#55 = DIRECTION ( 'NONE',  ( 0.0000000000000000000, 0.0000000000000000000, -1.000000000000000000 ) ) ;
#56 = EDGE_CURVE ( 'NONE', #214, #288, #176, .T. ) ;
#57 = CARTESIAN_POINT ( 'NONE',  ( 2.500000000000000000, 0.0000000000000000000, 0.0000000000000000000 ) ) ;
#58 = AXIS2_PLACEMENT_3D ( 'NONE', #145, #194, #217 ) ;
#59 = FACE_BOUND ( 'NONE', #207, .T. ) ;
#60 = DIRECTION ( 'NONE',  ( 0.0000000000000000000, 0.0000000000000000000, -1.000000000000000000 ) ) ;
#61 = CARTESIAN_POINT ( 'NONE',  ( 0.0000000000000000000, 1.218523565151616400E-015, 9.899999999999998600 ) ) ;
#62 = CIRCLE ( 'NONE', #332, 0.09999999999999939500 ) ;
#63 =( NAMED_UNIT ( * ) SI_UNIT ( $, .STERADIAN. ) SOLID_ANGLE_UNIT ( ) );
#64 = CARTESIAN_POINT ( 'NONE',  ( 0.0000000000000000000, 0.0000000000000000000, 6.000000000000000000 ) ) ;
#65 =( NAMED_UNIT ( * ) SI_UNIT ( $, .STERADIAN. ) SOLID_ANGLE_UNIT ( ) );
#66 = EDGE_CURVE ( 'NONE', #214, #179, #296, .T. ) ;
#67 = CYLINDRICAL_SURFACE ( 'NONE', #246, 9.999999999999998200 ) ;
#68 = DIRECTION ( 'NONE',  ( 0.0000000000000000000, 0.0000000000000000000, -1.000000000000000000 ) ) ;
#69 = ADVANCED_FACE ( 'NONE', ( #137 ), #160, .T. ) ;
#70 = PRESENTATION_STYLE_ASSIGNMENT (( #283 ) ) ;
#71 = CIRCLE ( 'NONE', #209, 6.100000000000000500 ) ;
#72 = UNCERTAINTY_MEASURE_WITH_UNIT (LENGTH_MEASURE( 1.000000000000000100E-005 ), #15, 'distance_accuracy_value', 'NONE');
#73 =( GEOMETRIC_REPRESENTATION_CONTEXT ( 3 ) GLOBAL_UNCERTAINTY_ASSIGNED_CONTEXT ( ( #13 ) ) GLOBAL_UNIT_ASSIGNED_CONTEXT ( ( #148, #172, #65 ) ) REPRESENTATION_CONTEXT ( 'NONE', 'WORKASPACE' ) );
#74 = CARTESIAN_POINT ( 'NONE',  ( 0.0000000000000000000, 0.0000000000000000000, 0.0000000000000000000 ) ) ;
#75 = EDGE_CURVE ( 'NONE', #103, #307, #312, .T. ) ;
#76 = CYLINDRICAL_SURFACE ( 'NONE', #17, 6.000000000000000000 ) ;
#77 = ORIENTED_EDGE ( 'NONE', *, *, #25, .T. ) ;
#78 = TOROIDAL_SURFACE ( 'NONE', #291, 8.000000000000000000, 1.999999999999999100 ) ;
#79 = CARTESIAN_POINT ( 'NONE',  ( 0.1000000000000000100, 0.0000000000000000000, 0.0000000000000000000 ) ) ;
#80 = CARTESIAN_POINT ( 'NONE',  ( 0.0000000000000000000, 0.0000000000000000000, -9.899999999999998600 ) ) ;
#81 = DIRECTION ( 'NONE',  ( 0.0000000000000000000, 0.0000000000000000000, 1.000000000000000000 ) ) ;
#82 = AXIS2_PLACEMENT_3D ( 'NONE', #261, #8, #124 ) ;
#83 = DIRECTION ( 'NONE',  ( 0.0000000000000000000, 0.0000000000000000000, -1.000000000000000000 ) ) ;
#84 = ORIENTED_EDGE ( 'NONE', *, *, #23, .T. ) ;
#85 = DIRECTION ( 'NONE',  ( 0.0000000000000000000, 0.0000000000000000000, 1.000000000000000000 ) ) ;
#86 = EDGE_CURVE ( 'NONE', #98, #103, #226, .T. ) ;
#87 = ORIENTED_EDGE ( 'NONE', *, *, #280, .F. ) ;
#88 = DIRECTION ( 'NONE',  ( -1.000000000000000000, -0.0000000000000000000, -0.0000000000000000000 ) ) ;
#89 = CARTESIAN_POINT ( 'NONE',  ( 0.1000000000000000100, 1.212400331155879500E-015, 9.899999999999998600 ) ) ;
#90 = DIRECTION ( 'NONE',  ( 0.0000000000000000000, 0.0000000000000000000, 1.000000000000000000 ) ) ;
#91 = FILL_AREA_STYLE_COLOUR ( '', #259 ) ;
#92 = APPLICATION_CONTEXT ( 'automotive_design' ) ;
#93 = STYLED_ITEM ( 'NONE', ( #70 ), #230 ) ;
#94 = CARTESIAN_POINT ( 'NONE',  ( 0.1000000000000000100, 0.0000000000000000000, 0.0000000000000000000 ) ) ;
#95 = DIRECTION ( 'NONE',  ( 1.000000000000000000, 0.0000000000000000000, 0.0000000000000000000 ) ) ;
#96 = CARTESIAN_POINT ( 'NONE',  ( 0.0000000000000000000, 7.347880794884119700E-016, -6.000000000000000000 ) ) ;
#97 = COLOUR_RGB ( '',1.000000000000000000, 0.0000000000000000000, 0.0000000000000000000 ) ;
#98 = VERTEX_POINT ( 'NONE', #205 ) ;
#99 = STYLED_ITEM ( 'NONE', ( #196 ), #301 ) ;
#100 = CARTESIAN_POINT ( 'NONE',  ( 0.1000000000000000100, 0.0000000000000000000, -6.100000000000000500 ) ) ;
#101 = DIRECTION ( 'NONE',  ( 1.000000000000000000, 0.0000000000000000000, 0.0000000000000000000 ) ) ;
#102 = UNCERTAINTY_MEASURE_WITH_UNIT (LENGTH_MEASURE( 1.000000000000000100E-005 ), #227, 'distance_accuracy_value', 'NONE');
#103 = VERTEX_POINT ( 'NONE', #229 ) ;
#104 = PRODUCT_DEFINITION_SHAPE ( 'NONE', 'NONE',  #126 ) ;
#105 = LINE ( 'NONE', #151, #201 ) ;
#106 = ORIENTED_EDGE ( 'NONE', *, *, #237, .F. ) ;
#107 = AXIS2_PLACEMENT_3D ( 'NONE', #94, #306, #208 ) ;
#108 = CARTESIAN_POINT ( 'NONE',  ( 2.500000000000000000, 0.0000000000000000000, 0.0000000000000000000 ) ) ;
#109 = ORIENTED_EDGE ( 'NONE', *, *, #66, .T. ) ;
#110 = CARTESIAN_POINT ( 'NONE',  ( 0.1000000000000000100, 0.0000000000000000000, 6.000000000000000000 ) ) ;
#111 = PRODUCT_DEFINITION_CONTEXT ( 'detailed design', #223, 'design' ) ;
#112 = FACE_OUTER_BOUND ( 'NONE', #187, .T. ) ;
#113 = ORIENTED_EDGE ( 'NONE', *, *, #173, .T. ) ;
#114 = AXIS2_PLACEMENT_3D ( 'NONE', #108, #234, #136 ) ;
#115 = FACE_OUTER_BOUND ( 'NONE', #249, .T. ) ;
#116 = ORIENTED_EDGE ( 'NONE', *, *, #66, .F. ) ;
#117 = DIRECTION ( 'NONE',  ( 1.000000000000000000, 0.0000000000000000000, 0.0000000000000000000 ) ) ;
#118 = ORIENTED_EDGE ( 'NONE', *, *, #224, .F. ) ;
#119 = AXIS2_PLACEMENT_3D ( 'NONE', #166, #4, #198 ) ;
#120 = CIRCLE ( 'NONE', #140, 6.000000000000000900 ) ;
#121 = DIRECTION ( 'NONE',  ( 1.000000000000000000, 0.0000000000000000000, 0.0000000000000000000 ) ) ;
#122 = EDGE_CURVE ( 'NONE', #180, #244, #154, .T. ) ;
#123 = CARTESIAN_POINT ( 'NONE',  ( 0.0000000000000000000, 0.0000000000000000000, -6.100000000000000500 ) ) ;
#124 = DIRECTION ( 'NONE',  ( 0.0000000000000000000, 0.0000000000000000000, 1.000000000000000000 ) ) ;
#125 = FILL_AREA_STYLE ('',( #91 ) ) ;
#126 = PRODUCT_DEFINITION ( 'UNKNOWN', '', #132, #111 ) ;
#127 = DIRECTION ( 'NONE',  ( 0.0000000000000000000, 0.0000000000000000000, 1.000000000000000000 ) ) ;
#128 = DIRECTION ( 'NONE',  ( -1.000000000000000000, -0.0000000000000000000, -0.0000000000000000000 ) ) ;
#129 = AXIS2_PLACEMENT_3D ( 'NONE', #74, #309, #47 ) ;
#130 = DIRECTION ( 'NONE',  ( 0.0000000000000000000, 0.0000000000000000000, -1.000000000000000000 ) ) ;
#131 = FACE_OUTER_BOUND ( 'NONE', #216, .T. ) ;
#132 = PRODUCT_DEFINITION_FORMATION_WITH_SPECIFIED_SOURCE ( 'ANY', '', #152, .NOT_KNOWN. ) ;
#133 = ORIENTED_EDGE ( 'NONE', *, *, #188, .F. ) ;
#134 = VECTOR ( 'NONE', #150, 1000.000000000000000 ) ;
#135 = EDGE_CURVE ( 'NONE', #98, #22, #185, .T. ) ;
#136 = DIRECTION ( 'NONE',  ( 0.0000000000000000000, 0.0000000000000000000, 1.000000000000000000 ) ) ;
#137 = FACE_OUTER_BOUND ( 'NONE', #183, .T. ) ;
#138 = DIRECTION ( 'NONE',  ( 0.0000000000000000000, 0.0000000000000000000, -1.000000000000000000 ) ) ;
#139 = CARTESIAN_POINT ( 'NONE',  ( 2.500000000000000400, 0.0000000000000000000, 8.000000000000000000 ) ) ;
#140 = AXIS2_PLACEMENT_3D ( 'NONE', #321, #215, #316 ) ;
#141 = DIRECTION ( 'NONE',  ( 0.0000000000000000000, 1.224646799147353900E-016, 1.000000000000000000 ) ) ;
#142 = CARTESIAN_POINT ( 'NONE',  ( 2.500000000000000900, 7.347880794884121700E-016, -6.000000000000001800 ) ) ;
#143 = CIRCLE ( 'NONE', #38, 6.000000000000000000 ) ;
#144 = DIRECTION ( 'NONE',  ( -1.000000000000000000, -0.0000000000000000000, -0.0000000000000000000 ) ) ;
#145 = CARTESIAN_POINT ( 'NONE',  ( 0.0000000000000000000, 6.000000000000000000, 0.0000000000000000000 ) ) ;
#146 = SURFACE_SIDE_STYLE ('',( #157 ) ) ;
#147 = CIRCLE ( 'NONE', #311, 9.899999999999998600 ) ;
#148 =( LENGTH_UNIT ( ) NAMED_UNIT ( * ) SI_UNIT ( .MILLI., .METRE. ) );
#149 = AXIS2_PLACEMENT_3D ( 'NONE', #30, #121, #60 ) ;
#150 = DIRECTION ( 'NONE',  ( -1.000000000000000000, -0.0000000000000000000, -0.0000000000000000000 ) ) ;
#151 = CARTESIAN_POINT ( 'NONE',  ( 0.0000000000000000000, 0.0000000000000000000, 9.999999999999998200 ) ) ;
#152 = PRODUCT ( 'GL-211-010-x Dichtung G10-x heco', 'GL-211-010-x Dichtung G10-x heco', '', ( #326 ) ) ;
#153 = FACE_OUTER_BOUND ( 'NONE', #310, .T. ) ;
#154 = CIRCLE ( 'NONE', #129, 9.899999999999998600 ) ;
#155 = DIRECTION ( 'NONE',  ( -1.000000000000000000, -0.0000000000000000000, -0.0000000000000000000 ) ) ;
#156 = ORIENTED_EDGE ( 'NONE', *, *, #329, .T. ) ;
#157 = SURFACE_STYLE_FILL_AREA ( #251 ) ;
#158 = FACE_OUTER_BOUND ( 'NONE', #41, .T. ) ;
#159 = EDGE_CURVE ( 'NONE', #180, #307, #62, .T. ) ;
#160 = TOROIDAL_SURFACE ( 'NONE', #107, 9.899999999999998600, 0.1000000000000000100 ) ;
#161 = ORIENTED_EDGE ( 'NONE', *, *, #181, .T. ) ;
#162 = ORIENTED_EDGE ( 'NONE', *, *, #190, .F. ) ;
#163 = CARTESIAN_POINT ( 'NONE',  ( 2.500000000000000900, 0.0000000000000000000, 0.0000000000000000000 ) ) ;
#164 = CIRCLE ( 'NONE', #299, 1.999999999999999100 ) ;
#165 = ORIENTED_EDGE ( 'NONE', *, *, #236, .T. ) ;
#166 = CARTESIAN_POINT ( 'NONE',  ( 0.0000000000000000000, 0.0000000000000000000, 0.0000000000000000000 ) ) ;
#167 = AXIS2_PLACEMENT_3D ( 'NONE', #14, #42, #12 ) ;
#168 = ORIENTED_EDGE ( 'NONE', *, *, #5, .T. ) ;
#169 = APPLICATION_PROTOCOL_DEFINITION ( 'draft international standard', 'automotive_design', 1998, #223 ) ;
#170 = DIRECTION ( 'NONE',  ( -1.000000000000000000, -0.0000000000000000000, -0.0000000000000000000 ) ) ;
#171 = CARTESIAN_POINT ( 'NONE',  ( 2.500000000000000400, 0.0000000000000000000, 0.0000000000000000000 ) ) ;
#172 =( NAMED_UNIT ( * ) PLANE_ANGLE_UNIT ( ) SI_UNIT ( $, .RADIAN. ) );
#173 = EDGE_CURVE ( 'NONE', #244, #103, #257, .T. ) ;
#174 = DIRECTION ( 'NONE',  ( 0.0000000000000000000, 0.0000000000000000000, -1.000000000000000000 ) ) ;
#175 = DIRECTION ( 'NONE',  ( 0.0000000000000000000, 0.0000000000000000000, 1.000000000000000000 ) ) ;
#176 = CIRCLE ( 'NONE', #263, 0.1000000000000002600 ) ;
#177 = FILL_AREA_STYLE_COLOUR ( '', #97 ) ;
#178 = AXIS2_PLACEMENT_3D ( 'NONE', #238, #117, #39 ) ;
#179 = VERTEX_POINT ( 'NONE', #110 ) ;
#180 = VERTEX_POINT ( 'NONE', #61 ) ;
#181 = EDGE_CURVE ( 'NONE', #22, #98, #305, .T. ) ;
#182 = EDGE_LOOP ( 'NONE', ( #161, #314, #260, #250 ) ) ;
#183 = EDGE_LOOP ( 'NONE', ( #289, #293, #255, #297 ) ) ;
#184 = PRESENTATION_LAYER_ASSIGNMENT (  '', '', ( #99 ) ) ;
#185 = CIRCLE ( 'NONE', #114, 9.999999999999998200 ) ;
#186 = TOROIDAL_SURFACE ( 'NONE', #228, 6.100000000000000500, 0.1000000000000000100 ) ;
#187 = EDGE_LOOP ( 'NONE', ( #295, #116, #36, #87 ) ) ;
#188 = EDGE_CURVE ( 'NONE', #11, #51, #333, .T. ) ;
#189 = DIRECTION ( 'NONE',  ( 1.000000000000000000, 0.0000000000000000000, 0.0000000000000000000 ) ) ;
#190 = EDGE_CURVE ( 'NONE', #51, #22, #164, .T. ) ;
#191 = LINE ( 'NONE', #96, #134 ) ;
#192 = DIRECTION ( 'NONE',  ( 0.0000000000000000000, -1.000000000000000000, 0.0000000000000000000 ) ) ;
#193 = CARTESIAN_POINT ( 'NONE',  ( 0.1000000000000000100, 0.0000000000000000000, 0.0000000000000000000 ) ) ;
#194 = DIRECTION ( 'NONE',  ( 1.000000000000000000, 0.0000000000000000000, 0.0000000000000000000 ) ) ;
#195 = CARTESIAN_POINT ( 'NONE',  ( 0.1000000000000000100, 0.0000000000000000000, -9.899999999999998600 ) ) ;
#196 = PRESENTATION_STYLE_ASSIGNMENT (( #275 ) ) ;
#197 = CARTESIAN_POINT ( 'NONE',  ( 2.500000000000000900, 0.0000000000000000000, 6.000000000000000900 ) ) ;
#198 = DIRECTION ( 'NONE',  ( 0.0000000000000000000, 0.0000000000000000000, 1.000000000000000000 ) ) ;
#199 = CARTESIAN_POINT ( 'NONE',  ( 0.0000000000000000000, 0.0000000000000000000, 0.0000000000000000000 ) ) ;
#200 = SHAPE_DEFINITION_REPRESENTATION ( #104, #230 ) ;
#201 = VECTOR ( 'NONE', #170, 1000.000000000000000 ) ;
#202 = CARTESIAN_POINT ( 'NONE',  ( 0.1000000000000000100, 0.0000000000000000000, 9.999999999999998200 ) ) ;
#203 = ORIENTED_EDGE ( 'NONE', *, *, #40, .T. ) ;
#204 =( NAMED_UNIT ( * ) PLANE_ANGLE_UNIT ( ) SI_UNIT ( $, .RADIAN. ) );
#205 = CARTESIAN_POINT ( 'NONE',  ( 2.500000000000000000, 1.224646799147353100E-015, -9.999999999999998200 ) ) ;
#206 = VECTOR ( 'NONE', #155, 1000.000000000000000 ) ;
#207 = EDGE_LOOP ( 'NONE', ( #203, #286 ) ) ;
#208 = DIRECTION ( 'NONE',  ( 0.0000000000000000000, 0.0000000000000000000, -1.000000000000000000 ) ) ;
#209 = AXIS2_PLACEMENT_3D ( 'NONE', #199, #32, #174 ) ;
#210 = FACE_OUTER_BOUND ( 'NONE', #212, .T. ) ;
#211 = ORIENTED_EDGE ( 'NONE', *, *, #322, .T. ) ;
#212 = EDGE_LOOP ( 'NONE', ( #133, #84, #109, #50 ) ) ;
#213 = CARTESIAN_POINT ( 'NONE',  ( 0.0000000000000000000, 0.0000000000000000000, 0.0000000000000000000 ) ) ;
#214 = VERTEX_POINT ( 'NONE', #243 ) ;
#215 = DIRECTION ( 'NONE',  ( -1.000000000000000000, -0.0000000000000000000, -0.0000000000000000000 ) ) ;
#216 = EDGE_LOOP ( 'NONE', ( #24, #106, #113, #118 ) ) ;
#217 = DIRECTION ( 'NONE',  ( 0.0000000000000000000, 0.0000000000000000000, -1.000000000000000000 ) ) ;
#218 =( GEOMETRIC_REPRESENTATION_CONTEXT ( 3 ) GLOBAL_UNCERTAINTY_ASSIGNED_CONTEXT ( ( #72 ) ) GLOBAL_UNIT_ASSIGNED_CONTEXT ( ( #15, #204, #37 ) ) REPRESENTATION_CONTEXT ( 'NONE', 'WORKASPACE' ) );
#219 = CARTESIAN_POINT ( 'NONE',  ( 2.500000000000000400, 9.797174393178825700E-016, -8.000000000000000000 ) ) ;
#220 = DIRECTION ( 'NONE',  ( -1.000000000000000000, -0.0000000000000000000, -0.0000000000000000000 ) ) ;
#221 =( NAMED_UNIT ( * ) PLANE_ANGLE_UNIT ( ) SI_UNIT ( $, .RADIAN. ) );
#222 = FACE_OUTER_BOUND ( 'NONE', #182, .T. ) ;
#223 = APPLICATION_CONTEXT ( 'automotive_design' ) ;
#224 = EDGE_CURVE ( 'NONE', #307, #103, #48, .T. ) ;
#225 = SURFACE_SIDE_STYLE ('',( #44 ) ) ;
#226 = LINE ( 'NONE', #335, #206 ) ;
#227 =( LENGTH_UNIT ( ) NAMED_UNIT ( * ) SI_UNIT ( .MILLI., .METRE. ) );
#228 = AXIS2_PLACEMENT_3D ( 'NONE', #193, #247, #325 ) ;
#229 = CARTESIAN_POINT ( 'NONE',  ( 0.1000000000000000100, 1.224646799147353100E-015, -9.999999999999998200 ) ) ;
#230 = ADVANCED_BREP_SHAPE_REPRESENTATION ( 'GL-211-010-x Dichtung G10-x heco', ( #301, #338 ), #73 ) ;
#231 = ORIENTED_EDGE ( 'NONE', *, *, #258, .F. ) ;
#232 = AXIS2_PLACEMENT_3D ( 'NONE', #34, #274, #304 ) ;
#233 = VERTEX_POINT ( 'NONE', #320 ) ;
#234 = DIRECTION ( 'NONE',  ( -1.000000000000000000, -0.0000000000000000000, -0.0000000000000000000 ) ) ;
#235 = AXIS2_PLACEMENT_3D ( 'NONE', #79, #189, #138 ) ;
#236 = EDGE_CURVE ( 'NONE', #51, #11, #120, .T. ) ;
#237 = EDGE_CURVE ( 'NONE', #244, #180, #147, .T. ) ;
#238 = CARTESIAN_POINT ( 'NONE',  ( 0.0000000000000000000, 0.0000000000000000000, 0.0000000000000000000 ) ) ;
#239 = ADVANCED_FACE ( 'NONE', ( #290 ), #76, .F. ) ;
#240 = TOROIDAL_SURFACE ( 'NONE', #285, 8.000000000000000000, 1.999999999999999100 ) ;
#241 = CARTESIAN_POINT ( 'NONE',  ( 0.0000000000000000000, 0.0000000000000000000, 0.0000000000000000000 ) ) ;
#242 = ORIENTED_EDGE ( 'NONE', *, *, #190, .T. ) ;
#243 = CARTESIAN_POINT ( 'NONE',  ( 0.1000000000000000100, 7.347880794884119700E-016, -6.000000000000000000 ) ) ;
#244 = VERTEX_POINT ( 'NONE', #80 ) ;
#245 = ORIENTED_EDGE ( 'NONE', *, *, #181, .F. ) ;
#246 = AXIS2_PLACEMENT_3D ( 'NONE', #241, #26, #81 ) ;
#247 = DIRECTION ( 'NONE',  ( 1.000000000000000000, 0.0000000000000000000, 0.0000000000000000000 ) ) ;
#248 = CYLINDRICAL_SURFACE ( 'NONE', #119, 6.000000000000000000 ) ;
#249 = EDGE_LOOP ( 'NONE', ( #165, #46, #245, #162 ) ) ;
#250 = ORIENTED_EDGE ( 'NONE', *, *, #329, .F. ) ;
#251 = FILL_AREA_STYLE ('',( #177 ) ) ;
#252 = CARTESIAN_POINT ( 'NONE',  ( 0.1000000000000000100, 0.0000000000000000000, 0.0000000000000000000 ) ) ;
#253 = CIRCLE ( 'NONE', #232, 0.1000000000000002600 ) ;
#254 = ORIENTED_EDGE ( 'NONE', *, *, #122, .T. ) ;
#255 = ORIENTED_EDGE ( 'NONE', *, *, #75, .F. ) ;
#256 = PRESENTATION_LAYER_ASSIGNMENT (  '', '', ( #93 ) ) ;
#257 = CIRCLE ( 'NONE', #340, 0.09999999999999939500 ) ;
#258 = EDGE_CURVE ( 'NONE', #11, #98, #3, .T. ) ;
#259 = COLOUR_RGB ( '',1.000000000000000000, 0.0000000000000000000, 0.0000000000000000000 ) ;
#260 = ORIENTED_EDGE ( 'NONE', *, *, #75, .T. ) ;
#261 = CARTESIAN_POINT ( 'NONE',  ( 0.0000000000000000000, 0.0000000000000000000, 0.0000000000000000000 ) ) ;
#262 = VECTOR ( 'NONE', #128, 1000.000000000000000 ) ;
#263 = AXIS2_PLACEMENT_3D ( 'NONE', #100, #20, #287 ) ;
#264 = ADVANCED_FACE ( 'NONE', ( #339, #59 ), #300, .F. ) ;
#265 = DIRECTION ( 'NONE',  ( -1.000000000000000000, -0.0000000000000000000, -0.0000000000000000000 ) ) ;
#266 = DIRECTION ( 'NONE',  ( 0.0000000000000000000, 1.000000000000000000, -1.224646799147353200E-016 ) ) ;
#267 = DIRECTION ( 'NONE',  ( -1.000000000000000000, -0.0000000000000000000, -0.0000000000000000000 ) ) ;
#268 = DIRECTION ( 'NONE',  ( -0.0000000000000000000, 1.000000000000000000, 1.224646799147353200E-016 ) ) ;
#269 = CYLINDRICAL_SURFACE ( 'NONE', #82, 9.999999999999998200 ) ;
#270 = ORIENTED_EDGE ( 'NONE', *, *, #188, .T. ) ;
#271 = DIRECTION ( 'NONE',  ( -1.000000000000000000, -0.0000000000000000000, -0.0000000000000000000 ) ) ;
#272 = MECHANICAL_DESIGN_GEOMETRIC_PRESENTATION_REPRESENTATION (  '', ( #99 ), #218 ) ;
#273 = DIRECTION ( 'NONE',  ( 0.0000000000000000000, -1.000000000000000000, 0.0000000000000000000 ) ) ;
#274 = DIRECTION ( 'NONE',  ( 0.0000000000000000000, 1.000000000000000000, -1.224646799147353200E-016 ) ) ;
#275 = SURFACE_STYLE_USAGE ( .BOTH. , #225 ) ;
#276 = MECHANICAL_DESIGN_GEOMETRIC_PRESENTATION_REPRESENTATION (  '', ( #93 ), #294 ) ;
#277 = APPLICATION_PROTOCOL_DEFINITION ( 'draft international standard', 'automotive_design', 1998, #92 ) ;
#278 = ORIENTED_EDGE ( 'NONE', *, *, #23, .F. ) ;
#279 = DIRECTION ( 'NONE',  ( -1.000000000000000000, -0.0000000000000000000, -0.0000000000000000000 ) ) ;
#280 = EDGE_CURVE ( 'NONE', #233, #288, #317, .T. ) ;
#281 = ADVANCED_FACE ( 'NONE', ( #210 ), #248, .F. ) ;
#282 = ORIENTED_EDGE ( 'NONE', *, *, #135, .F. ) ;
#283 = SURFACE_STYLE_USAGE ( .BOTH. , #146 ) ;
#284 = ADVANCED_FACE ( 'NONE', ( #131 ), #7, .T. ) ;
#285 = AXIS2_PLACEMENT_3D ( 'NONE', #171, #220, #90 ) ;
#286 = ORIENTED_EDGE ( 'NONE', *, *, #280, .T. ) ;
#287 = DIRECTION ( 'NONE',  ( 0.0000000000000000000, 0.0000000000000000000, -1.000000000000000000 ) ) ;
#288 = VERTEX_POINT ( 'NONE', #123 ) ;
#289 = ORIENTED_EDGE ( 'NONE', *, *, #122, .F. ) ;
#290 = FACE_OUTER_BOUND ( 'NONE', #303, .T. ) ;
#291 = AXIS2_PLACEMENT_3D ( 'NONE', #330, #279, #127 ) ;
#292 = LINE ( 'NONE', #64, #262 ) ;
#293 = ORIENTED_EDGE ( 'NONE', *, *, #159, .T. ) ;
#294 =( GEOMETRIC_REPRESENTATION_CONTEXT ( 3 ) GLOBAL_UNCERTAINTY_ASSIGNED_CONTEXT ( ( #102 ) ) GLOBAL_UNIT_ASSIGNED_CONTEXT ( ( #227, #221, #63 ) ) REPRESENTATION_CONTEXT ( 'NONE', 'WORKASPACE' ) );
#295 = ORIENTED_EDGE ( 'NONE', *, *, #25, .F. ) ;
#296 = CIRCLE ( 'NONE', #319, 6.000000000000000000 ) ;
#297 = ORIENTED_EDGE ( 'NONE', *, *, #173, .F. ) ;
#298 = DIRECTION ( 'NONE',  ( 0.0000000000000000000, 0.0000000000000000000, 1.000000000000000000 ) ) ;
#299 = AXIS2_PLACEMENT_3D ( 'NONE', #139, #192, #302 ) ;
#300 = PLANE ( 'NONE',  #58 ) ;
#301 = MANIFOLD_SOLID_BREP ( 'Verrundung1', #336 ) ;
#302 = DIRECTION ( 'NONE',  ( 0.0000000000000000000, 0.0000000000000000000, -1.000000000000000000 ) ) ;
#303 = EDGE_LOOP ( 'NONE', ( #278, #313, #211, #168 ) ) ;
#304 = DIRECTION ( 'NONE',  ( 0.0000000000000000000, 1.224646799147353200E-016, 1.000000000000000000 ) ) ;
#305 = CIRCLE ( 'NONE', #327, 9.999999999999998200 ) ;
#306 = DIRECTION ( 'NONE',  ( 1.000000000000000000, 0.0000000000000000000, 0.0000000000000000000 ) ) ;
#307 = VERTEX_POINT ( 'NONE', #202 ) ;
#308 = ORIENTED_EDGE ( 'NONE', *, *, #224, .T. ) ;
#309 = DIRECTION ( 'NONE',  ( -1.000000000000000000, -0.0000000000000000000, -0.0000000000000000000 ) ) ;
#310 = EDGE_LOOP ( 'NONE', ( #231, #270, #242, #282 ) ) ;
#311 = AXIS2_PLACEMENT_3D ( 'NONE', #213, #265, #33 ) ;
#312 = CIRCLE ( 'NONE', #53, 9.999999999999998200 ) ;
#313 = ORIENTED_EDGE ( 'NONE', *, *, #236, .F. ) ;
#314 = ORIENTED_EDGE ( 'NONE', *, *, #86, .T. ) ;
#315 = ORIENTED_EDGE ( 'NONE', *, *, #86, .F. ) ;
#316 = DIRECTION ( 'NONE',  ( 0.0000000000000000000, 0.0000000000000000000, 1.000000000000000000 ) ) ;
#317 = CIRCLE ( 'NONE', #178, 6.100000000000000500 ) ;
#318 = ORIENTED_EDGE ( 'NONE', *, *, #5, .F. ) ;
#319 = AXIS2_PLACEMENT_3D ( 'NONE', #252, #331, #130 ) ;
#320 = CARTESIAN_POINT ( 'NONE',  ( 0.0000000000000000000, 7.470345474798855300E-016, 6.100000000000000500 ) ) ;
#321 = CARTESIAN_POINT ( 'NONE',  ( 2.500000000000000900, 0.0000000000000000000, 0.0000000000000000000 ) ) ;
#322 = EDGE_CURVE ( 'NONE', #51, #179, #292, .T. ) ;
#323 = ORIENTED_EDGE ( 'NONE', *, *, #237, .T. ) ;
#324 = DIRECTION ( 'NONE',  ( 0.0000000000000000000, -1.224646799147353000E-016, 1.000000000000000000 ) ) ;
#325 = DIRECTION ( 'NONE',  ( 0.0000000000000000000, 0.0000000000000000000, -1.000000000000000000 ) ) ;
#326 = PRODUCT_CONTEXT ( 'NONE', #92, 'mechanical' ) ;
#327 = AXIS2_PLACEMENT_3D ( 'NONE', #57, #88, #298 ) ;
#328 = CARTESIAN_POINT ( 'NONE',  ( 2.500000000000000000, 0.0000000000000000000, 9.999999999999998200 ) ) ;
#329 = EDGE_CURVE ( 'NONE', #22, #307, #105, .T. ) ;
#330 = CARTESIAN_POINT ( 'NONE',  ( 2.500000000000000400, 0.0000000000000000000, 0.0000000000000000000 ) ) ;
#331 = DIRECTION ( 'NONE',  ( -1.000000000000000000, -0.0000000000000000000, -0.0000000000000000000 ) ) ;
#332 = AXIS2_PLACEMENT_3D ( 'NONE', #89, #266, #141 ) ;
#333 = CIRCLE ( 'NONE', #10, 6.000000000000000900 ) ;
#334 = EDGE_LOOP ( 'NONE', ( #318, #77, #45, #9 ) ) ;
#335 = CARTESIAN_POINT ( 'NONE',  ( 0.0000000000000000000, 1.224646799147353100E-015, -9.999999999999998200 ) ) ;
#336 = CLOSED_SHELL ( 'NONE', ( #16, #69, #28, #1, #281, #239, #264, #21, #337, #284, #6 ) ) ;
#337 = ADVANCED_FACE ( 'NONE', ( #153 ), #78, .T. ) ;
#338 = AXIS2_PLACEMENT_3D ( 'NONE', #18, #175, #95 ) ;
#339 = FACE_OUTER_BOUND ( 'NONE', #54, .T. ) ;
#340 = AXIS2_PLACEMENT_3D ( 'NONE', #195, #273, #55 ) ;
ENDSEC;
END-ISO-10303-21;
