ISO-10303-21;
HEADER;
FILE_DESCRIPTION (( 'STEP AP214' ),
    '1' );
FILE_NAME ('GL-211-015-x Dichtung G15-x heco.STEP',
    '2017-09-01T09:27:32',
    ( '' ),
    ( '' ),
    'SwSTEP 2.0',
    'SolidWorks 2016',
    '' );
FILE_SCHEMA (( 'AUTOMOTIVE_DESIGN' ));
ENDSEC;

DATA;
#1 = DIRECTION ( 'NONE',  ( 0.0000000000000000000, 1.000000000000000000, -1.224646799147353200E-016 ) ) ;
#2 = EDGE_CURVE ( 'NONE', #89, #284, #76, .T. ) ;
#3 = DIRECTION ( 'NONE',  ( 0.0000000000000000000, 0.0000000000000000000, 1.000000000000000000 ) ) ;
#4 = DIRECTION ( 'NONE',  ( 0.0000000000000000000, 0.0000000000000000000, -1.000000000000000000 ) ) ;
#5 = ORIENTED_EDGE ( 'NONE', *, *, #168, .T. ) ;
#6 = VERTEX_POINT ( 'NONE', #174 ) ;
#7 = CARTESIAN_POINT ( 'NONE',  ( 0.0000000000000000000, 0.0000000000000000000, 0.0000000000000000000 ) ) ;
#8 = AXIS2_PLACEMENT_3D ( 'NONE', #285, #162, #4 ) ;
#9 = VECTOR ( 'NONE', #230, 1000.000000000000000 ) ;
#10 = ORIENTED_EDGE ( 'NONE', *, *, #2, .T. ) ;
#11 = PRODUCT_DEFINITION_FORMATION_WITH_SPECIFIED_SOURCE ( 'ANY', '', #324, .NOT_KNOWN. ) ;
#12 = FILL_AREA_STYLE ('',( #148 ) ) ;
#13 = CIRCLE ( 'NONE', #219, 9.000000000000001800 ) ;
#14 = VECTOR ( 'NONE', #66, 1000.000000000000000 ) ;
#15 = AXIS2_PLACEMENT_3D ( 'NONE', #68, #231, #303 ) ;
#16 = SURFACE_SIDE_STYLE ('',( #75 ) ) ;
#17 = CARTESIAN_POINT ( 'NONE',  ( 0.1000000000000000100, 1.102182119232617900E-015, -9.000000000000001800 ) ) ;
#18 = ORIENTED_EDGE ( 'NONE', *, *, #163, .T. ) ;
#19 = DIRECTION ( 'NONE',  ( 1.000000000000000000, 0.0000000000000000000, 0.0000000000000000000 ) ) ;
#20 = PRODUCT_RELATED_PRODUCT_CATEGORY ( 'part', '', ( #324 ) ) ;
#21 = CIRCLE ( 'NONE', #243, 9.099999999999999600 ) ;
#22 = ORIENTED_EDGE ( 'NONE', *, *, #322, .T. ) ;
#23 = DIRECTION ( 'NONE',  ( 1.000000000000000000, 0.0000000000000000000, 0.0000000000000000000 ) ) ;
#24 = DIRECTION ( 'NONE',  ( 1.000000000000000000, 0.0000000000000000000, 0.0000000000000000000 ) ) ;
#25 = AXIS2_PLACEMENT_3D ( 'NONE', #315, #264, #245 ) ;
#26 = DIRECTION ( 'NONE',  ( -1.000000000000000000, -0.0000000000000000000, -0.0000000000000000000 ) ) ;
#27 = PRESENTATION_STYLE_ASSIGNMENT (( #142 ) ) ;
#28 = MECHANICAL_DESIGN_GEOMETRIC_PRESENTATION_REPRESENTATION (  '', ( #41 ), #44 ) ;
#29 = ORIENTED_EDGE ( 'NONE', *, *, #207, .F. ) ;
#30 = DIRECTION ( 'NONE',  ( 1.000000000000000000, 0.0000000000000000000, 0.0000000000000000000 ) ) ;
#31 = PRESENTATION_LAYER_ASSIGNMENT (  '', '', ( #41 ) ) ;
#32 = CARTESIAN_POINT ( 'NONE',  ( 2.500000000000000400, 0.0000000000000000000, 0.0000000000000000000 ) ) ;
#33 = APPLICATION_PROTOCOL_DEFINITION ( 'draft international standard', 'automotive_design', 1998, #138 ) ;
#34 = DIRECTION ( 'NONE',  ( -1.000000000000000000, -0.0000000000000000000, -0.0000000000000000000 ) ) ;
#35 = ORIENTED_EDGE ( 'NONE', *, *, #310, .T. ) ;
#36 =( GEOMETRIC_REPRESENTATION_CONTEXT ( 3 ) GLOBAL_UNCERTAINTY_ASSIGNED_CONTEXT ( ( #169 ) ) GLOBAL_UNIT_ASSIGNED_CONTEXT ( ( #115, #165, #217 ) ) REPRESENTATION_CONTEXT ( 'NONE', 'WORKASPACE' ) );
#37 = DIRECTION ( 'NONE',  ( 0.0000000000000000000, 0.0000000000000000000, -1.000000000000000000 ) ) ;
#38 = CARTESIAN_POINT ( 'NONE',  ( 0.0000000000000000000, 0.0000000000000000000, 0.0000000000000000000 ) ) ;
#39 = TOROIDAL_SURFACE ( 'NONE', #15, 9.099999999999999600, 0.1000000000000000100 ) ;
#40 = VERTEX_POINT ( 'NONE', #151 ) ;
#41 = STYLED_ITEM ( 'NONE', ( #27 ), #298 ) ;
#42 = EDGE_CURVE ( 'NONE', #200, #89, #216, .T. ) ;
#43 = EDGE_LOOP ( 'NONE', ( #192, #195, #10, #296 ) ) ;
#44 =( GEOMETRIC_REPRESENTATION_CONTEXT ( 3 ) GLOBAL_UNCERTAINTY_ASSIGNED_CONTEXT ( ( #101 ) ) GLOBAL_UNIT_ASSIGNED_CONTEXT ( ( #297, #190, #166 ) ) REPRESENTATION_CONTEXT ( 'NONE', 'WORKASPACE' ) );
#45 = DIRECTION ( 'NONE',  ( -1.000000000000000000, -0.0000000000000000000, -0.0000000000000000000 ) ) ;
#46 = DIRECTION ( 'NONE',  ( 0.0000000000000000000, -1.000000000000000000, 0.0000000000000000000 ) ) ;
#47 = CARTESIAN_POINT ( 'NONE',  ( 2.500000000000000000, 0.0000000000000000000, 0.0000000000000000000 ) ) ;
#48 = CIRCLE ( 'NONE', #305, 12.89999999999999900 ) ;
#49 = ORIENTED_EDGE ( 'NONE', *, *, #268, .T. ) ;
#50 = CARTESIAN_POINT ( 'NONE',  ( 0.1000000000000000100, 0.0000000000000000000, 0.0000000000000000000 ) ) ;
#51 = EDGE_CURVE ( 'NONE', #6, #246, #107, .T. ) ;
#52 = DIRECTION ( 'NONE',  ( -1.000000000000000000, -0.0000000000000000000, -0.0000000000000000000 ) ) ;
#53 = AXIS2_PLACEMENT_3D ( 'NONE', #57, #134, #318 ) ;
#54 = CARTESIAN_POINT ( 'NONE',  ( 0.1000000000000000100, 0.0000000000000000000, 12.99999999999999800 ) ) ;
#55 = DIRECTION ( 'NONE',  ( 0.0000000000000000000, 0.0000000000000000000, 1.000000000000000000 ) ) ;
#56 = EDGE_CURVE ( 'NONE', #40, #164, #232, .T. ) ;
#57 = CARTESIAN_POINT ( 'NONE',  ( 0.1000000000000000100, 0.0000000000000000000, -9.099999999999999600 ) ) ;
#58 = ORIENTED_EDGE ( 'NONE', *, *, #248, .F. ) ;
#59 = DIRECTION ( 'NONE',  ( 0.0000000000000000000, 0.0000000000000000000, 1.000000000000000000 ) ) ;
#60 = DIRECTION ( 'NONE',  ( 0.0000000000000000000, -1.000000000000000000, 0.0000000000000000000 ) ) ;
#61 = COLOUR_RGB ( '',1.000000000000000000, 0.0000000000000000000, 0.0000000000000000000 ) ;
#62 = TOROIDAL_SURFACE ( 'NONE', #8, 9.099999999999999600, 0.1000000000000000100 ) ;
#63 = EDGE_CURVE ( 'NONE', #112, #266, #307, .T. ) ;
#64 = FACE_OUTER_BOUND ( 'NONE', #314, .T. ) ;
#65 = ADVANCED_FACE ( 'NONE', ( #172 ), #62, .T. ) ;
#66 = DIRECTION ( 'NONE',  ( -1.000000000000000000, -0.0000000000000000000, -0.0000000000000000000 ) ) ;
#67 = CARTESIAN_POINT ( 'NONE',  ( 2.499999999999999600, 0.0000000000000000000, 12.99999999999999800 ) ) ;
#68 = CARTESIAN_POINT ( 'NONE',  ( 0.1000000000000000100, 0.0000000000000000000, 0.0000000000000000000 ) ) ;
#69 = ORIENTED_EDGE ( 'NONE', *, *, #132, .T. ) ;
#70 = ORIENTED_EDGE ( 'NONE', *, *, #63, .T. ) ;
#71 = AXIS2_PLACEMENT_3D ( 'NONE', #291, #30, #85 ) ;
#72 = CARTESIAN_POINT ( 'NONE',  ( 2.500000000000000400, 0.0000000000000000000, 0.0000000000000000000 ) ) ;
#73 = DIRECTION ( 'NONE',  ( 0.0000000000000000000, 0.0000000000000000000, -1.000000000000000000 ) ) ;
#74 = ORIENTED_EDGE ( 'NONE', *, *, #261, .T. ) ;
#75 = SURFACE_STYLE_FILL_AREA ( #12 ) ;
#76 = LINE ( 'NONE', #98, #14 ) ;
#77 = EDGE_LOOP ( 'NONE', ( #173, #312, #140, #228 ) ) ;
#78 = DIRECTION ( 'NONE',  ( -1.000000000000000000, -0.0000000000000000000, -0.0000000000000000000 ) ) ;
#79 = UNCERTAINTY_MEASURE_WITH_UNIT (LENGTH_MEASURE( 1.000000000000000100E-005 ), #201, 'distance_accuracy_value', 'NONE');
#80 = CARTESIAN_POINT ( 'NONE',  ( 0.1000000000000000100, 0.0000000000000000000, -12.89999999999999900 ) ) ;
#81 = CARTESIAN_POINT ( 'NONE',  ( 0.0000000000000000000, 0.0000000000000000000, 0.0000000000000000000 ) ) ;
#82 = LINE ( 'NONE', #123, #9 ) ;
#83 = CARTESIAN_POINT ( 'NONE',  ( 0.1000000000000000100, 0.0000000000000000000, 9.000000000000001800 ) ) ;
#84 = AXIS2_PLACEMENT_3D ( 'NONE', #81, #263, #137 ) ;
#85 = DIRECTION ( 'NONE',  ( 0.0000000000000000000, 0.0000000000000000000, -1.000000000000000000 ) ) ;
#86 = APPLICATION_CONTEXT ( 'automotive_design' ) ;
#87 = CYLINDRICAL_SURFACE ( 'NONE', #84, 12.99999999999999800 ) ;
#88 = CIRCLE ( 'NONE', #71, 12.99999999999999800 ) ;
#89 = VERTEX_POINT ( 'NONE', #67 ) ;
#90 = AXIS2_PLACEMENT_3D ( 'NONE', #80, #46, #260 ) ;
#91 = SURFACE_SIDE_STYLE ('',( #287 ) ) ;
#92 = ADVANCED_FACE ( 'NONE', ( #252 ), #110, .T. ) ;
#93 = AXIS2_PLACEMENT_3D ( 'NONE', #211, #320, #242 ) ;
#94 = ORIENTED_EDGE ( 'NONE', *, *, #248, .T. ) ;
#95 = PRODUCT_DEFINITION_SHAPE ( 'NONE', 'NONE',  #300 ) ;
#96 = ORIENTED_EDGE ( 'NONE', *, *, #322, .F. ) ;
#97 = AXIS2_PLACEMENT_3D ( 'NONE', #72, #181, #206 ) ;
#98 = CARTESIAN_POINT ( 'NONE',  ( 0.0000000000000000000, 0.0000000000000000000, 12.99999999999999800 ) ) ;
#99 = PRESENTATION_LAYER_ASSIGNMENT (  '', '', ( #176 ) ) ;
#100 = CIRCLE ( 'NONE', #277, 12.99999999999999800 ) ;
#101 = UNCERTAINTY_MEASURE_WITH_UNIT (LENGTH_MEASURE( 1.000000000000000100E-005 ), #297, 'distance_accuracy_value', 'NONE');
#102 =( NAMED_UNIT ( * ) PLANE_ANGLE_UNIT ( ) SI_UNIT ( $, .RADIAN. ) );
#103 = DIRECTION ( 'NONE',  ( 0.0000000000000000000, 0.0000000000000000000, 1.000000000000000000 ) ) ;
#104 = ORIENTED_EDGE ( 'NONE', *, *, #224, .T. ) ;
#105 = CARTESIAN_POINT ( 'NONE',  ( 0.1000000000000000100, 1.579794370900085500E-015, 12.89999999999999900 ) ) ;
#106 = CARTESIAN_POINT ( 'NONE',  ( 2.499999999999999600, 0.0000000000000000000, 0.0000000000000000000 ) ) ;
#107 = CIRCLE ( 'NONE', #97, 9.000000000000001800 ) ;
#108 = ORIENTED_EDGE ( 'NONE', *, *, #327, .T. ) ;
#109 = CARTESIAN_POINT ( 'NONE',  ( 0.1000000000000000100, 1.114428587224091500E-015, 9.099999999999999600 ) ) ;
#110 = CYLINDRICAL_SURFACE ( 'NONE', #113, 12.99999999999999800 ) ;
#111 = CARTESIAN_POINT ( 'NONE',  ( 0.0000000000000000000, 1.114428587224091500E-015, 9.099999999999999600 ) ) ;
#112 = VERTEX_POINT ( 'NONE', #274 ) ;
#113 = AXIS2_PLACEMENT_3D ( 'NONE', #189, #34, #215 ) ;
#114 = DIRECTION ( 'NONE',  ( 1.000000000000000000, 0.0000000000000000000, 0.0000000000000000000 ) ) ;
#115 =( LENGTH_UNIT ( ) NAMED_UNIT ( * ) SI_UNIT ( .MILLI., .METRE. ) );
#116 = EDGE_LOOP ( 'NONE', ( #96, #74, #299, #157 ) ) ;
#117 = EDGE_LOOP ( 'NONE', ( #150, #210, #35, #182 ) ) ;
#118 = AXIS2_PLACEMENT_3D ( 'NONE', #202, #45, #198 ) ;
#119 = TOROIDAL_SURFACE ( 'NONE', #191, 12.89999999999999900, 0.1000000000000000100 ) ;
#120 = EDGE_LOOP ( 'NONE', ( #328, #289, #108, #154 ) ) ;
#121 = DIRECTION ( 'NONE',  ( 0.0000000000000000000, 0.0000000000000000000, -1.000000000000000000 ) ) ;
#122 = MECHANICAL_DESIGN_GEOMETRIC_PRESENTATION_REPRESENTATION (  '', ( #176 ), #141 ) ;
#123 = CARTESIAN_POINT ( 'NONE',  ( 0.0000000000000000000, 1.592040838891558900E-015, -12.99999999999999800 ) ) ;
#124 = VERTEX_POINT ( 'NONE', #333 ) ;
#125 = ORIENTED_EDGE ( 'NONE', *, *, #273, .T. ) ;
#126 = EDGE_CURVE ( 'NONE', #131, #241, #170, .T. ) ;
#127 = CARTESIAN_POINT ( 'NONE',  ( 0.0000000000000000000, 9.000000000000000000, 0.0000000000000000000 ) ) ;
#128 = COLOUR_RGB ( '',1.000000000000000000, 0.0000000000000000000, 0.0000000000000000000 ) ;
#129 = AXIS2_PLACEMENT_3D ( 'NONE', #158, #24, #321 ) ;
#130 = DIRECTION ( 'NONE',  ( 0.0000000000000000000, 1.000000000000000000, -1.224646799147353200E-016 ) ) ;
#131 = VERTEX_POINT ( 'NONE', #17 ) ;
#132 = EDGE_CURVE ( 'NONE', #246, #241, #194, .T. ) ;
#133 = DIRECTION ( 'NONE',  ( 0.0000000000000000000, 1.224646799147353900E-016, 1.000000000000000000 ) ) ;
#134 = DIRECTION ( 'NONE',  ( 0.0000000000000000000, -1.000000000000000000, 0.0000000000000000000 ) ) ;
#135 = CIRCLE ( 'NONE', #197, 1.999999999999998200 ) ;
#136 = CIRCLE ( 'NONE', #334, 0.09999999999999939500 ) ;
#137 = DIRECTION ( 'NONE',  ( 0.0000000000000000000, 0.0000000000000000000, 1.000000000000000000 ) ) ;
#138 = APPLICATION_CONTEXT ( 'automotive_design' ) ;
#139 = CYLINDRICAL_SURFACE ( 'NONE', #93, 9.000000000000001800 ) ;
#140 = ORIENTED_EDGE ( 'NONE', *, *, #56, .T. ) ;
#141 =( GEOMETRIC_REPRESENTATION_CONTEXT ( 3 ) GLOBAL_UNCERTAINTY_ASSIGNED_CONTEXT ( ( #79 ) ) GLOBAL_UNIT_ASSIGNED_CONTEXT ( ( #201, #102, #196 ) ) REPRESENTATION_CONTEXT ( 'NONE', 'WORKASPACE' ) );
#142 = SURFACE_STYLE_USAGE ( .BOTH. , #91 ) ;
#143 = AXIS2_PLACEMENT_3D ( 'NONE', #319, #193, #188 ) ;
#144 = ADVANCED_FACE ( 'NONE', ( #293 ), #119, .T. ) ;
#145 = CYLINDRICAL_SURFACE ( 'NONE', #335, 9.000000000000001800 ) ;
#146 = EDGE_LOOP ( 'NONE', ( #49, #5, #187, #160 ) ) ;
#147 = ADVANCED_FACE ( 'NONE', ( #222 ), #39, .T. ) ;
#148 = FILL_AREA_STYLE_COLOUR ( '', #61 ) ;
#149 = FACE_OUTER_BOUND ( 'NONE', #156, .T. ) ;
#150 = ORIENTED_EDGE ( 'NONE', *, *, #261, .F. ) ;
#151 = CARTESIAN_POINT ( 'NONE',  ( 0.0000000000000000000, 0.0000000000000000000, -12.89999999999999900 ) ) ;
#152 = MANIFOLD_SOLID_BREP ( 'Verrundung1', #233 ) ;
#153 = AXIS2_PLACEMENT_3D ( 'NONE', #234, #229, #73 ) ;
#154 = ORIENTED_EDGE ( 'NONE', *, *, #42, .F. ) ;
#155 = CIRCLE ( 'NONE', #179, 0.09999999999999939500 ) ;
#156 = EDGE_LOOP ( 'NONE', ( #317, #94 ) ) ;
#157 = ORIENTED_EDGE ( 'NONE', *, *, #310, .F. ) ;
#158 = CARTESIAN_POINT ( 'NONE',  ( 0.0000000000000000000, 0.0000000000000000000, 0.0000000000000000000 ) ) ;
#159 = ORIENTED_EDGE ( 'NONE', *, *, #218, .T. ) ;
#160 = ORIENTED_EDGE ( 'NONE', *, *, #327, .F. ) ;
#161 = CARTESIAN_POINT ( 'NONE',  ( 2.500000000000000400, 0.0000000000000000000, 9.000000000000001800 ) ) ;
#162 = DIRECTION ( 'NONE',  ( 1.000000000000000000, 0.0000000000000000000, 0.0000000000000000000 ) ) ;
#163 = EDGE_CURVE ( 'NONE', #200, #164, #82, .T. ) ;
#164 = VERTEX_POINT ( 'NONE', #308 ) ;
#165 =( NAMED_UNIT ( * ) PLANE_ANGLE_UNIT ( ) SI_UNIT ( $, .RADIAN. ) );
#166 =( NAMED_UNIT ( * ) SI_UNIT ( $, .STERADIAN. ) SOLID_ANGLE_UNIT ( ) );
#167 = ADVANCED_FACE ( 'NONE', ( #149, #280 ), #254, .F. ) ;
#168 = EDGE_CURVE ( 'NONE', #6, #200, #212, .T. ) ;
#169 = UNCERTAINTY_MEASURE_WITH_UNIT (LENGTH_MEASURE( 1.000000000000000100E-005 ), #115, 'distance_accuracy_value', 'NONE');
#170 = CIRCLE ( 'NONE', #153, 9.000000000000001800 ) ;
#171 = AXIS2_PLACEMENT_3D ( 'NONE', #175, #309, #235 ) ;
#172 = FACE_OUTER_BOUND ( 'NONE', #116, .T. ) ;
#173 = ORIENTED_EDGE ( 'NONE', *, *, #218, .F. ) ;
#174 = CARTESIAN_POINT ( 'NONE',  ( 2.500000000000000400, 1.102182119232617900E-015, -9.000000000000001800 ) ) ;
#175 = CARTESIAN_POINT ( 'NONE',  ( 2.500000000000000000, 1.347111479062088400E-015, -11.00000000000000000 ) ) ;
#176 = STYLED_ITEM ( 'NONE', ( #199 ), #152 ) ;
#177 = FACE_OUTER_BOUND ( 'NONE', #120, .T. ) ;
#178 = ORIENTED_EDGE ( 'NONE', *, *, #2, .F. ) ;
#179 = AXIS2_PLACEMENT_3D ( 'NONE', #109, #1, #240 ) ;
#180 = ORIENTED_EDGE ( 'NONE', *, *, #207, .T. ) ;
#181 = DIRECTION ( 'NONE',  ( -1.000000000000000000, -0.0000000000000000000, -0.0000000000000000000 ) ) ;
#182 = ORIENTED_EDGE ( 'NONE', *, *, #224, .F. ) ;
#183 = DIRECTION ( 'NONE',  ( -1.000000000000000000, -0.0000000000000000000, -0.0000000000000000000 ) ) ;
#184 = DIRECTION ( 'NONE',  ( 1.000000000000000000, 0.0000000000000000000, 0.0000000000000000000 ) ) ;
#185 = CIRCLE ( 'NONE', #143, 9.000000000000001800 ) ;
#186 = CARTESIAN_POINT ( 'NONE',  ( 0.1000000000000000100, 0.0000000000000000000, 0.0000000000000000000 ) ) ;
#187 = ORIENTED_EDGE ( 'NONE', *, *, #273, .F. ) ;
#188 = DIRECTION ( 'NONE',  ( 0.0000000000000000000, 0.0000000000000000000, -1.000000000000000000 ) ) ;
#189 = CARTESIAN_POINT ( 'NONE',  ( 0.0000000000000000000, 0.0000000000000000000, 0.0000000000000000000 ) ) ;
#190 =( NAMED_UNIT ( * ) PLANE_ANGLE_UNIT ( ) SI_UNIT ( $, .RADIAN. ) );
#191 = AXIS2_PLACEMENT_3D ( 'NONE', #251, #330, #121 ) ;
#192 = ORIENTED_EDGE ( 'NONE', *, *, #163, .F. ) ;
#193 = DIRECTION ( 'NONE',  ( -1.000000000000000000, -0.0000000000000000000, -0.0000000000000000000 ) ) ;
#194 = LINE ( 'NONE', #279, #340 ) ;
#195 = ORIENTED_EDGE ( 'NONE', *, *, #42, .T. ) ;
#196 =( NAMED_UNIT ( * ) SI_UNIT ( $, .STERADIAN. ) SOLID_ANGLE_UNIT ( ) );
#197 = AXIS2_PLACEMENT_3D ( 'NONE', #323, #60, #37 ) ;
#198 = DIRECTION ( 'NONE',  ( 0.0000000000000000000, 0.0000000000000000000, 1.000000000000000000 ) ) ;
#199 = PRESENTATION_STYLE_ASSIGNMENT (( #304 ) ) ;
#200 = VERTEX_POINT ( 'NONE', #337 ) ;
#201 =( LENGTH_UNIT ( ) NAMED_UNIT ( * ) SI_UNIT ( .MILLI., .METRE. ) );
#202 = CARTESIAN_POINT ( 'NONE',  ( 2.499999999999999600, 0.0000000000000000000, 0.0000000000000000000 ) ) ;
#203 = AXIS2_PLACEMENT_3D ( 'NONE', #127, #19, #259 ) ;
#204 = TOROIDAL_SURFACE ( 'NONE', #255, 11.00000000000000000, 1.999999999999999100 ) ;
#205 = ORIENTED_EDGE ( 'NONE', *, *, #56, .F. ) ;
#206 = DIRECTION ( 'NONE',  ( 0.0000000000000000000, 0.0000000000000000000, 1.000000000000000000 ) ) ;
#207 = EDGE_CURVE ( 'NONE', #164, #284, #100, .T. ) ;
#208 = DIRECTION ( 'NONE',  ( -1.000000000000000000, -0.0000000000000000000, -0.0000000000000000000 ) ) ;
#209 = FACE_OUTER_BOUND ( 'NONE', #43, .T. ) ;
#210 = ORIENTED_EDGE ( 'NONE', *, *, #126, .F. ) ;
#211 = CARTESIAN_POINT ( 'NONE',  ( 0.0000000000000000000, 0.0000000000000000000, 0.0000000000000000000 ) ) ;
#212 = CIRCLE ( 'NONE', #171, 1.999999999999998200 ) ;
#213 = CARTESIAN_POINT ( 'NONE',  ( 0.0000000000000000000, 0.0000000000000000000, 0.0000000000000000000 ) ) ;
#214 = PRODUCT_CONTEXT ( 'NONE', #138, 'mechanical' ) ;
#215 = DIRECTION ( 'NONE',  ( 0.0000000000000000000, 0.0000000000000000000, 1.000000000000000000 ) ) ;
#216 = CIRCLE ( 'NONE', #118, 12.99999999999999800 ) ;
#217 =( NAMED_UNIT ( * ) SI_UNIT ( $, .STERADIAN. ) SOLID_ANGLE_UNIT ( ) );
#218 = EDGE_CURVE ( 'NONE', #124, #284, #136, .T. ) ;
#219 = AXIS2_PLACEMENT_3D ( 'NONE', #32, #52, #262 ) ;
#220 = FILL_AREA_STYLE ('',( #247 ) ) ;
#221 = AXIS2_PLACEMENT_3D ( 'NONE', #47, #78, #103 ) ;
#222 = FACE_OUTER_BOUND ( 'NONE', #117, .T. ) ;
#223 = ADVANCED_FACE ( 'NONE', ( #177 ), #332, .T. ) ;
#224 = EDGE_CURVE ( 'NONE', #266, #112, #21, .T. ) ;
#225 = ADVANCED_FACE ( 'NONE', ( #336 ), #204, .T. ) ;
#226 = ADVANCED_FACE ( 'NONE', ( #64 ), #265, .T. ) ;
#227 = CIRCLE ( 'NONE', #25, 12.89999999999999900 ) ;
#228 = ORIENTED_EDGE ( 'NONE', *, *, #313, .F. ) ;
#229 = DIRECTION ( 'NONE',  ( -1.000000000000000000, -0.0000000000000000000, -0.0000000000000000000 ) ) ;
#230 = DIRECTION ( 'NONE',  ( -1.000000000000000000, -0.0000000000000000000, -0.0000000000000000000 ) ) ;
#231 = DIRECTION ( 'NONE',  ( 1.000000000000000000, 0.0000000000000000000, 0.0000000000000000000 ) ) ;
#232 = CIRCLE ( 'NONE', #90, 0.09999999999999939500 ) ;
#233 = CLOSED_SHELL ( 'NONE', ( #65, #226, #225, #92, #331, #301, #167, #326, #223, #144, #147 ) ) ;
#234 = CARTESIAN_POINT ( 'NONE',  ( 0.1000000000000000100, 0.0000000000000000000, 0.0000000000000000000 ) ) ;
#235 = DIRECTION ( 'NONE',  ( 0.0000000000000000000, -1.224646799147353500E-016, 1.000000000000000000 ) ) ;
#236 = CIRCLE ( 'NONE', #53, 0.09999999999999939500 ) ;
#237 = ORIENTED_EDGE ( 'NONE', *, *, #329, .T. ) ;
#238 = DIRECTION ( 'NONE',  ( 1.000000000000000000, 0.0000000000000000000, 0.0000000000000000000 ) ) ;
#239 = AXIS2_PLACEMENT_3D ( 'NONE', #106, #26, #290 ) ;
#240 = DIRECTION ( 'NONE',  ( 0.0000000000000000000, 1.224646799147353900E-016, 1.000000000000000000 ) ) ;
#241 = VERTEX_POINT ( 'NONE', #83 ) ;
#242 = DIRECTION ( 'NONE',  ( 0.0000000000000000000, 0.0000000000000000000, 1.000000000000000000 ) ) ;
#243 = AXIS2_PLACEMENT_3D ( 'NONE', #213, #184, #338 ) ;
#244 = DIRECTION ( 'NONE',  ( 0.0000000000000000000, 0.0000000000000000000, -1.000000000000000000 ) ) ;
#245 = DIRECTION ( 'NONE',  ( 0.0000000000000000000, 0.0000000000000000000, -1.000000000000000000 ) ) ;
#246 = VERTEX_POINT ( 'NONE', #161 ) ;
#247 = FILL_AREA_STYLE_COLOUR ( '', #128 ) ;
#248 = EDGE_CURVE ( 'NONE', #124, #40, #227, .T. ) ;
#249 = ORIENTED_EDGE ( 'NONE', *, *, #132, .F. ) ;
#250 = LINE ( 'NONE', #270, #306 ) ;
#251 = CARTESIAN_POINT ( 'NONE',  ( 0.1000000000000000100, 0.0000000000000000000, 0.0000000000000000000 ) ) ;
#252 = FACE_OUTER_BOUND ( 'NONE', #276, .T. ) ;
#253 = EDGE_LOOP ( 'NONE', ( #325, #237, #288, #249 ) ) ;
#254 = PLANE ( 'NONE',  #203 ) ;
#255 = AXIS2_PLACEMENT_3D ( 'NONE', #281, #208, #55 ) ;
#256 = CIRCLE ( 'NONE', #239, 12.99999999999999800 ) ;
#257 = EDGE_LOOP ( 'NONE', ( #271, #295, #69, #22 ) ) ;
#258 = AXIS2_PLACEMENT_3D ( 'NONE', #186, #23, #244 ) ;
#259 = DIRECTION ( 'NONE',  ( 0.0000000000000000000, 0.0000000000000000000, -1.000000000000000000 ) ) ;
#260 = DIRECTION ( 'NONE',  ( 0.0000000000000000000, 0.0000000000000000000, -1.000000000000000000 ) ) ;
#261 = EDGE_CURVE ( 'NONE', #241, #266, #155, .T. ) ;
#262 = DIRECTION ( 'NONE',  ( 0.0000000000000000000, 0.0000000000000000000, 1.000000000000000000 ) ) ;
#263 = DIRECTION ( 'NONE',  ( -1.000000000000000000, -0.0000000000000000000, -0.0000000000000000000 ) ) ;
#264 = DIRECTION ( 'NONE',  ( -1.000000000000000000, -0.0000000000000000000, -0.0000000000000000000 ) ) ;
#265 = TOROIDAL_SURFACE ( 'NONE', #258, 12.89999999999999900, 0.1000000000000000100 ) ;
#266 = VERTEX_POINT ( 'NONE', #111 ) ;
#267 = DIRECTION ( 'NONE',  ( -1.000000000000000000, -0.0000000000000000000, -0.0000000000000000000 ) ) ;
#268 = EDGE_CURVE ( 'NONE', #246, #6, #13, .T. ) ;
#269 = EDGE_LOOP ( 'NONE', ( #70, #104 ) ) ;
#270 = CARTESIAN_POINT ( 'NONE',  ( 0.0000000000000000000, 1.102182119232617900E-015, -9.000000000000001800 ) ) ;
#271 = ORIENTED_EDGE ( 'NONE', *, *, #329, .F. ) ;
#272 = SHAPE_DEFINITION_REPRESENTATION ( #95, #298 ) ;
#273 = EDGE_CURVE ( 'NONE', #89, #200, #256, .T. ) ;
#274 = CARTESIAN_POINT ( 'NONE',  ( 0.0000000000000000000, 0.0000000000000000000, -9.099999999999999600 ) ) ;
#275 = FACE_OUTER_BOUND ( 'NONE', #257, .T. ) ;
#276 = EDGE_LOOP ( 'NONE', ( #125, #18, #180, #178 ) ) ;
#277 = AXIS2_PLACEMENT_3D ( 'NONE', #50, #238, #282 ) ;
#278 = DIRECTION ( 'NONE',  ( -1.000000000000000000, -0.0000000000000000000, -0.0000000000000000000 ) ) ;
#279 = CARTESIAN_POINT ( 'NONE',  ( 0.0000000000000000000, 0.0000000000000000000, 9.000000000000001800 ) ) ;
#280 = FACE_BOUND ( 'NONE', #269, .T. ) ;
#281 = CARTESIAN_POINT ( 'NONE',  ( 2.500000000000000000, 0.0000000000000000000, 0.0000000000000000000 ) ) ;
#282 = DIRECTION ( 'NONE',  ( 0.0000000000000000000, 0.0000000000000000000, -1.000000000000000000 ) ) ;
#283 = EDGE_CURVE ( 'NONE', #40, #124, #48, .T. ) ;
#284 = VERTEX_POINT ( 'NONE', #54 ) ;
#285 = CARTESIAN_POINT ( 'NONE',  ( 0.1000000000000000100, 0.0000000000000000000, 0.0000000000000000000 ) ) ;
#286 = CARTESIAN_POINT ( 'NONE',  ( 0.0000000000000000000, 0.0000000000000000000, 0.0000000000000000000 ) ) ;
#287 = SURFACE_STYLE_FILL_AREA ( #220 ) ;
#288 = ORIENTED_EDGE ( 'NONE', *, *, #126, .T. ) ;
#289 = ORIENTED_EDGE ( 'NONE', *, *, #51, .T. ) ;
#290 = DIRECTION ( 'NONE',  ( 0.0000000000000000000, 0.0000000000000000000, 1.000000000000000000 ) ) ;
#291 = CARTESIAN_POINT ( 'NONE',  ( 0.1000000000000000100, 0.0000000000000000000, 0.0000000000000000000 ) ) ;
#292 = DIRECTION ( 'NONE',  ( -1.000000000000000000, -0.0000000000000000000, -0.0000000000000000000 ) ) ;
#293 = FACE_OUTER_BOUND ( 'NONE', #77, .T. ) ;
#294 = APPLICATION_PROTOCOL_DEFINITION ( 'draft international standard', 'automotive_design', 1998, #86 ) ;
#295 = ORIENTED_EDGE ( 'NONE', *, *, #268, .F. ) ;
#296 = ORIENTED_EDGE ( 'NONE', *, *, #313, .T. ) ;
#297 =( LENGTH_UNIT ( ) NAMED_UNIT ( * ) SI_UNIT ( .MILLI., .METRE. ) );
#298 = ADVANCED_BREP_SHAPE_REPRESENTATION ( 'GL-211-015-x Dichtung G15-x heco', ( #152, #316 ), #36 ) ;
#299 = ORIENTED_EDGE ( 'NONE', *, *, #63, .F. ) ;
#300 = PRODUCT_DEFINITION ( 'UNKNOWN', '', #11, #302 ) ;
#301 = ADVANCED_FACE ( 'NONE', ( #275 ), #139, .F. ) ;
#302 = PRODUCT_DEFINITION_CONTEXT ( 'detailed design', #86, 'design' ) ;
#303 = DIRECTION ( 'NONE',  ( 0.0000000000000000000, 0.0000000000000000000, -1.000000000000000000 ) ) ;
#304 = SURFACE_STYLE_USAGE ( .BOTH. , #16 ) ;
#305 = AXIS2_PLACEMENT_3D ( 'NONE', #286, #183, #339 ) ;
#306 = VECTOR ( 'NONE', #267, 1000.000000000000000 ) ;
#307 = CIRCLE ( 'NONE', #129, 9.099999999999999600 ) ;
#308 = CARTESIAN_POINT ( 'NONE',  ( 0.1000000000000000100, 1.592040838891558900E-015, -12.99999999999999800 ) ) ;
#309 = DIRECTION ( 'NONE',  ( -0.0000000000000000000, 1.000000000000000000, 1.224646799147353200E-016 ) ) ;
#310 = EDGE_CURVE ( 'NONE', #131, #112, #236, .T. ) ;
#311 = FACE_OUTER_BOUND ( 'NONE', #253, .T. ) ;
#312 = ORIENTED_EDGE ( 'NONE', *, *, #283, .F. ) ;
#313 = EDGE_CURVE ( 'NONE', #284, #164, #88, .T. ) ;
#314 = EDGE_LOOP ( 'NONE', ( #58, #159, #29, #205 ) ) ;
#315 = CARTESIAN_POINT ( 'NONE',  ( 0.0000000000000000000, 0.0000000000000000000, 0.0000000000000000000 ) ) ;
#316 = AXIS2_PLACEMENT_3D ( 'NONE', #7, #3, #114 ) ;
#317 = ORIENTED_EDGE ( 'NONE', *, *, #283, .T. ) ;
#318 = DIRECTION ( 'NONE',  ( 0.0000000000000000000, 0.0000000000000000000, -1.000000000000000000 ) ) ;
#319 = CARTESIAN_POINT ( 'NONE',  ( 0.1000000000000000100, 0.0000000000000000000, 0.0000000000000000000 ) ) ;
#320 = DIRECTION ( 'NONE',  ( -1.000000000000000000, -0.0000000000000000000, -0.0000000000000000000 ) ) ;
#321 = DIRECTION ( 'NONE',  ( 0.0000000000000000000, 0.0000000000000000000, -1.000000000000000000 ) ) ;
#322 = EDGE_CURVE ( 'NONE', #241, #131, #185, .T. ) ;
#323 = CARTESIAN_POINT ( 'NONE',  ( 2.500000000000000000, 0.0000000000000000000, 11.00000000000000000 ) ) ;
#324 = PRODUCT ( 'GL-211-015-x Dichtung G15-x heco', 'GL-211-015-x Dichtung G15-x heco', '', ( #214 ) ) ;
#325 = ORIENTED_EDGE ( 'NONE', *, *, #51, .F. ) ;
#326 = ADVANCED_FACE ( 'NONE', ( #209 ), #87, .T. ) ;
#327 = EDGE_CURVE ( 'NONE', #246, #89, #135, .T. ) ;
#328 = ORIENTED_EDGE ( 'NONE', *, *, #168, .F. ) ;
#329 = EDGE_CURVE ( 'NONE', #6, #131, #250, .T. ) ;
#330 = DIRECTION ( 'NONE',  ( 1.000000000000000000, 0.0000000000000000000, 0.0000000000000000000 ) ) ;
#331 = ADVANCED_FACE ( 'NONE', ( #311 ), #145, .F. ) ;
#332 = TOROIDAL_SURFACE ( 'NONE', #221, 11.00000000000000000, 1.999999999999999100 ) ;
#333 = CARTESIAN_POINT ( 'NONE',  ( 0.0000000000000000000, 1.585917604895822200E-015, 12.89999999999999900 ) ) ;
#334 = AXIS2_PLACEMENT_3D ( 'NONE', #105, #130, #133 ) ;
#335 = AXIS2_PLACEMENT_3D ( 'NONE', #38, #292, #59 ) ;
#336 = FACE_OUTER_BOUND ( 'NONE', #146, .T. ) ;
#337 = CARTESIAN_POINT ( 'NONE',  ( 2.499999999999999600, 1.592040838891558900E-015, -12.99999999999999800 ) ) ;
#338 = DIRECTION ( 'NONE',  ( 0.0000000000000000000, 0.0000000000000000000, -1.000000000000000000 ) ) ;
#339 = DIRECTION ( 'NONE',  ( 0.0000000000000000000, 0.0000000000000000000, -1.000000000000000000 ) ) ;
#340 = VECTOR ( 'NONE', #278, 1000.000000000000000 ) ;
ENDSEC;
END-ISO-10303-21;
