ISO-10303-21;
HEADER;
FILE_DESCRIPTION (( 'STEP AP214' ),
    '1' );
FILE_NAME ('GL-211-020-x Dichtung G20-x heco.STEP',
    '2017-09-01T09:31:37',
    ( '' ),
    ( '' ),
    'SwSTEP 2.0',
    'SolidWorks 2016',
    '' );
FILE_SCHEMA (( 'AUTOMOTIVE_DESIGN' ));
ENDSEC;

DATA;
#1 = ADVANCED_FACE ( 'NONE', ( #233 ), #281, .F. ) ;
#2 = VECTOR ( 'NONE', #311, 1000.000000000000000 ) ;
#3 = EDGE_CURVE ( 'NONE', #294, #303, #209, .T. ) ;
#4 = FACE_OUTER_BOUND ( 'NONE', #139, .T. ) ;
#5 = ORIENTED_EDGE ( 'NONE', *, *, #273, .T. ) ;
#6 = ORIENTED_EDGE ( 'NONE', *, *, #205, .F. ) ;
#7 = CARTESIAN_POINT ( 'NONE',  ( 0.1000000000000000100, 0.0000000000000000000, 0.0000000000000000000 ) ) ;
#8 = ORIENTED_EDGE ( 'NONE', *, *, #105, .F. ) ;
#9 = VERTEX_POINT ( 'NONE', #54 ) ;
#10 = CARTESIAN_POINT ( 'NONE',  ( 0.1000000000000000100, 0.0000000000000000000, 0.0000000000000000000 ) ) ;
#11 = CARTESIAN_POINT ( 'NONE',  ( 0.0000000000000000000, 1.420590287010929500E-015, 11.60000000000000000 ) ) ;
#12 = UNCERTAINTY_MEASURE_WITH_UNIT (LENGTH_MEASURE( 1.000000000000000100E-005 ), #198, 'distance_accuracy_value', 'NONE');
#13 = STYLED_ITEM ( 'NONE', ( #191 ), #157 ) ;
#14 = DIRECTION ( 'NONE',  ( -1.000000000000000000, -0.0000000000000000000, -0.0000000000000000000 ) ) ;
#15 = VECTOR ( 'NONE', #44, 1000.000000000000000 ) ;
#16 = ORIENTED_EDGE ( 'NONE', *, *, #221, .F. ) ;
#17 =( GEOMETRIC_REPRESENTATION_CONTEXT ( 3 ) GLOBAL_UNCERTAINTY_ASSIGNED_CONTEXT ( ( #146 ) ) GLOBAL_UNIT_ASSIGNED_CONTEXT ( ( #94, #183, #312 ) ) REPRESENTATION_CONTEXT ( 'NONE', 'WORKASPACE' ) );
#18 = DIRECTION ( 'NONE',  ( 0.0000000000000000000, 1.224646799147353900E-016, 1.000000000000000000 ) ) ;
#19 = EDGE_CURVE ( 'NONE', #60, #98, #68, .T. ) ;
#20 = DIRECTION ( 'NONE',  ( 0.0000000000000000000, -1.000000000000000000, 0.0000000000000000000 ) ) ;
#21 = AXIS2_PLACEMENT_3D ( 'NONE', #192, #57, #163 ) ;
#22 = DIRECTION ( 'NONE',  ( 1.000000000000000000, 0.0000000000000000000, 0.0000000000000000000 ) ) ;
#23 = CARTESIAN_POINT ( 'NONE',  ( 0.0000000000000000000, 0.0000000000000000000, 0.0000000000000000000 ) ) ;
#24 = APPLICATION_PROTOCOL_DEFINITION ( 'draft international standard', 'automotive_design', 1998, #237 ) ;
#25 = ORIENTED_EDGE ( 'NONE', *, *, #205, .T. ) ;
#26 = EDGE_CURVE ( 'NONE', #303, #235, #223, .T. ) ;
#27 = CIRCLE ( 'NONE', #78, 11.60000000000000000 ) ;
#28 = ORIENTED_EDGE ( 'NONE', *, *, #288, .T. ) ;
#29 = AXIS2_PLACEMENT_3D ( 'NONE', #65, #260, #38 ) ;
#30 = VERTEX_POINT ( 'NONE', #32 ) ;
#31 = DIRECTION ( 'NONE',  ( 0.0000000000000000000, 0.0000000000000000000, 1.000000000000000000 ) ) ;
#32 = CARTESIAN_POINT ( 'NONE',  ( 1.999999999999999100, 0.0000000000000000000, 11.50000000000000000 ) ) ;
#33 = FACE_OUTER_BOUND ( 'NONE', #85, .T. ) ;
#34 = FACE_BOUND ( 'NONE', #318, .T. ) ;
#35 = CARTESIAN_POINT ( 'NONE',  ( 0.0000000000000000000, 11.50000000000000000, 0.0000000000000000000 ) ) ;
#36 = AXIS2_PLACEMENT_3D ( 'NONE', #159, #187, #31 ) ;
#37 = DIRECTION ( 'NONE',  ( 1.000000000000000000, 0.0000000000000000000, 0.0000000000000000000 ) ) ;
#38 = DIRECTION ( 'NONE',  ( 0.0000000000000000000, 0.0000000000000000000, 1.000000000000000000 ) ) ;
#39 = CARTESIAN_POINT ( 'NONE',  ( 1.999999999999999100, 0.0000000000000000000, 0.0000000000000000000 ) ) ;
#40 = ORIENTED_EDGE ( 'NONE', *, *, #239, .F. ) ;
#41 = DIRECTION ( 'NONE',  ( 0.0000000000000000000, 1.000000000000000000, -1.224646799147353200E-016 ) ) ;
#42 = CARTESIAN_POINT ( 'NONE',  ( 0.0000000000000000000, 0.0000000000000000000, 0.0000000000000000000 ) ) ;
#43 = AXIS2_PLACEMENT_3D ( 'NONE', #7, #254, #167 ) ;
#44 = DIRECTION ( 'NONE',  ( -1.000000000000000000, -0.0000000000000000000, -0.0000000000000000000 ) ) ;
#45 = CARTESIAN_POINT ( 'NONE',  ( 1.999999999999998200, 0.0000000000000000000, 0.0000000000000000000 ) ) ;
#46 =( NAMED_UNIT ( * ) SI_UNIT ( $, .STERADIAN. ) SOLID_ANGLE_UNIT ( ) );
#47 = TOROIDAL_SURFACE ( 'NONE', #158, 11.60000000000000000, 0.1000000000000000100 ) ;
#48 = ORIENTED_EDGE ( 'NONE', *, *, #288, .F. ) ;
#49 = ADVANCED_BREP_SHAPE_REPRESENTATION ( 'GL-211-020-x Dichtung G20-x heco', ( #157, #177 ), #214 ) ;
#50 = AXIS2_PLACEMENT_3D ( 'NONE', #220, #243, #296 ) ;
#51 = TOROIDAL_SURFACE ( 'NONE', #75, 14.00000000000000000, 2.500000000000000400 ) ;
#52 = EDGE_LOOP ( 'NONE', ( #108, #257, #314, #6 ) ) ;
#53 = MECHANICAL_DESIGN_GEOMETRIC_PRESENTATION_REPRESENTATION (  '', ( #13 ), #219 ) ;
#54 = CARTESIAN_POINT ( 'NONE',  ( 1.999999999999998200, 0.0000000000000000000, 16.50000000000000000 ) ) ;
#55 = SURFACE_STYLE_FILL_AREA ( #149 ) ;
#56 = VECTOR ( 'NONE', #128, 1000.000000000000000 ) ;
#57 = DIRECTION ( 'NONE',  ( -1.000000000000000000, -0.0000000000000000000, -0.0000000000000000000 ) ) ;
#58 = DIRECTION ( 'NONE',  ( 0.0000000000000000000, 0.0000000000000000000, 1.000000000000000000 ) ) ;
#59 = EDGE_LOOP ( 'NONE', ( #319, #241 ) ) ;
#60 = VERTEX_POINT ( 'NONE', #107 ) ;
#61 = DIRECTION ( 'NONE',  ( 0.0000000000000000000, 0.0000000000000000000, -1.000000000000000000 ) ) ;
#62 = CARTESIAN_POINT ( 'NONE',  ( 1.999999999999999100, 1.408343819019456200E-015, -11.50000000000000000 ) ) ;
#63 = DIRECTION ( 'NONE',  ( 0.0000000000000000000, 0.0000000000000000000, -1.000000000000000000 ) ) ;
#64 = PRESENTATION_STYLE_ASSIGNMENT (( #72 ) ) ;
#65 = CARTESIAN_POINT ( 'NONE',  ( 1.999999999999998700, 0.0000000000000000000, 0.0000000000000000000 ) ) ;
#66 = AXIS2_PLACEMENT_3D ( 'NONE', #286, #280, #148 ) ;
#67 = DIRECTION ( 'NONE',  ( 0.0000000000000000000, 0.0000000000000000000, -1.000000000000000000 ) ) ;
#68 = LINE ( 'NONE', #272, #56 ) ;
#69 = PRODUCT_CONTEXT ( 'NONE', #237, 'mechanical' ) ;
#70 = DIRECTION ( 'NONE',  ( 1.000000000000000000, 0.0000000000000000000, 0.0000000000000000000 ) ) ;
#71 = AXIS2_PLACEMENT_3D ( 'NONE', #118, #176, #283 ) ;
#72 = SURFACE_STYLE_USAGE ( .BOTH. , #238 ) ;
#73 = SHAPE_DEFINITION_REPRESENTATION ( #186, #49 ) ;
#74 = ORIENTED_EDGE ( 'NONE', *, *, #150, .T. ) ;
#75 = AXIS2_PLACEMENT_3D ( 'NONE', #247, #109, #135 ) ;
#76 = CIRCLE ( 'NONE', #121, 16.50000000000000000 ) ;
#77 = EDGE_LOOP ( 'NONE', ( #189, #185, #244, #40 ) ) ;
#78 = AXIS2_PLACEMENT_3D ( 'NONE', #23, #70, #335 ) ;
#79 = ORIENTED_EDGE ( 'NONE', *, *, #295, .F. ) ;
#80 = VERTEX_POINT ( 'NONE', #269 ) ;
#81 = CARTESIAN_POINT ( 'NONE',  ( 1.999999999999998200, 0.0000000000000000000, 0.0000000000000000000 ) ) ;
#82 = AXIS2_PLACEMENT_3D ( 'NONE', #330, #276, #249 ) ;
#83 =( NAMED_UNIT ( * ) SI_UNIT ( $, .STERADIAN. ) SOLID_ANGLE_UNIT ( ) );
#84 = DIRECTION ( 'NONE',  ( -1.000000000000000000, -0.0000000000000000000, -0.0000000000000000000 ) ) ;
#85 = EDGE_LOOP ( 'NONE', ( #215, #175, #5, #324 ) ) ;
#86 = CARTESIAN_POINT ( 'NONE',  ( 0.1000000000000000100, 0.0000000000000000000, 0.0000000000000000000 ) ) ;
#87 = DIRECTION ( 'NONE',  ( -1.000000000000000000, -0.0000000000000000000, -0.0000000000000000000 ) ) ;
#88 = ADVANCED_FACE ( 'NONE', ( #4 ), #51, .T. ) ;
#89 = DIRECTION ( 'NONE',  ( 0.0000000000000000000, 0.0000000000000000000, -1.000000000000000000 ) ) ;
#90 = CIRCLE ( 'NONE', #315, 11.50000000000000000 ) ;
#91 = DIRECTION ( 'NONE',  ( -1.000000000000000000, -0.0000000000000000000, -0.0000000000000000000 ) ) ;
#92 = ADVANCED_FACE ( 'NONE', ( #328 ), #47, .T. ) ;
#93 = AXIS2_PLACEMENT_3D ( 'NONE', #170, #14, #282 ) ;
#94 =( LENGTH_UNIT ( ) NAMED_UNIT ( * ) SI_UNIT ( .MILLI., .METRE. ) );
#95 = DIRECTION ( 'NONE',  ( 1.000000000000000000, 0.0000000000000000000, 0.0000000000000000000 ) ) ;
#96 = CYLINDRICAL_SURFACE ( 'NONE', #331, 16.50000000000000000 ) ;
#97 = ADVANCED_FACE ( 'NONE', ( #102 ), #204, .T. ) ;
#98 = VERTEX_POINT ( 'NONE', #304 ) ;
#99 = DIRECTION ( 'NONE',  ( 0.0000000000000000000, 0.0000000000000000000, 1.000000000000000000 ) ) ;
#100 = STYLED_ITEM ( 'NONE', ( #64 ), #49 ) ;
#101 = CIRCLE ( 'NONE', #71, 11.50000000000000000 ) ;
#102 = FACE_OUTER_BOUND ( 'NONE', #310, .T. ) ;
#103 = ORIENTED_EDGE ( 'NONE', *, *, #279, .F. ) ;
#104 = EDGE_CURVE ( 'NONE', #125, #60, #199, .T. ) ;
#105 = EDGE_CURVE ( 'NONE', #60, #9, #76, .T. ) ;
#106 = AXIS2_PLACEMENT_3D ( 'NONE', #207, #172, #67 ) ;
#107 = CARTESIAN_POINT ( 'NONE',  ( 1.999999999999998200, 2.020667218593133100E-015, -16.50000000000000000 ) ) ;
#108 = ORIENTED_EDGE ( 'NONE', *, *, #179, .F. ) ;
#109 = DIRECTION ( 'NONE',  ( -1.000000000000000000, -0.0000000000000000000, -0.0000000000000000000 ) ) ;
#110 = DIRECTION ( 'NONE',  ( 0.0000000000000000000, 0.0000000000000000000, -1.000000000000000000 ) ) ;
#111 = ORIENTED_EDGE ( 'NONE', *, *, #326, .F. ) ;
#112 = DIRECTION ( 'NONE',  ( 0.0000000000000000000, 0.0000000000000000000, -1.000000000000000000 ) ) ;
#113 = CARTESIAN_POINT ( 'NONE',  ( 0.1000000000000000100, 0.0000000000000000000, -16.40000000000000200 ) ) ;
#114 = DIRECTION ( 'NONE',  ( 1.000000000000000000, 0.0000000000000000000, 0.0000000000000000000 ) ) ;
#115 = FACE_OUTER_BOUND ( 'NONE', #59, .T. ) ;
#116 = PRESENTATION_LAYER_ASSIGNMENT (  '', '', ( #100 ) ) ;
#117 = ORIENTED_EDGE ( 'NONE', *, *, #190, .F. ) ;
#118 = CARTESIAN_POINT ( 'NONE',  ( 1.999999999999999100, 0.0000000000000000000, 0.0000000000000000000 ) ) ;
#119 = CARTESIAN_POINT ( 'NONE',  ( 0.0000000000000000000, 0.0000000000000000000, -16.40000000000000200 ) ) ;
#120 = CIRCLE ( 'NONE', #201, 11.50000000000000000 ) ;
#121 = AXIS2_PLACEMENT_3D ( 'NONE', #81, #246, #58 ) ;
#122 = ORIENTED_EDGE ( 'NONE', *, *, #140, .T. ) ;
#123 = AXIS2_PLACEMENT_3D ( 'NONE', #222, #41, #18 ) ;
#124 = CIRCLE ( 'NONE', #251, 16.50000000000000000 ) ;
#125 = VERTEX_POINT ( 'NONE', #62 ) ;
#126 = ORIENTED_EDGE ( 'NONE', *, *, #127, .F. ) ;
#127 = EDGE_CURVE ( 'NONE', #193, #225, #120, .T. ) ;
#128 = DIRECTION ( 'NONE',  ( -1.000000000000000000, -0.0000000000000000000, -0.0000000000000000000 ) ) ;
#129 = MECHANICAL_DESIGN_GEOMETRIC_PRESENTATION_REPRESENTATION (  '', ( #100 ), #17 ) ;
#130 = DIRECTION ( 'NONE',  ( 0.0000000000000000000, 0.0000000000000000000, 1.000000000000000000 ) ) ;
#131 = PRODUCT_DEFINITION_FORMATION_WITH_SPECIFIED_SOURCE ( 'ANY', '', #143, .NOT_KNOWN. ) ;
#132 = ORIENTED_EDGE ( 'NONE', *, *, #326, .T. ) ;
#133 = VERTEX_POINT ( 'NONE', #11 ) ;
#134 = AXIS2_PLACEMENT_3D ( 'NONE', #278, #84, #130 ) ;
#135 = DIRECTION ( 'NONE',  ( 0.0000000000000000000, 0.0000000000000000000, 1.000000000000000000 ) ) ;
#136 =( NAMED_UNIT ( * ) PLANE_ANGLE_UNIT ( ) SI_UNIT ( $, .RADIAN. ) );
#137 = FILL_AREA_STYLE ('',( #252 ) ) ;
#138 = AXIS2_PLACEMENT_3D ( 'NONE', #86, #114, #203 ) ;
#139 = EDGE_LOOP ( 'NONE', ( #309, #245, #28, #8 ) ) ;
#140 = EDGE_CURVE ( 'NONE', #80, #133, #262, .T. ) ;
#141 = CARTESIAN_POINT ( 'NONE',  ( 0.0000000000000000000, 0.0000000000000000000, 16.50000000000000000 ) ) ;
#142 = ADVANCED_FACE ( 'NONE', ( #115, #34 ), #166, .F. ) ;
#143 = PRODUCT ( 'GL-211-020-x Dichtung G20-x heco', 'GL-211-020-x Dichtung G20-x heco', '', ( #69 ) ) ;
#144 = DIRECTION ( 'NONE',  ( -1.000000000000000000, -0.0000000000000000000, -0.0000000000000000000 ) ) ;
#145 = ORIENTED_EDGE ( 'NONE', *, *, #3, .F. ) ;
#146 = UNCERTAINTY_MEASURE_WITH_UNIT (LENGTH_MEASURE( 1.000000000000000100E-005 ), #94, 'distance_accuracy_value', 'NONE');
#147 = ORIENTED_EDGE ( 'NONE', *, *, #273, .F. ) ;
#148 = DIRECTION ( 'NONE',  ( 0.0000000000000000000, 0.0000000000000000000, -1.000000000000000000 ) ) ;
#149 = FILL_AREA_STYLE ('',( #316 ) ) ;
#150 = EDGE_CURVE ( 'NONE', #98, #235, #124, .T. ) ;
#151 =( LENGTH_UNIT ( ) NAMED_UNIT ( * ) SI_UNIT ( .MILLI., .METRE. ) );
#152 = AXIS2_PLACEMENT_3D ( 'NONE', #42, #87, #305 ) ;
#153 = LINE ( 'NONE', #181, #15 ) ;
#154 = TOROIDAL_SURFACE ( 'NONE', #156, 11.60000000000000000, 0.1000000000000000100 ) ;
#155 = EDGE_LOOP ( 'NONE', ( #161, #275, #132, #336 ) ) ;
#156 = AXIS2_PLACEMENT_3D ( 'NONE', #232, #258, #89 ) ;
#157 = MANIFOLD_SOLID_BREP ( 'Verrundung1', #228 ) ;
#158 = AXIS2_PLACEMENT_3D ( 'NONE', #325, #274, #110 ) ;
#159 = CARTESIAN_POINT ( 'NONE',  ( 0.0000000000000000000, 0.0000000000000000000, 0.0000000000000000000 ) ) ;
#160 = FACE_OUTER_BOUND ( 'NONE', #77, .T. ) ;
#161 = ORIENTED_EDGE ( 'NONE', *, *, #229, .F. ) ;
#162 = AXIS2_PLACEMENT_3D ( 'NONE', #210, #95, #289 ) ;
#163 = DIRECTION ( 'NONE',  ( 0.0000000000000000000, 0.0000000000000000000, -1.000000000000000000 ) ) ;
#164 = VECTOR ( 'NONE', #91, 1000.000000000000000 ) ;
#165 = FACE_OUTER_BOUND ( 'NONE', #284, .T. ) ;
#166 = PLANE ( 'NONE',  #321 ) ;
#167 = DIRECTION ( 'NONE',  ( 0.0000000000000000000, 0.0000000000000000000, -1.000000000000000000 ) ) ;
#168 = DIRECTION ( 'NONE',  ( 1.000000000000000000, 0.0000000000000000000, 0.0000000000000000000 ) ) ;
#169 = FACE_OUTER_BOUND ( 'NONE', #298, .T. ) ;
#170 = CARTESIAN_POINT ( 'NONE',  ( 0.0000000000000000000, 0.0000000000000000000, 0.0000000000000000000 ) ) ;
#171 = EDGE_LOOP ( 'NONE', ( #103, #329, #300, #111 ) ) ;
#172 = DIRECTION ( 'NONE',  ( 1.000000000000000000, 0.0000000000000000000, 0.0000000000000000000 ) ) ;
#173 = TOROIDAL_SURFACE ( 'NONE', #138, 16.40000000000000200, 0.1000000000000000100 ) ;
#174 = SURFACE_STYLE_FILL_AREA ( #137 ) ;
#175 = ORIENTED_EDGE ( 'NONE', *, *, #105, .T. ) ;
#176 = DIRECTION ( 'NONE',  ( -1.000000000000000000, -0.0000000000000000000, -0.0000000000000000000 ) ) ;
#177 = AXIS2_PLACEMENT_3D ( 'NONE', #264, #99, #22 ) ;
#178 = DIRECTION ( 'NONE',  ( -1.000000000000000000, -0.0000000000000000000, -0.0000000000000000000 ) ) ;
#179 = EDGE_CURVE ( 'NONE', #225, #193, #323, .T. ) ;
#180 = ORIENTED_EDGE ( 'NONE', *, *, #239, .T. ) ;
#181 = CARTESIAN_POINT ( 'NONE',  ( 0.0000000000000000000, 0.0000000000000000000, 11.50000000000000000 ) ) ;
#182 = PRODUCT_DEFINITION ( 'UNKNOWN', '', #131, #212 ) ;
#183 =( NAMED_UNIT ( * ) PLANE_ANGLE_UNIT ( ) SI_UNIT ( $, .RADIAN. ) );
#184 = CIRCLE ( 'NONE', #152, 16.40000000000000200 ) ;
#185 = ORIENTED_EDGE ( 'NONE', *, *, #26, .T. ) ;
#186 = PRODUCT_DEFINITION_SHAPE ( 'NONE', 'NONE',  #182 ) ;
#187 = DIRECTION ( 'NONE',  ( -1.000000000000000000, -0.0000000000000000000, -0.0000000000000000000 ) ) ;
#188 = FACE_OUTER_BOUND ( 'NONE', #171, .T. ) ;
#189 = ORIENTED_EDGE ( 'NONE', *, *, #265, .F. ) ;
#190 = EDGE_CURVE ( 'NONE', #225, #133, #271, .T. ) ;
#191 = PRESENTATION_STYLE_ASSIGNMENT (( #327 ) ) ;
#192 = CARTESIAN_POINT ( 'NONE',  ( 0.0000000000000000000, 0.0000000000000000000, 0.0000000000000000000 ) ) ;
#193 = VERTEX_POINT ( 'NONE', #226 ) ;
#194 = PRODUCT_RELATED_PRODUCT_CATEGORY ( 'part', '', ( #143 ) ) ;
#195 = DIRECTION ( 'NONE',  ( 0.0000000000000000000, 0.0000000000000000000, -1.000000000000000000 ) ) ;
#196 = DIRECTION ( 'NONE',  ( -1.000000000000000000, -0.0000000000000000000, -0.0000000000000000000 ) ) ;
#197 = AXIS2_PLACEMENT_3D ( 'NONE', #332, #333, #63 ) ;
#198 =( LENGTH_UNIT ( ) NAMED_UNIT ( * ) SI_UNIT ( .MILLI., .METRE. ) );
#199 = CIRCLE ( 'NONE', #82, 2.500000000000000400 ) ;
#200 = EDGE_LOOP ( 'NONE', ( #285, #145, #180, #16 ) ) ;
#201 = AXIS2_PLACEMENT_3D ( 'NONE', #299, #196, #112 ) ;
#202 = CIRCLE ( 'NONE', #106, 16.50000000000000000 ) ;
#203 = DIRECTION ( 'NONE',  ( 0.0000000000000000000, 0.0000000000000000000, -1.000000000000000000 ) ) ;
#204 = CYLINDRICAL_SURFACE ( 'NONE', #134, 16.50000000000000000 ) ;
#205 = EDGE_CURVE ( 'NONE', #193, #80, #256, .T. ) ;
#206 = ADVANCED_FACE ( 'NONE', ( #188 ), #266, .F. ) ;
#207 = CARTESIAN_POINT ( 'NONE',  ( 0.1000000000000000100, 0.0000000000000000000, 0.0000000000000000000 ) ) ;
#208 = DIRECTION ( 'NONE',  ( 0.0000000000000000000, 0.0000000000000000000, 1.000000000000000000 ) ) ;
#209 = CIRCLE ( 'NONE', #21, 16.40000000000000200 ) ;
#210 = CARTESIAN_POINT ( 'NONE',  ( 0.1000000000000000100, 0.0000000000000000000, 0.0000000000000000000 ) ) ;
#211 = ADVANCED_FACE ( 'NONE', ( #165 ), #154, .T. ) ;
#212 = PRODUCT_DEFINITION_CONTEXT ( 'detailed design', #287, 'design' ) ;
#213 = EDGE_CURVE ( 'NONE', #30, #125, #101, .T. ) ;
#214 =( GEOMETRIC_REPRESENTATION_CONTEXT ( 3 ) GLOBAL_UNCERTAINTY_ASSIGNED_CONTEXT ( ( #248 ) ) GLOBAL_UNIT_ASSIGNED_CONTEXT ( ( #151, #263, #46 ) ) REPRESENTATION_CONTEXT ( 'NONE', 'WORKASPACE' ) );
#215 = ORIENTED_EDGE ( 'NONE', *, *, #19, .F. ) ;
#216 = ORIENTED_EDGE ( 'NONE', *, *, #302, .F. ) ;
#217 = AXIS2_PLACEMENT_3D ( 'NONE', #301, #168, #195 ) ;
#218 = CIRCLE ( 'NONE', #66, 2.500000000000000400 ) ;
#219 =( GEOMETRIC_REPRESENTATION_CONTEXT ( 3 ) GLOBAL_UNCERTAINTY_ASSIGNED_CONTEXT ( ( #12 ) ) GLOBAL_UNIT_ASSIGNED_CONTEXT ( ( #198, #136, #83 ) ) REPRESENTATION_CONTEXT ( 'NONE', 'WORKASPACE' ) );
#220 = CARTESIAN_POINT ( 'NONE',  ( 0.1000000000000000100, 2.008420750601659300E-015, 16.40000000000000200 ) ) ;
#221 = EDGE_CURVE ( 'NONE', #235, #98, #202, .T. ) ;
#222 = CARTESIAN_POINT ( 'NONE',  ( 0.1000000000000000100, 1.420590287010929500E-015, 11.60000000000000000 ) ) ;
#223 = CIRCLE ( 'NONE', #50, 0.09999999999999939500 ) ;
#224 = SURFACE_SIDE_STYLE ('',( #174 ) ) ;
#225 = VERTEX_POINT ( 'NONE', #259 ) ;
#226 = CARTESIAN_POINT ( 'NONE',  ( 0.1000000000000000100, 1.408343819019456200E-015, -11.50000000000000000 ) ) ;
#227 = DIRECTION ( 'NONE',  ( 1.000000000000000000, 0.0000000000000000000, 0.0000000000000000000 ) ) ;
#228 = CLOSED_SHELL ( 'NONE', ( #92, #234, #236, #97, #206, #1, #142, #290, #88, #317, #211 ) ) ;
#229 = EDGE_CURVE ( 'NONE', #125, #193, #270, .T. ) ;
#230 = DIRECTION ( 'NONE',  ( 0.0000000000000000000, 0.0000000000000000000, -1.000000000000000000 ) ) ;
#231 = CARTESIAN_POINT ( 'NONE',  ( 0.1000000000000000100, 0.0000000000000000000, 16.50000000000000000 ) ) ;
#232 = CARTESIAN_POINT ( 'NONE',  ( 0.1000000000000000100, 0.0000000000000000000, 0.0000000000000000000 ) ) ;
#233 = FACE_OUTER_BOUND ( 'NONE', #155, .T. ) ;
#234 = ADVANCED_FACE ( 'NONE', ( #160 ), #173, .T. ) ;
#235 = VERTEX_POINT ( 'NONE', #231 ) ;
#236 = ADVANCED_FACE ( 'NONE', ( #169 ), #250, .T. ) ;
#237 = APPLICATION_CONTEXT ( 'automotive_design' ) ;
#238 = SURFACE_SIDE_STYLE ('',( #55 ) ) ;
#239 = EDGE_CURVE ( 'NONE', #294, #98, #322, .T. ) ;
#240 = LINE ( 'NONE', #141, #164 ) ;
#241 = ORIENTED_EDGE ( 'NONE', *, *, #265, .T. ) ;
#242 = ORIENTED_EDGE ( 'NONE', *, *, #295, .T. ) ;
#243 = DIRECTION ( 'NONE',  ( 0.0000000000000000000, 1.000000000000000000, -1.224646799147353200E-016 ) ) ;
#244 = ORIENTED_EDGE ( 'NONE', *, *, #150, .F. ) ;
#245 = ORIENTED_EDGE ( 'NONE', *, *, #279, .T. ) ;
#246 = DIRECTION ( 'NONE',  ( -1.000000000000000000, -0.0000000000000000000, -0.0000000000000000000 ) ) ;
#247 = CARTESIAN_POINT ( 'NONE',  ( 1.999999999999998700, 0.0000000000000000000, 0.0000000000000000000 ) ) ;
#248 = UNCERTAINTY_MEASURE_WITH_UNIT (LENGTH_MEASURE( 1.000000000000000100E-005 ), #151, 'distance_accuracy_value', 'NONE');
#249 = DIRECTION ( 'NONE',  ( 0.0000000000000000000, -1.224646799147353500E-016, 1.000000000000000000 ) ) ;
#250 = TOROIDAL_SURFACE ( 'NONE', #29, 14.00000000000000000, 2.500000000000000400 ) ;
#251 = AXIS2_PLACEMENT_3D ( 'NONE', #10, #37, #277 ) ;
#252 = FILL_AREA_STYLE_COLOUR ( '', #292 ) ;
#253 = ORIENTED_EDGE ( 'NONE', *, *, #104, .T. ) ;
#254 = DIRECTION ( 'NONE',  ( -1.000000000000000000, -0.0000000000000000000, -0.0000000000000000000 ) ) ;
#255 = DIRECTION ( 'NONE',  ( 0.0000000000000000000, 0.0000000000000000000, 1.000000000000000000 ) ) ;
#256 = CIRCLE ( 'NONE', #197, 0.09999999999999939500 ) ;
#257 = ORIENTED_EDGE ( 'NONE', *, *, #190, .T. ) ;
#258 = DIRECTION ( 'NONE',  ( 1.000000000000000000, 0.0000000000000000000, 0.0000000000000000000 ) ) ;
#259 = CARTESIAN_POINT ( 'NONE',  ( 0.1000000000000000100, 0.0000000000000000000, 11.50000000000000000 ) ) ;
#260 = DIRECTION ( 'NONE',  ( -1.000000000000000000, -0.0000000000000000000, -0.0000000000000000000 ) ) ;
#261 = DIRECTION ( 'NONE',  ( -1.000000000000000000, -0.0000000000000000000, -0.0000000000000000000 ) ) ;
#262 = CIRCLE ( 'NONE', #217, 11.60000000000000000 ) ;
#263 =( NAMED_UNIT ( * ) PLANE_ANGLE_UNIT ( ) SI_UNIT ( $, .RADIAN. ) );
#264 = CARTESIAN_POINT ( 'NONE',  ( 0.0000000000000000000, 0.0000000000000000000, 0.0000000000000000000 ) ) ;
#265 = EDGE_CURVE ( 'NONE', #303, #294, #184, .T. ) ;
#266 = CYLINDRICAL_SURFACE ( 'NONE', #93, 11.50000000000000000 ) ;
#267 = ORIENTED_EDGE ( 'NONE', *, *, #213, .T. ) ;
#268 = ORIENTED_EDGE ( 'NONE', *, *, #19, .T. ) ;
#269 = CARTESIAN_POINT ( 'NONE',  ( 0.0000000000000000000, 0.0000000000000000000, -11.60000000000000000 ) ) ;
#270 = LINE ( 'NONE', #306, #2 ) ;
#271 = CIRCLE ( 'NONE', #123, 0.09999999999999939500 ) ;
#272 = CARTESIAN_POINT ( 'NONE',  ( 0.0000000000000000000, 2.020667218593133100E-015, -16.50000000000000000 ) ) ;
#273 = EDGE_CURVE ( 'NONE', #9, #235, #240, .T. ) ;
#274 = DIRECTION ( 'NONE',  ( 1.000000000000000000, 0.0000000000000000000, 0.0000000000000000000 ) ) ;
#275 = ORIENTED_EDGE ( 'NONE', *, *, #213, .F. ) ;
#276 = DIRECTION ( 'NONE',  ( -0.0000000000000000000, 1.000000000000000000, 1.224646799147353200E-016 ) ) ;
#277 = DIRECTION ( 'NONE',  ( 0.0000000000000000000, 0.0000000000000000000, -1.000000000000000000 ) ) ;
#278 = CARTESIAN_POINT ( 'NONE',  ( 0.0000000000000000000, 0.0000000000000000000, 0.0000000000000000000 ) ) ;
#279 = EDGE_CURVE ( 'NONE', #125, #30, #90, .T. ) ;
#280 = DIRECTION ( 'NONE',  ( 0.0000000000000000000, -1.000000000000000000, 0.0000000000000000000 ) ) ;
#281 = CYLINDRICAL_SURFACE ( 'NONE', #36, 11.50000000000000000 ) ;
#282 = DIRECTION ( 'NONE',  ( 0.0000000000000000000, 0.0000000000000000000, 1.000000000000000000 ) ) ;
#283 = DIRECTION ( 'NONE',  ( 0.0000000000000000000, 0.0000000000000000000, 1.000000000000000000 ) ) ;
#284 = EDGE_LOOP ( 'NONE', ( #117, #126, #25, #79 ) ) ;
#285 = ORIENTED_EDGE ( 'NONE', *, *, #26, .F. ) ;
#286 = CARTESIAN_POINT ( 'NONE',  ( 1.999999999999998700, 0.0000000000000000000, 14.00000000000000000 ) ) ;
#287 = APPLICATION_CONTEXT ( 'automotive_design' ) ;
#288 = EDGE_CURVE ( 'NONE', #30, #9, #218, .T. ) ;
#289 = DIRECTION ( 'NONE',  ( 0.0000000000000000000, 0.0000000000000000000, -1.000000000000000000 ) ) ;
#290 = ADVANCED_FACE ( 'NONE', ( #33 ), #96, .T. ) ;
#291 = DIRECTION ( 'NONE',  ( 0.0000000000000000000, 0.0000000000000000000, 1.000000000000000000 ) ) ;
#292 = COLOUR_RGB ( '',1.000000000000000000, 0.0000000000000000000, 0.0000000000000000000 ) ;
#293 = AXIS2_PLACEMENT_3D ( 'NONE', #45, #261, #291 ) ;
#294 = VERTEX_POINT ( 'NONE', #119 ) ;
#295 = EDGE_CURVE ( 'NONE', #133, #80, #27, .T. ) ;
#296 = DIRECTION ( 'NONE',  ( 0.0000000000000000000, 1.224646799147373400E-016, 1.000000000000000000 ) ) ;
#297 = CIRCLE ( 'NONE', #293, 16.50000000000000000 ) ;
#298 = EDGE_LOOP ( 'NONE', ( #267, #253, #216, #48 ) ) ;
#299 = CARTESIAN_POINT ( 'NONE',  ( 0.1000000000000000100, 0.0000000000000000000, 0.0000000000000000000 ) ) ;
#300 = ORIENTED_EDGE ( 'NONE', *, *, #127, .T. ) ;
#301 = CARTESIAN_POINT ( 'NONE',  ( 0.0000000000000000000, 0.0000000000000000000, 0.0000000000000000000 ) ) ;
#302 = EDGE_CURVE ( 'NONE', #9, #60, #297, .T. ) ;
#303 = VERTEX_POINT ( 'NONE', #340 ) ;
#304 = CARTESIAN_POINT ( 'NONE',  ( 0.1000000000000000100, 2.020667218593133100E-015, -16.50000000000000000 ) ) ;
#305 = DIRECTION ( 'NONE',  ( 0.0000000000000000000, 0.0000000000000000000, -1.000000000000000000 ) ) ;
#306 = CARTESIAN_POINT ( 'NONE',  ( 0.0000000000000000000, 1.408343819019456200E-015, -11.50000000000000000 ) ) ;
#307 = FACE_OUTER_BOUND ( 'NONE', #200, .T. ) ;
#308 = CARTESIAN_POINT ( 'NONE',  ( 0.0000000000000000000, 0.0000000000000000000, 0.0000000000000000000 ) ) ;
#309 = ORIENTED_EDGE ( 'NONE', *, *, #104, .F. ) ;
#310 = EDGE_LOOP ( 'NONE', ( #337, #268, #74, #147 ) ) ;
#311 = DIRECTION ( 'NONE',  ( -1.000000000000000000, -0.0000000000000000000, -0.0000000000000000000 ) ) ;
#312 =( NAMED_UNIT ( * ) SI_UNIT ( $, .STERADIAN. ) SOLID_ANGLE_UNIT ( ) );
#313 = TOROIDAL_SURFACE ( 'NONE', #162, 16.40000000000000200, 0.1000000000000000100 ) ;
#314 = ORIENTED_EDGE ( 'NONE', *, *, #140, .F. ) ;
#315 = AXIS2_PLACEMENT_3D ( 'NONE', #39, #178, #255 ) ;
#316 = FILL_AREA_STYLE_COLOUR ( '', #320 ) ;
#317 = ADVANCED_FACE ( 'NONE', ( #307 ), #313, .T. ) ;
#318 = EDGE_LOOP ( 'NONE', ( #122, #242 ) ) ;
#319 = ORIENTED_EDGE ( 'NONE', *, *, #3, .T. ) ;
#320 = COLOUR_RGB ( '',1.000000000000000000, 0.0000000000000000000, 0.0000000000000000000 ) ;
#321 = AXIS2_PLACEMENT_3D ( 'NONE', #35, #227, #61 ) ;
#322 = CIRCLE ( 'NONE', #334, 0.09999999999999939500 ) ;
#323 = CIRCLE ( 'NONE', #43, 11.50000000000000000 ) ;
#324 = ORIENTED_EDGE ( 'NONE', *, *, #221, .T. ) ;
#325 = CARTESIAN_POINT ( 'NONE',  ( 0.1000000000000000100, 0.0000000000000000000, 0.0000000000000000000 ) ) ;
#326 = EDGE_CURVE ( 'NONE', #30, #225, #153, .T. ) ;
#327 = SURFACE_STYLE_USAGE ( .BOTH. , #224 ) ;
#328 = FACE_OUTER_BOUND ( 'NONE', #52, .T. ) ;
#329 = ORIENTED_EDGE ( 'NONE', *, *, #229, .T. ) ;
#330 = CARTESIAN_POINT ( 'NONE',  ( 1.999999999999998700, 1.714505518806294600E-015, -14.00000000000000000 ) ) ;
#331 = AXIS2_PLACEMENT_3D ( 'NONE', #308, #144, #208 ) ;
#332 = CARTESIAN_POINT ( 'NONE',  ( 0.1000000000000000100, 0.0000000000000000000, -11.60000000000000000 ) ) ;
#333 = DIRECTION ( 'NONE',  ( 0.0000000000000000000, -1.000000000000000000, 0.0000000000000000000 ) ) ;
#334 = AXIS2_PLACEMENT_3D ( 'NONE', #113, #20, #230 ) ;
#335 = DIRECTION ( 'NONE',  ( 0.0000000000000000000, 0.0000000000000000000, -1.000000000000000000 ) ) ;
#336 = ORIENTED_EDGE ( 'NONE', *, *, #179, .T. ) ;
#337 = ORIENTED_EDGE ( 'NONE', *, *, #302, .T. ) ;
#338 = APPLICATION_PROTOCOL_DEFINITION ( 'draft international standard', 'automotive_design', 1998, #287 ) ;
#339 = PRESENTATION_LAYER_ASSIGNMENT (  '', '', ( #13 ) ) ;
#340 = CARTESIAN_POINT ( 'NONE',  ( 0.0000000000000000000, 2.014543984597396000E-015, 16.40000000000000200 ) ) ;
ENDSEC;
END-ISO-10303-21;
