ISO-10303-21;
HEADER;
FILE_DESCRIPTION (( 'STEP AP214' ),
    '1' );
FILE_NAME ('GL-211-025-x Dichtung G25-x heco.STEP',
    '2017-09-01T09:34:36',
    ( '' ),
    ( '' ),
    'SwSTEP 2.0',
    'SolidWorks 2016',
    '' );
FILE_SCHEMA (( 'AUTOMOTIVE_DESIGN' ));
ENDSEC;

DATA;
#1 = AXIS2_PLACEMENT_3D ( 'NONE', #195, #34, #284 ) ;
#2 = CIRCLE ( 'NONE', #239, 20.00000000000000000 ) ;
#3 = CIRCLE ( 'NONE', #102, 20.00000000000000000 ) ;
#4 =( LENGTH_UNIT ( ) NAMED_UNIT ( * ) SI_UNIT ( .MILLI., .METRE. ) );
#5 = CARTESIAN_POINT ( 'NONE',  ( 0.1000000000000000100, 0.0000000000000000000, 0.0000000000000000000 ) ) ;
#6 = LINE ( 'NONE', #82, #290 ) ;
#7 = ORIENTED_EDGE ( 'NONE', *, *, #177, .T. ) ;
#8 = AXIS2_PLACEMENT_3D ( 'NONE', #316, #185, #338 ) ;
#9 = DIRECTION ( 'NONE',  ( -1.000000000000000000, -0.0000000000000000000, -0.0000000000000000000 ) ) ;
#10 = DIRECTION ( 'NONE',  ( -1.000000000000000000, -0.0000000000000000000, -0.0000000000000000000 ) ) ;
#11 = ORIENTED_EDGE ( 'NONE', *, *, #31, .F. ) ;
#12 = CARTESIAN_POINT ( 'NONE',  ( 2.499999999999998700, 0.0000000000000000000, 20.00000000000000000 ) ) ;
#13 = AXIS2_PLACEMENT_3D ( 'NONE', #151, #224, #37 ) ;
#14 = CARTESIAN_POINT ( 'NONE',  ( 2.499999999999999600, 0.0000000000000000000, 0.0000000000000000000 ) ) ;
#15 = FACE_BOUND ( 'NONE', #304, .T. ) ;
#16 = ORIENTED_EDGE ( 'NONE', *, *, #170, .T. ) ;
#17 = DIRECTION ( 'NONE',  ( 0.0000000000000000000, 0.0000000000000000000, 1.000000000000000000 ) ) ;
#18 = CARTESIAN_POINT ( 'NONE',  ( 0.0000000000000000000, 2.443170364298969800E-015, 19.90000000000000200 ) ) ;
#19 = AXIS2_PLACEMENT_3D ( 'NONE', #244, #120, #335 ) ;
#20 = EDGE_LOOP ( 'NONE', ( #319, #340 ) ) ;
#21 = CIRCLE ( 'NONE', #159, 19.90000000000000200 ) ;
#22 = VERTEX_POINT ( 'NONE', #238 ) ;
#23 = ORIENTED_EDGE ( 'NONE', *, *, #172, .F. ) ;
#24 = VERTEX_POINT ( 'NONE', #258 ) ;
#25 = CARTESIAN_POINT ( 'NONE',  ( 0.0000000000000000000, 0.0000000000000000000, 0.0000000000000000000 ) ) ;
#26 = AXIS2_PLACEMENT_3D ( 'NONE', #66, #308, #322 ) ;
#27 = CARTESIAN_POINT ( 'NONE',  ( 0.1000000000000000100, 0.0000000000000000000, 0.0000000000000000000 ) ) ;
#28 = SURFACE_SIDE_STYLE ('',( #43 ) ) ;
#29 = EDGE_LOOP ( 'NONE', ( #326, #339, #299, #216 ) ) ;
#30 = VERTEX_POINT ( 'NONE', #18 ) ;
#31 = EDGE_CURVE ( 'NONE', #181, #168, #6, .T. ) ;
#32 = FILL_AREA_STYLE ('',( #266 ) ) ;
#33 = APPLICATION_CONTEXT ( 'automotive_design' ) ;
#34 = DIRECTION ( 'NONE',  ( 0.0000000000000000000, 0.0000000000000000000, 1.000000000000000000 ) ) ;
#35 = CIRCLE ( 'NONE', #295, 15.00000000000000200 ) ;
#36 = ORIENTED_EDGE ( 'NONE', *, *, #291, .T. ) ;
#37 = DIRECTION ( 'NONE',  ( 0.0000000000000000000, 0.0000000000000000000, 1.000000000000000000 ) ) ;
#38 = UNCERTAINTY_MEASURE_WITH_UNIT (LENGTH_MEASURE( 1.000000000000000100E-005 ), #4, 'distance_accuracy_value', 'NONE');
#39 = FACE_OUTER_BOUND ( 'NONE', #281, .T. ) ;
#40 = ORIENTED_EDGE ( 'NONE', *, *, #106, .F. ) ;
#41 = ORIENTED_EDGE ( 'NONE', *, *, #192, .F. ) ;
#42 = AXIS2_PLACEMENT_3D ( 'NONE', #67, #246, #276 ) ;
#43 = SURFACE_STYLE_FILL_AREA ( #32 ) ;
#44 = ORIENTED_EDGE ( 'NONE', *, *, #268, .T. ) ;
#45 = CARTESIAN_POINT ( 'NONE',  ( 0.1000000000000000100, 0.0000000000000000000, 0.0000000000000000000 ) ) ;
#46 = DIRECTION ( 'NONE',  ( -1.000000000000000000, -0.0000000000000000000, -0.0000000000000000000 ) ) ;
#47 = CARTESIAN_POINT ( 'NONE',  ( 0.0000000000000000000, 0.0000000000000000000, -15.10000000000000000 ) ) ;
#48 = AXIS2_PLACEMENT_3D ( 'NONE', #156, #280, #100 ) ;
#49 = CYLINDRICAL_SURFACE ( 'NONE', #146, 15.00000000000000000 ) ;
#50 = ORIENTED_EDGE ( 'NONE', *, *, #291, .F. ) ;
#51 = UNCERTAINTY_MEASURE_WITH_UNIT (LENGTH_MEASURE( 1.000000000000000100E-005 ), #307, 'distance_accuracy_value', 'NONE');
#52 = ADVANCED_FACE ( 'NONE', ( #83 ), #141, .T. ) ;
#53 = CYLINDRICAL_SURFACE ( 'NONE', #249, 20.00000000000000000 ) ;
#54 = FACE_OUTER_BOUND ( 'NONE', #20, .T. ) ;
#55 = ORIENTED_EDGE ( 'NONE', *, *, #110, .F. ) ;
#56 = UNCERTAINTY_MEASURE_WITH_UNIT (LENGTH_MEASURE( 1.000000000000000100E-005 ), #175, 'distance_accuracy_value', 'NONE');
#57 = DIRECTION ( 'NONE',  ( 0.0000000000000000000, 0.0000000000000000000, -1.000000000000000000 ) ) ;
#58 = DIRECTION ( 'NONE',  ( 1.000000000000000000, 0.0000000000000000000, 0.0000000000000000000 ) ) ;
#59 = TOROIDAL_SURFACE ( 'NONE', #275, 17.50000000000000000, 2.500000000000000400 ) ;
#60 = ORIENTED_EDGE ( 'NONE', *, *, #71, .F. ) ;
#61 = DIRECTION ( 'NONE',  ( 0.0000000000000000000, 0.0000000000000000000, -1.000000000000000000 ) ) ;
#62 = DIRECTION ( 'NONE',  ( -1.000000000000000000, -0.0000000000000000000, -0.0000000000000000000 ) ) ;
#63 = PRODUCT_DEFINITION ( 'UNKNOWN', '', #255, #296 ) ;
#64 = CARTESIAN_POINT ( 'NONE',  ( 0.0000000000000000000, 0.0000000000000000000, 0.0000000000000000000 ) ) ;
#65 = PRODUCT_CONTEXT ( 'NONE', #96, 'mechanical' ) ;
#66 = CARTESIAN_POINT ( 'NONE',  ( 0.1000000000000000100, 0.0000000000000000000, -19.90000000000000200 ) ) ;
#67 = CARTESIAN_POINT ( 'NONE',  ( 0.0000000000000000000, 0.0000000000000000000, 0.0000000000000000000 ) ) ;
#68 = SURFACE_SIDE_STYLE ('',( #314 ) ) ;
#69 = MECHANICAL_DESIGN_GEOMETRIC_PRESENTATION_REPRESENTATION (  '', ( #197 ), #318 ) ;
#70 = DIRECTION ( 'NONE',  ( 0.0000000000000000000, -1.224646799147353500E-016, 1.000000000000000000 ) ) ;
#71 = EDGE_CURVE ( 'NONE', #168, #24, #93, .T. ) ;
#72 = DIRECTION ( 'NONE',  ( 0.0000000000000000000, -1.000000000000000000, 0.0000000000000000000 ) ) ;
#73 = CIRCLE ( 'NONE', #13, 15.00000000000000200 ) ;
#74 = DIRECTION ( 'NONE',  ( 0.0000000000000000000, 1.000000000000000000, -1.224646799147353200E-016 ) ) ;
#75 = AXIS2_PLACEMENT_3D ( 'NONE', #232, #74, #165 ) ;
#76 = CARTESIAN_POINT ( 'NONE',  ( 2.499999999999999100, 0.0000000000000000000, 17.50000000000000000 ) ) ;
#77 = CIRCLE ( 'NONE', #202, 2.500000000000000400 ) ;
#78 = CARTESIAN_POINT ( 'NONE',  ( 0.0000000000000000000, 0.0000000000000000000, 0.0000000000000000000 ) ) ;
#79 = ADVANCED_FACE ( 'NONE', ( #189 ), #247, .T. ) ;
#80 = DIRECTION ( 'NONE',  ( 0.0000000000000000000, -1.000000000000000000, 0.0000000000000000000 ) ) ;
#81 = DIRECTION ( 'NONE',  ( 0.0000000000000000000, 0.0000000000000000000, 1.000000000000000000 ) ) ;
#82 = CARTESIAN_POINT ( 'NONE',  ( 0.0000000000000000000, 0.0000000000000000000, 20.00000000000000000 ) ) ;
#83 = FACE_OUTER_BOUND ( 'NONE', #138, .T. ) ;
#84 = CIRCLE ( 'NONE', #271, 2.500000000000000400 ) ;
#85 = DIRECTION ( 'NONE',  ( 0.0000000000000000000, 0.0000000000000000000, 1.000000000000000000 ) ) ;
#86 = EDGE_CURVE ( 'NONE', #181, #252, #3, .T. ) ;
#87 = AXIS2_PLACEMENT_3D ( 'NONE', #27, #124, #121 ) ;
#88 = DIRECTION ( 'NONE',  ( 0.0000000000000000000, 1.000000000000000000, -1.224646799147353200E-016 ) ) ;
#89 = DIRECTION ( 'NONE',  ( 0.0000000000000000000, 1.224646799147373400E-016, 1.000000000000000000 ) ) ;
#90 = SHAPE_DEFINITION_REPRESENTATION ( #278, #336 ) ;
#91 = CARTESIAN_POINT ( 'NONE',  ( 2.499999999999999600, 0.0000000000000000000, 15.00000000000000200 ) ) ;
#92 =( NAMED_UNIT ( * ) SI_UNIT ( $, .STERADIAN. ) SOLID_ANGLE_UNIT ( ) );
#93 = CIRCLE ( 'NONE', #147, 20.00000000000000000 ) ;
#94 = AXIS2_PLACEMENT_3D ( 'NONE', #135, #289, #207 ) ;
#95 = ORIENTED_EDGE ( 'NONE', *, *, #320, .T. ) ;
#96 = APPLICATION_CONTEXT ( 'automotive_design' ) ;
#97 = CARTESIAN_POINT ( 'NONE',  ( 0.0000000000000000000, 2.449293598294706500E-015, -20.00000000000000000 ) ) ;
#98 = PRESENTATION_STYLE_ASSIGNMENT (( #250 ) ) ;
#99 = CIRCLE ( 'NONE', #261, 15.00000000000000000 ) ;
#100 = DIRECTION ( 'NONE',  ( 0.0000000000000000000, 0.0000000000000000000, -1.000000000000000000 ) ) ;
#101 = DIRECTION ( 'NONE',  ( -1.000000000000000000, -0.0000000000000000000, -0.0000000000000000000 ) ) ;
#102 = AXIS2_PLACEMENT_3D ( 'NONE', #199, #9, #228 ) ;
#103 = CIRCLE ( 'NONE', #75, 0.09999999999999939500 ) ;
#104 = ORIENTED_EDGE ( 'NONE', *, *, #177, .F. ) ;
#105 = ORIENTED_EDGE ( 'NONE', *, *, #231, .F. ) ;
#106 = EDGE_CURVE ( 'NONE', #119, #252, #84, .T. ) ;
#107 = CARTESIAN_POINT ( 'NONE',  ( 2.499999999999999100, 0.0000000000000000000, 0.0000000000000000000 ) ) ;
#108 =( GEOMETRIC_REPRESENTATION_CONTEXT ( 3 ) GLOBAL_UNCERTAINTY_ASSIGNED_CONTEXT ( ( #38 ) ) GLOBAL_UNIT_ASSIGNED_CONTEXT ( ( #4, #193, #196 ) ) REPRESENTATION_CONTEXT ( 'NONE', 'WORKASPACE' ) );
#109 = CARTESIAN_POINT ( 'NONE',  ( 0.0000000000000000000, 0.0000000000000000000, 0.0000000000000000000 ) ) ;
#110 = EDGE_CURVE ( 'NONE', #180, #145, #221, .T. ) ;
#111 = EDGE_CURVE ( 'NONE', #119, #180, #233, .T. ) ;
#112 = PRODUCT ( 'GL-211-025-x Dichtung G25-x heco', 'GL-211-025-x Dichtung G25-x heco', '', ( #65 ) ) ;
#113 = FACE_OUTER_BOUND ( 'NONE', #164, .T. ) ;
#114 = TOROIDAL_SURFACE ( 'NONE', #94, 19.90000000000000200, 0.1000000000000000100 ) ;
#115 = VERTEX_POINT ( 'NONE', #312 ) ;
#116 = PRESENTATION_LAYER_ASSIGNMENT (  '', '', ( #197 ) ) ;
#117 = CIRCLE ( 'NONE', #42, 15.10000000000000000 ) ;
#118 = DIRECTION ( 'NONE',  ( 0.0000000000000000000, 0.0000000000000000000, 1.000000000000000000 ) ) ;
#119 = VERTEX_POINT ( 'NONE', #183 ) ;
#120 = DIRECTION ( 'NONE',  ( -1.000000000000000000, -0.0000000000000000000, -0.0000000000000000000 ) ) ;
#121 = DIRECTION ( 'NONE',  ( 0.0000000000000000000, 0.0000000000000000000, -1.000000000000000000 ) ) ;
#122 = APPLICATION_PROTOCOL_DEFINITION ( 'draft international standard', 'automotive_design', 1998, #33 ) ;
#123 = DIRECTION ( 'NONE',  ( -0.0000000000000000000, 1.000000000000000000, 1.224646799147353200E-016 ) ) ;
#124 = DIRECTION ( 'NONE',  ( 1.000000000000000000, 0.0000000000000000000, 0.0000000000000000000 ) ) ;
#125 = AXIS2_PLACEMENT_3D ( 'NONE', #78, #330, #17 ) ;
#126 = PLANE ( 'NONE',  #327 ) ;
#127 = ORIENTED_EDGE ( 'NONE', *, *, #86, .T. ) ;
#128 = ORIENTED_EDGE ( 'NONE', *, *, #263, .F. ) ;
#129 = EDGE_CURVE ( 'NONE', #252, #24, #214, .T. ) ;
#130 = EDGE_CURVE ( 'NONE', #324, #115, #256, .T. ) ;
#131 = CARTESIAN_POINT ( 'NONE',  ( 0.0000000000000000000, 1.836970198721029600E-015, -15.00000000000000000 ) ) ;
#132 = ORIENTED_EDGE ( 'NONE', *, *, #320, .F. ) ;
#133 = DIRECTION ( 'NONE',  ( 1.000000000000000000, 0.0000000000000000000, 0.0000000000000000000 ) ) ;
#134 = EDGE_CURVE ( 'NONE', #115, #180, #272, .T. ) ;
#135 = CARTESIAN_POINT ( 'NONE',  ( 0.1000000000000000100, 0.0000000000000000000, 0.0000000000000000000 ) ) ;
#136 = ADVANCED_FACE ( 'NONE', ( #54, #15 ), #126, .F. ) ;
#137 = CARTESIAN_POINT ( 'NONE',  ( 0.1000000000000000100, 0.0000000000000000000, 0.0000000000000000000 ) ) ;
#138 = EDGE_LOOP ( 'NONE', ( #40, #36, #282, #105 ) ) ;
#139 = DIRECTION ( 'NONE',  ( 0.0000000000000000000, 0.0000000000000000000, -1.000000000000000000 ) ) ;
#140 = ADVANCED_FACE ( 'NONE', ( #337 ), #114, .T. ) ;
#141 = TOROIDAL_SURFACE ( 'NONE', #264, 17.50000000000000000, 2.500000000000000400 ) ;
#142 = ORIENTED_EDGE ( 'NONE', *, *, #143, .F. ) ;
#143 = EDGE_CURVE ( 'NONE', #324, #119, #35, .T. ) ;
#144 = CARTESIAN_POINT ( 'NONE',  ( 0.0000000000000000000, 0.0000000000000000000, 0.0000000000000000000 ) ) ;
#145 = VERTEX_POINT ( 'NONE', #47 ) ;
#146 = AXIS2_PLACEMENT_3D ( 'NONE', #144, #62, #85 ) ;
#147 = AXIS2_PLACEMENT_3D ( 'NONE', #160, #286, #311 ) ;
#148 = FACE_OUTER_BOUND ( 'NONE', #240, .T. ) ;
#149 =( NAMED_UNIT ( * ) PLANE_ANGLE_UNIT ( ) SI_UNIT ( $, .RADIAN. ) );
#150 = EDGE_CURVE ( 'NONE', #324, #181, #77, .T. ) ;
#151 = CARTESIAN_POINT ( 'NONE',  ( 2.499999999999999600, 0.0000000000000000000, 0.0000000000000000000 ) ) ;
#152 =( GEOMETRIC_REPRESENTATION_CONTEXT ( 3 ) GLOBAL_UNCERTAINTY_ASSIGNED_CONTEXT ( ( #51 ) ) GLOBAL_UNIT_ASSIGNED_CONTEXT ( ( #307, #149, #92 ) ) REPRESENTATION_CONTEXT ( 'NONE', 'WORKASPACE' ) );
#153 = VECTOR ( 'NONE', #101, 1000.000000000000000 ) ;
#154 = CLOSED_SHELL ( 'NONE', ( #292, #79, #262, #167, #211, #235, #136, #260, #52, #140, #188 ) ) ;
#155 = ORIENTED_EDGE ( 'NONE', *, *, #134, .F. ) ;
#156 = CARTESIAN_POINT ( 'NONE',  ( 0.1000000000000000100, 0.0000000000000000000, 0.0000000000000000000 ) ) ;
#157 = DIRECTION ( 'NONE',  ( 0.0000000000000000000, 0.0000000000000000000, -1.000000000000000000 ) ) ;
#158 = CIRCLE ( 'NONE', #19, 20.00000000000000000 ) ;
#159 = AXIS2_PLACEMENT_3D ( 'NONE', #64, #190, #61 ) ;
#160 = CARTESIAN_POINT ( 'NONE',  ( 0.1000000000000000100, 0.0000000000000000000, 0.0000000000000000000 ) ) ;
#161 = DIRECTION ( 'NONE',  ( -1.000000000000000000, -0.0000000000000000000, -0.0000000000000000000 ) ) ;
#162 = PRESENTATION_STYLE_ASSIGNMENT (( #220 ) ) ;
#163 = ORIENTED_EDGE ( 'NONE', *, *, #111, .F. ) ;
#164 = EDGE_LOOP ( 'NONE', ( #206, #283, #333, #182 ) ) ;
#165 = DIRECTION ( 'NONE',  ( 0.0000000000000000000, 1.224646799147373400E-016, 1.000000000000000000 ) ) ;
#166 = STYLED_ITEM ( 'NONE', ( #98 ), #336 ) ;
#167 = ADVANCED_FACE ( 'NONE', ( #269 ), #198, .T. ) ;
#168 = VERTEX_POINT ( 'NONE', #257 ) ;
#169 = DIRECTION ( 'NONE',  ( -1.000000000000000000, -0.0000000000000000000, -0.0000000000000000000 ) ) ;
#170 = EDGE_CURVE ( 'NONE', #30, #168, #103, .T. ) ;
#171 = DIRECTION ( 'NONE',  ( -1.000000000000000000, -0.0000000000000000000, -0.0000000000000000000 ) ) ;
#172 = EDGE_CURVE ( 'NONE', #30, #297, #226, .T. ) ;
#173 = AXIS2_PLACEMENT_3D ( 'NONE', #109, #46, #294 ) ;
#174 = DIRECTION ( 'NONE',  ( 0.0000000000000000000, 0.0000000000000000000, 1.000000000000000000 ) ) ;
#175 =( LENGTH_UNIT ( ) NAMED_UNIT ( * ) SI_UNIT ( .MILLI., .METRE. ) );
#176 = FACE_OUTER_BOUND ( 'NONE', #243, .T. ) ;
#177 = EDGE_CURVE ( 'NONE', #180, #115, #99, .T. ) ;
#178 = PRESENTATION_LAYER_ASSIGNMENT (  '', '', ( #166 ) ) ;
#179 = CARTESIAN_POINT ( 'NONE',  ( 2.499999999999999100, 2.143131898507868200E-015, -17.50000000000000000 ) ) ;
#180 = VERTEX_POINT ( 'NONE', #184 ) ;
#181 = VERTEX_POINT ( 'NONE', #12 ) ;
#182 = ORIENTED_EDGE ( 'NONE', *, *, #150, .F. ) ;
#183 = CARTESIAN_POINT ( 'NONE',  ( 2.499999999999999600, 1.836970198721030000E-015, -15.00000000000000400 ) ) ;
#184 = CARTESIAN_POINT ( 'NONE',  ( 0.1000000000000000100, 1.836970198721029600E-015, -15.00000000000000000 ) ) ;
#185 = DIRECTION ( 'NONE',  ( -1.000000000000000000, -0.0000000000000000000, -0.0000000000000000000 ) ) ;
#186 = DIRECTION ( 'NONE',  ( 0.0000000000000000000, 0.0000000000000000000, -1.000000000000000000 ) ) ;
#187 = AXIS2_PLACEMENT_3D ( 'NONE', #309, #72, #157 ) ;
#188 = ADVANCED_FACE ( 'NONE', ( #148 ), #303, .T. ) ;
#189 = FACE_OUTER_BOUND ( 'NONE', #241, .T. ) ;
#190 = DIRECTION ( 'NONE',  ( -1.000000000000000000, -0.0000000000000000000, -0.0000000000000000000 ) ) ;
#191 = CARTESIAN_POINT ( 'NONE',  ( 0.1000000000000000100, 1.849216666712503300E-015, 15.10000000000000000 ) ) ;
#192 = EDGE_CURVE ( 'NONE', #297, #30, #21, .T. ) ;
#193 =( NAMED_UNIT ( * ) PLANE_ANGLE_UNIT ( ) SI_UNIT ( $, .RADIAN. ) );
#194 = CIRCLE ( 'NONE', #313, 15.10000000000000000 ) ;
#195 = CARTESIAN_POINT ( 'NONE',  ( 0.0000000000000000000, 0.0000000000000000000, 0.0000000000000000000 ) ) ;
#196 =( NAMED_UNIT ( * ) SI_UNIT ( $, .STERADIAN. ) SOLID_ANGLE_UNIT ( ) );
#197 = STYLED_ITEM ( 'NONE', ( #162 ), #205 ) ;
#198 = CYLINDRICAL_SURFACE ( 'NONE', #125, 20.00000000000000000 ) ;
#199 = CARTESIAN_POINT ( 'NONE',  ( 2.499999999999998700, 0.0000000000000000000, 0.0000000000000000000 ) ) ;
#200 = ORIENTED_EDGE ( 'NONE', *, *, #111, .T. ) ;
#201 = DIRECTION ( 'NONE',  ( 1.000000000000000000, 0.0000000000000000000, 0.0000000000000000000 ) ) ;
#202 = AXIS2_PLACEMENT_3D ( 'NONE', #76, #80, #139 ) ;
#203 = DIRECTION ( 'NONE',  ( 0.0000000000000000000, 0.0000000000000000000, -1.000000000000000000 ) ) ;
#204 = COLOUR_RGB ( '',1.000000000000000000, 0.0000000000000000000, 0.0000000000000000000 ) ;
#205 = MANIFOLD_SOLID_BREP ( 'Verrundung1', #154 ) ;
#206 = ORIENTED_EDGE ( 'NONE', *, *, #143, .T. ) ;
#207 = DIRECTION ( 'NONE',  ( 0.0000000000000000000, 0.0000000000000000000, -1.000000000000000000 ) ) ;
#208 = DIRECTION ( 'NONE',  ( 0.0000000000000000000, 0.0000000000000000000, 1.000000000000000000 ) ) ;
#209 = ORIENTED_EDGE ( 'NONE', *, *, #170, .F. ) ;
#210 = ORIENTED_EDGE ( 'NONE', *, *, #274, .F. ) ;
#211 = ADVANCED_FACE ( 'NONE', ( #176 ), #219, .F. ) ;
#212 = DIRECTION ( 'NONE',  ( -1.000000000000000000, -0.0000000000000000000, -0.0000000000000000000 ) ) ;
#213 = PRODUCT_RELATED_PRODUCT_CATEGORY ( 'part', '', ( #112 ) ) ;
#214 = LINE ( 'NONE', #97, #279 ) ;
#215 = VECTOR ( 'NONE', #251, 1000.000000000000000 ) ;
#216 = ORIENTED_EDGE ( 'NONE', *, *, #71, .T. ) ;
#217 = DIRECTION ( 'NONE',  ( 1.000000000000000000, 0.0000000000000000000, 0.0000000000000000000 ) ) ;
#218 = EDGE_CURVE ( 'NONE', #22, #145, #194, .T. ) ;
#219 = CYLINDRICAL_SURFACE ( 'NONE', #8, 15.00000000000000000 ) ;
#220 = SURFACE_STYLE_USAGE ( .BOTH. , #28 ) ;
#221 = CIRCLE ( 'NONE', #187, 0.09999999999999939500 ) ;
#222 = EDGE_LOOP ( 'NONE', ( #163, #142, #265, #317 ) ) ;
#223 = AXIS2_PLACEMENT_3D ( 'NONE', #45, #133, #186 ) ;
#224 = DIRECTION ( 'NONE',  ( -1.000000000000000000, -0.0000000000000000000, -0.0000000000000000000 ) ) ;
#225 = DIRECTION ( 'NONE',  ( 1.000000000000000000, 0.0000000000000000000, 0.0000000000000000000 ) ) ;
#226 = CIRCLE ( 'NONE', #173, 19.90000000000000200 ) ;
#227 = DIRECTION ( 'NONE',  ( 0.0000000000000000000, 0.0000000000000000000, -1.000000000000000000 ) ) ;
#228 = DIRECTION ( 'NONE',  ( 0.0000000000000000000, 0.0000000000000000000, 1.000000000000000000 ) ) ;
#229 = MECHANICAL_DESIGN_GEOMETRIC_PRESENTATION_REPRESENTATION (  '', ( #166 ), #152 ) ;
#230 = ORIENTED_EDGE ( 'NONE', *, *, #263, .T. ) ;
#231 = EDGE_CURVE ( 'NONE', #252, #181, #158, .T. ) ;
#232 = CARTESIAN_POINT ( 'NONE',  ( 0.1000000000000000100, 2.437047130303233200E-015, 19.90000000000000200 ) ) ;
#233 = LINE ( 'NONE', #131, #215 ) ;
#234 = CARTESIAN_POINT ( 'NONE',  ( 0.1000000000000000100, 0.0000000000000000000, 0.0000000000000000000 ) ) ;
#235 = ADVANCED_FACE ( 'NONE', ( #321 ), #49, .F. ) ;
#236 = CIRCLE ( 'NONE', #285, 0.09999999999999939500 ) ;
#237 = ORIENTED_EDGE ( 'NONE', *, *, #110, .T. ) ;
#238 = CARTESIAN_POINT ( 'NONE',  ( 0.0000000000000000000, 1.849216666712503300E-015, 15.10000000000000000 ) ) ;
#239 = AXIS2_PLACEMENT_3D ( 'NONE', #5, #225, #227 ) ;
#240 = EDGE_LOOP ( 'NONE', ( #128, #104, #237, #331 ) ) ;
#241 = EDGE_LOOP ( 'NONE', ( #23, #16, #210, #132 ) ) ;
#242 =( NAMED_UNIT ( * ) SI_UNIT ( $, .STERADIAN. ) SOLID_ANGLE_UNIT ( ) );
#243 = EDGE_LOOP ( 'NONE', ( #50, #200, #7, #273 ) ) ;
#244 = CARTESIAN_POINT ( 'NONE',  ( 2.499999999999998700, 0.0000000000000000000, 0.0000000000000000000 ) ) ;
#245 =( NAMED_UNIT ( * ) PLANE_ANGLE_UNIT ( ) SI_UNIT ( $, .RADIAN. ) );
#246 = DIRECTION ( 'NONE',  ( 1.000000000000000000, 0.0000000000000000000, 0.0000000000000000000 ) ) ;
#247 = TOROIDAL_SURFACE ( 'NONE', #300, 19.90000000000000200, 0.1000000000000000100 ) ;
#248 = FILL_AREA_STYLE_COLOUR ( '', #204 ) ;
#249 = AXIS2_PLACEMENT_3D ( 'NONE', #302, #305, #174 ) ;
#250 = SURFACE_STYLE_USAGE ( .BOTH. , #68 ) ;
#251 = DIRECTION ( 'NONE',  ( -1.000000000000000000, -0.0000000000000000000, -0.0000000000000000000 ) ) ;
#252 = VERTEX_POINT ( 'NONE', #270 ) ;
#253 = ORIENTED_EDGE ( 'NONE', *, *, #274, .T. ) ;
#254 = CARTESIAN_POINT ( 'NONE',  ( 0.0000000000000000000, 0.0000000000000000000, 15.00000000000000000 ) ) ;
#255 = PRODUCT_DEFINITION_FORMATION_WITH_SPECIFIED_SOURCE ( 'ANY', '', #112, .NOT_KNOWN. ) ;
#256 = LINE ( 'NONE', #254, #153 ) ;
#257 = CARTESIAN_POINT ( 'NONE',  ( 0.1000000000000000100, 0.0000000000000000000, 20.00000000000000000 ) ) ;
#258 = CARTESIAN_POINT ( 'NONE',  ( 0.1000000000000000100, 2.449293598294706500E-015, -20.00000000000000000 ) ) ;
#259 = DIRECTION ( 'NONE',  ( 0.0000000000000000000, 0.0000000000000000000, -1.000000000000000000 ) ) ;
#260 = ADVANCED_FACE ( 'NONE', ( #301 ), #53, .T. ) ;
#261 = AXIS2_PLACEMENT_3D ( 'NONE', #234, #332, #259 ) ;
#262 = ADVANCED_FACE ( 'NONE', ( #113 ), #59, .T. ) ;
#263 = EDGE_CURVE ( 'NONE', #115, #22, #236, .T. ) ;
#264 = AXIS2_PLACEMENT_3D ( 'NONE', #107, #169, #81 ) ;
#265 = ORIENTED_EDGE ( 'NONE', *, *, #130, .T. ) ;
#266 = FILL_AREA_STYLE_COLOUR ( '', #328 ) ;
#267 = CARTESIAN_POINT ( 'NONE',  ( 2.499999999999999100, 0.0000000000000000000, 0.0000000000000000000 ) ) ;
#268 = EDGE_CURVE ( 'NONE', #145, #22, #117, .T. ) ;
#269 = FACE_OUTER_BOUND ( 'NONE', #329, .T. ) ;
#270 = CARTESIAN_POINT ( 'NONE',  ( 2.499999999999998700, 2.449293598294706500E-015, -20.00000000000000000 ) ) ;
#271 = AXIS2_PLACEMENT_3D ( 'NONE', #179, #123, #70 ) ;
#272 = CIRCLE ( 'NONE', #48, 15.00000000000000000 ) ;
#273 = ORIENTED_EDGE ( 'NONE', *, *, #130, .F. ) ;
#274 = EDGE_CURVE ( 'NONE', #24, #168, #2, .T. ) ;
#275 = AXIS2_PLACEMENT_3D ( 'NONE', #267, #171, #118 ) ;
#276 = DIRECTION ( 'NONE',  ( 0.0000000000000000000, 0.0000000000000000000, -1.000000000000000000 ) ) ;
#277 = APPLICATION_PROTOCOL_DEFINITION ( 'draft international standard', 'automotive_design', 1998, #96 ) ;
#278 = PRODUCT_DEFINITION_SHAPE ( 'NONE', 'NONE',  #63 ) ;
#279 = VECTOR ( 'NONE', #10, 1000.000000000000000 ) ;
#280 = DIRECTION ( 'NONE',  ( -1.000000000000000000, -0.0000000000000000000, -0.0000000000000000000 ) ) ;
#281 = EDGE_LOOP ( 'NONE', ( #155, #230, #298, #55 ) ) ;
#282 = ORIENTED_EDGE ( 'NONE', *, *, #150, .T. ) ;
#283 = ORIENTED_EDGE ( 'NONE', *, *, #106, .T. ) ;
#284 = DIRECTION ( 'NONE',  ( 1.000000000000000000, 0.0000000000000000000, 0.0000000000000000000 ) ) ;
#285 = AXIS2_PLACEMENT_3D ( 'NONE', #191, #88, #89 ) ;
#286 = DIRECTION ( 'NONE',  ( 1.000000000000000000, 0.0000000000000000000, 0.0000000000000000000 ) ) ;
#287 = DIRECTION ( 'NONE',  ( 0.0000000000000000000, 0.0000000000000000000, -1.000000000000000000 ) ) ;
#288 = TOROIDAL_SURFACE ( 'NONE', #87, 15.10000000000000000, 0.1000000000000000100 ) ;
#289 = DIRECTION ( 'NONE',  ( 1.000000000000000000, 0.0000000000000000000, 0.0000000000000000000 ) ) ;
#290 = VECTOR ( 'NONE', #212, 1000.000000000000000 ) ;
#291 = EDGE_CURVE ( 'NONE', #119, #324, #73, .T. ) ;
#292 = ADVANCED_FACE ( 'NONE', ( #39 ), #288, .T. ) ;
#293 = EDGE_LOOP ( 'NONE', ( #209, #41, #95, #60 ) ) ;
#294 = DIRECTION ( 'NONE',  ( 0.0000000000000000000, 0.0000000000000000000, -1.000000000000000000 ) ) ;
#295 = AXIS2_PLACEMENT_3D ( 'NONE', #14, #161, #208 ) ;
#296 = PRODUCT_DEFINITION_CONTEXT ( 'detailed design', #33, 'design' ) ;
#297 = VERTEX_POINT ( 'NONE', #306 ) ;
#298 = ORIENTED_EDGE ( 'NONE', *, *, #268, .F. ) ;
#299 = ORIENTED_EDGE ( 'NONE', *, *, #31, .T. ) ;
#300 = AXIS2_PLACEMENT_3D ( 'NONE', #137, #217, #203 ) ;
#301 = FACE_OUTER_BOUND ( 'NONE', #29, .T. ) ;
#302 = CARTESIAN_POINT ( 'NONE',  ( 0.0000000000000000000, 0.0000000000000000000, 0.0000000000000000000 ) ) ;
#303 = TOROIDAL_SURFACE ( 'NONE', #223, 15.10000000000000000, 0.1000000000000000100 ) ;
#304 = EDGE_LOOP ( 'NONE', ( #44, #323 ) ) ;
#305 = DIRECTION ( 'NONE',  ( -1.000000000000000000, -0.0000000000000000000, -0.0000000000000000000 ) ) ;
#306 = CARTESIAN_POINT ( 'NONE',  ( 0.0000000000000000000, 0.0000000000000000000, -19.90000000000000200 ) ) ;
#307 =( LENGTH_UNIT ( ) NAMED_UNIT ( * ) SI_UNIT ( .MILLI., .METRE. ) );
#308 = DIRECTION ( 'NONE',  ( 0.0000000000000000000, -1.000000000000000000, 0.0000000000000000000 ) ) ;
#309 = CARTESIAN_POINT ( 'NONE',  ( 0.1000000000000000100, 0.0000000000000000000, -15.10000000000000000 ) ) ;
#310 = CARTESIAN_POINT ( 'NONE',  ( 0.0000000000000000000, 15.00000000000000000, 0.0000000000000000000 ) ) ;
#311 = DIRECTION ( 'NONE',  ( 0.0000000000000000000, 0.0000000000000000000, -1.000000000000000000 ) ) ;
#312 = CARTESIAN_POINT ( 'NONE',  ( 0.1000000000000000100, 0.0000000000000000000, 15.00000000000000000 ) ) ;
#313 = AXIS2_PLACEMENT_3D ( 'NONE', #25, #58, #57 ) ;
#314 = SURFACE_STYLE_FILL_AREA ( #325 ) ;
#315 = ORIENTED_EDGE ( 'NONE', *, *, #129, .T. ) ;
#316 = CARTESIAN_POINT ( 'NONE',  ( 0.0000000000000000000, 0.0000000000000000000, 0.0000000000000000000 ) ) ;
#317 = ORIENTED_EDGE ( 'NONE', *, *, #134, .T. ) ;
#318 =( GEOMETRIC_REPRESENTATION_CONTEXT ( 3 ) GLOBAL_UNCERTAINTY_ASSIGNED_CONTEXT ( ( #56 ) ) GLOBAL_UNIT_ASSIGNED_CONTEXT ( ( #175, #245, #242 ) ) REPRESENTATION_CONTEXT ( 'NONE', 'WORKASPACE' ) );
#319 = ORIENTED_EDGE ( 'NONE', *, *, #192, .T. ) ;
#320 = EDGE_CURVE ( 'NONE', #297, #24, #334, .T. ) ;
#321 = FACE_OUTER_BOUND ( 'NONE', #222, .T. ) ;
#322 = DIRECTION ( 'NONE',  ( 0.0000000000000000000, 0.0000000000000000000, -1.000000000000000000 ) ) ;
#323 = ORIENTED_EDGE ( 'NONE', *, *, #218, .T. ) ;
#324 = VERTEX_POINT ( 'NONE', #91 ) ;
#325 = FILL_AREA_STYLE ('',( #248 ) ) ;
#326 = ORIENTED_EDGE ( 'NONE', *, *, #129, .F. ) ;
#327 = AXIS2_PLACEMENT_3D ( 'NONE', #310, #201, #287 ) ;
#328 = COLOUR_RGB ( '',1.000000000000000000, 0.0000000000000000000, 0.0000000000000000000 ) ;
#329 = EDGE_LOOP ( 'NONE', ( #127, #315, #253, #11 ) ) ;
#330 = DIRECTION ( 'NONE',  ( -1.000000000000000000, -0.0000000000000000000, -0.0000000000000000000 ) ) ;
#331 = ORIENTED_EDGE ( 'NONE', *, *, #218, .F. ) ;
#332 = DIRECTION ( 'NONE',  ( -1.000000000000000000, -0.0000000000000000000, -0.0000000000000000000 ) ) ;
#333 = ORIENTED_EDGE ( 'NONE', *, *, #86, .F. ) ;
#334 = CIRCLE ( 'NONE', #26, 0.09999999999999939500 ) ;
#335 = DIRECTION ( 'NONE',  ( 0.0000000000000000000, 0.0000000000000000000, 1.000000000000000000 ) ) ;
#336 = ADVANCED_BREP_SHAPE_REPRESENTATION ( 'GL-211-025-x Dichtung G25-x heco', ( #205, #1 ), #108 ) ;
#337 = FACE_OUTER_BOUND ( 'NONE', #293, .T. ) ;
#338 = DIRECTION ( 'NONE',  ( 0.0000000000000000000, 0.0000000000000000000, 1.000000000000000000 ) ) ;
#339 = ORIENTED_EDGE ( 'NONE', *, *, #231, .T. ) ;
#340 = ORIENTED_EDGE ( 'NONE', *, *, #172, .T. ) ;
ENDSEC;
END-ISO-10303-21;
