ISO-10303-21;
HEADER;
FILE_DESCRIPTION (( 'STEP AP214' ),
    '1' );
FILE_NAME ('GL-211-032-x Dichtung G32-x heco.STEP',
    '2017-09-01T09:37:31',
    ( '' ),
    ( '' ),
    'SwSTEP 2.0',
    'SolidWorks 2016',
    '' );
FILE_SCHEMA (( 'AUTOMOTIVE_DESIGN' ));
ENDSEC;

DATA;
#1 = EDGE_CURVE ( 'NONE', #258, #291, #16, .T. ) ;
#2 = DIRECTION ( 'NONE',  ( 0.0000000000000000000, 0.0000000000000000000, 1.000000000000000000 ) ) ;
#3 = EDGE_CURVE ( 'NONE', #106, #201, #217, .T. ) ;
#4 = ORIENTED_EDGE ( 'NONE', *, *, #294, .F. ) ;
#5 = FACE_OUTER_BOUND ( 'NONE', #323, .T. ) ;
#6 = EDGE_CURVE ( 'NONE', #258, #230, #131, .T. ) ;
#7 = DIRECTION ( 'NONE',  ( -1.000000000000000000, -0.0000000000000000000, -0.0000000000000000000 ) ) ;
#8 = EDGE_LOOP ( 'NONE', ( #89, #313, #197, #53 ) ) ;
#9 = LINE ( 'NONE', #199, #159 ) ;
#10 = DIRECTION ( 'NONE',  ( 0.0000000000000000000, 1.000000000000000000, -1.224646799147353200E-016 ) ) ;
#11 = AXIS2_PLACEMENT_3D ( 'NONE', #172, #19, #74 ) ;
#12 = DIRECTION ( 'NONE',  ( 0.0000000000000000000, 0.0000000000000000000, -1.000000000000000000 ) ) ;
#13 = ORIENTED_EDGE ( 'NONE', *, *, #46, .F. ) ;
#14 = CIRCLE ( 'NONE', #220, 18.10000000000000100 ) ;
#15 = DIRECTION ( 'NONE',  ( -1.000000000000000000, -0.0000000000000000000, -0.0000000000000000000 ) ) ;
#16 = CIRCLE ( 'NONE', #281, 22.89999999999999900 ) ;
#17 = DIRECTION ( 'NONE',  ( -1.000000000000000000, -0.0000000000000000000, -0.0000000000000000000 ) ) ;
#18 = EDGE_CURVE ( 'NONE', #219, #201, #69, .T. ) ;
#19 = DIRECTION ( 'NONE',  ( -1.000000000000000000, -0.0000000000000000000, -0.0000000000000000000 ) ) ;
#20 = DIRECTION ( 'NONE',  ( 0.0000000000000000000, 0.0000000000000000000, -1.000000000000000000 ) ) ;
#21 = CARTESIAN_POINT ( 'NONE',  ( 0.0000000000000000000, 0.0000000000000000000, 0.0000000000000000000 ) ) ;
#22 = ORIENTED_EDGE ( 'NONE', *, *, #3, .F. ) ;
#23 = CIRCLE ( 'NONE', #330, 0.09999999999999939500 ) ;
#24 = AXIS2_PLACEMENT_3D ( 'NONE', #280, #282, #126 ) ;
#25 = DIRECTION ( 'NONE',  ( 0.0000000000000000000, 0.0000000000000000000, 1.000000000000000000 ) ) ;
#26 = DIRECTION ( 'NONE',  ( 0.0000000000000000000, 0.0000000000000000000, -1.000000000000000000 ) ) ;
#27 = AXIS2_PLACEMENT_3D ( 'NONE', #236, #225, #227 ) ;
#28 = CARTESIAN_POINT ( 'NONE',  ( 0.0000000000000000000, 0.0000000000000000000, 0.0000000000000000000 ) ) ;
#29 = CARTESIAN_POINT ( 'NONE',  ( 0.0000000000000000000, 0.0000000000000000000, -22.89999999999999900 ) ) ;
#30 = CIRCLE ( 'NONE', #112, 23.00000000000000000 ) ;
#31 = ADVANCED_BREP_SHAPE_REPRESENTATION ( 'GL-211-032-x Dichtung G32-x heco', ( #145, #171 ), #155 ) ;
#32 = UNCERTAINTY_MEASURE_WITH_UNIT (LENGTH_MEASURE( 1.000000000000000100E-005 ), #107, 'distance_accuracy_value', 'NONE');
#33 = CARTESIAN_POINT ( 'NONE',  ( 2.499999999999999100, 2.816687638038912400E-015, -23.00000000000000000 ) ) ;
#34 = DIRECTION ( 'NONE',  ( 1.000000000000000000, 0.0000000000000000000, 0.0000000000000000000 ) ) ;
#35 = CYLINDRICAL_SURFACE ( 'NONE', #310, 23.00000000000000000 ) ;
#36 = EDGE_CURVE ( 'NONE', #190, #219, #200, .T. ) ;
#37 = ADVANCED_FACE ( 'NONE', ( #234 ), #80, .F. ) ;
#38 =( NAMED_UNIT ( * ) SI_UNIT ( $, .STERADIAN. ) SOLID_ANGLE_UNIT ( ) );
#39 = FACE_OUTER_BOUND ( 'NONE', #321, .T. ) ;
#40 = DIRECTION ( 'NONE',  ( -1.000000000000000000, -0.0000000000000000000, -0.0000000000000000000 ) ) ;
#41 =( GEOMETRIC_REPRESENTATION_CONTEXT ( 3 ) GLOBAL_UNCERTAINTY_ASSIGNED_CONTEXT ( ( #32 ) ) GLOBAL_UNIT_ASSIGNED_CONTEXT ( ( #107, #174, #260 ) ) REPRESENTATION_CONTEXT ( 'NONE', 'WORKASPACE' ) );
#42 = ORIENTED_EDGE ( 'NONE', *, *, #170, .F. ) ;
#43 = CIRCLE ( 'NONE', #182, 18.00000000000000400 ) ;
#44 = DIRECTION ( 'NONE',  ( -1.000000000000000000, -0.0000000000000000000, -0.0000000000000000000 ) ) ;
#45 = PRESENTATION_LAYER_ASSIGNMENT (  '', '', ( #148 ) ) ;
#46 = EDGE_CURVE ( 'NONE', #255, #267, #30, .T. ) ;
#47 = DIRECTION ( 'NONE',  ( 0.0000000000000000000, 0.0000000000000000000, 1.000000000000000000 ) ) ;
#48 = DIRECTION ( 'NONE',  ( 1.000000000000000000, 0.0000000000000000000, 0.0000000000000000000 ) ) ;
#49 = EDGE_CURVE ( 'NONE', #255, #230, #9, .T. ) ;
#50 = DIRECTION ( 'NONE',  ( -1.000000000000000000, -0.0000000000000000000, -0.0000000000000000000 ) ) ;
#51 = EDGE_LOOP ( 'NONE', ( #246, #261 ) ) ;
#52 = CIRCLE ( 'NONE', #27, 23.00000000000000000 ) ;
#53 = ORIENTED_EDGE ( 'NONE', *, *, #328, .F. ) ;
#54 = DIRECTION ( 'NONE',  ( 0.0000000000000000000, -1.000000000000000000, 0.0000000000000000000 ) ) ;
#55 = DIRECTION ( 'NONE',  ( 0.0000000000000000000, 0.0000000000000000000, -1.000000000000000000 ) ) ;
#56 = CARTESIAN_POINT ( 'NONE',  ( 0.1000000000000000100, 0.0000000000000000000, -18.10000000000000100 ) ) ;
#57 = DIRECTION ( 'NONE',  ( -0.0000000000000000000, 1.000000000000000000, 1.224646799147353200E-016 ) ) ;
#58 = ORIENTED_EDGE ( 'NONE', *, *, #149, .F. ) ;
#59 = APPLICATION_CONTEXT ( 'automotive_design' ) ;
#60 = AXIS2_PLACEMENT_3D ( 'NONE', #315, #179, #108 ) ;
#61 = VERTEX_POINT ( 'NONE', #144 ) ;
#62 = DIRECTION ( 'NONE',  ( 1.000000000000000000, 0.0000000000000000000, 0.0000000000000000000 ) ) ;
#63 = ADVANCED_FACE ( 'NONE', ( #269 ), #317, .T. ) ;
#64 = EDGE_LOOP ( 'NONE', ( #93, #333, #272, #296 ) ) ;
#65 = SURFACE_STYLE_FILL_AREA ( #243 ) ;
#66 = CARTESIAN_POINT ( 'NONE',  ( 0.0000000000000000000, 0.0000000000000000000, 0.0000000000000000000 ) ) ;
#67 = EDGE_CURVE ( 'NONE', #267, #192, #167, .T. ) ;
#68 = FACE_OUTER_BOUND ( 'NONE', #51, .T. ) ;
#69 = CIRCLE ( 'NONE', #224, 18.00000000000000400 ) ;
#70 = DIRECTION ( 'NONE',  ( -1.000000000000000000, -0.0000000000000000000, -0.0000000000000000000 ) ) ;
#71 = ORIENTED_EDGE ( 'NONE', *, *, #149, .T. ) ;
#72 = PRODUCT_DEFINITION_FORMATION_WITH_SPECIFIED_SOURCE ( 'ANY', '', #253, .NOT_KNOWN. ) ;
#73 = CARTESIAN_POINT ( 'NONE',  ( 2.499999999999999600, 0.0000000000000000000, 0.0000000000000000000 ) ) ;
#74 = DIRECTION ( 'NONE',  ( 0.0000000000000000000, 0.0000000000000000000, 1.000000000000000000 ) ) ;
#75 = EDGE_CURVE ( 'NONE', #291, #258, #250, .T. ) ;
#76 = DIRECTION ( 'NONE',  ( 0.0000000000000000000, 0.0000000000000000000, -1.000000000000000000 ) ) ;
#77 = DIRECTION ( 'NONE',  ( 0.0000000000000000000, 0.0000000000000000000, -1.000000000000000000 ) ) ;
#78 = ORIENTED_EDGE ( 'NONE', *, *, #82, .T. ) ;
#79 = PRESENTATION_STYLE_ASSIGNMENT (( #85 ) ) ;
#80 = CYLINDRICAL_SURFACE ( 'NONE', #240, 18.00000000000000400 ) ;
#81 = CARTESIAN_POINT ( 'NONE',  ( 2.499999999999999100, 0.0000000000000000000, 23.00000000000000000 ) ) ;
#82 = EDGE_CURVE ( 'NONE', #230, #192, #84, .T. ) ;
#83 = VERTEX_POINT ( 'NONE', #196 ) ;
#84 = CIRCLE ( 'NONE', #24, 23.00000000000000000 ) ;
#85 = SURFACE_STYLE_USAGE ( .BOTH. , #293 ) ;
#86 = ADVANCED_FACE ( 'NONE', ( #111 ), #198, .T. ) ;
#87 = PRODUCT_CONTEXT ( 'NONE', #59, 'mechanical' ) ;
#88 = ORIENTED_EDGE ( 'NONE', *, *, #36, .T. ) ;
#89 = ORIENTED_EDGE ( 'NONE', *, *, #191, .F. ) ;
#90 = ADVANCED_FACE ( 'NONE', ( #122 ), #327, .T. ) ;
#91 = PRESENTATION_LAYER_ASSIGNMENT (  '', '', ( #251 ) ) ;
#92 = DIRECTION ( 'NONE',  ( -1.000000000000000000, -0.0000000000000000000, -0.0000000000000000000 ) ) ;
#93 = ORIENTED_EDGE ( 'NONE', *, *, #339, .F. ) ;
#94 = CIRCLE ( 'NONE', #229, 2.499999999999998700 ) ;
#95 = AXIS2_PLACEMENT_3D ( 'NONE', #21, #70, #47 ) ;
#96 = CIRCLE ( 'NONE', #127, 23.00000000000000000 ) ;
#97 = DIRECTION ( 'NONE',  ( -1.000000000000000000, -0.0000000000000000000, -0.0000000000000000000 ) ) ;
#98 = ORIENTED_EDGE ( 'NONE', *, *, #49, .T. ) ;
#99 = CARTESIAN_POINT ( 'NONE',  ( 0.0000000000000000000, 0.0000000000000000000, 0.0000000000000000000 ) ) ;
#100 = EDGE_CURVE ( 'NONE', #83, #61, #262, .T. ) ;
#101 = FACE_OUTER_BOUND ( 'NONE', #117, .T. ) ;
#102 = AXIS2_PLACEMENT_3D ( 'NONE', #120, #332, #165 ) ;
#103 = CLOSED_SHELL ( 'NONE', ( #86, #90, #185, #189, #37, #157, #160, #161, #248, #63, #297 ) ) ;
#104 = SURFACE_SIDE_STYLE ('',( #130 ) ) ;
#105 = TOROIDAL_SURFACE ( 'NONE', #163, 18.10000000000000100, 0.1000000000000000100 ) ;
#106 = VERTEX_POINT ( 'NONE', #303 ) ;
#107 =( LENGTH_UNIT ( ) NAMED_UNIT ( * ) SI_UNIT ( .MILLI., .METRE. ) );
#108 = DIRECTION ( 'NONE',  ( 0.0000000000000000000, 0.0000000000000000000, 1.000000000000000000 ) ) ;
#109 = AXIS2_PLACEMENT_3D ( 'NONE', #56, #235, #76 ) ;
#110 = ORIENTED_EDGE ( 'NONE', *, *, #328, .T. ) ;
#111 = FACE_OUTER_BOUND ( 'NONE', #64, .T. ) ;
#112 = AXIS2_PLACEMENT_3D ( 'NONE', #276, #44, #302 ) ;
#113 =( NAMED_UNIT ( * ) PLANE_ANGLE_UNIT ( ) SI_UNIT ( $, .RADIAN. ) );
#114 = DIRECTION ( 'NONE',  ( 0.0000000000000000000, 0.0000000000000000000, -1.000000000000000000 ) ) ;
#115 = EDGE_LOOP ( 'NONE', ( #121, #110, #98, #78 ) ) ;
#116 = CARTESIAN_POINT ( 'NONE',  ( 0.0000000000000000000, 0.0000000000000000000, 0.0000000000000000000 ) ) ;
#117 = EDGE_LOOP ( 'NONE', ( #133, #169, #13, #288 ) ) ;
#118 = EDGE_CURVE ( 'NONE', #219, #61, #193, .T. ) ;
#119 = AXIS2_PLACEMENT_3D ( 'NONE', #256, #48, #311 ) ;
#120 = CARTESIAN_POINT ( 'NONE',  ( 0.1000000000000000100, 0.0000000000000000000, 0.0000000000000000000 ) ) ;
#121 = ORIENTED_EDGE ( 'NONE', *, *, #67, .F. ) ;
#122 = FACE_OUTER_BOUND ( 'NONE', #158, .T. ) ;
#123 = DIRECTION ( 'NONE',  ( -1.000000000000000000, -0.0000000000000000000, -0.0000000000000000000 ) ) ;
#124 = EDGE_LOOP ( 'NONE', ( #146, #221 ) ) ;
#125 =( GEOMETRIC_REPRESENTATION_CONTEXT ( 3 ) GLOBAL_UNCERTAINTY_ASSIGNED_CONTEXT ( ( #307 ) ) GLOBAL_UNIT_ASSIGNED_CONTEXT ( ( #241, #113, #268 ) ) REPRESENTATION_CONTEXT ( 'NONE', 'WORKASPACE' ) );
#126 = DIRECTION ( 'NONE',  ( 0.0000000000000000000, 0.0000000000000000000, -1.000000000000000000 ) ) ;
#127 = AXIS2_PLACEMENT_3D ( 'NONE', #216, #320, #2 ) ;
#128 = CARTESIAN_POINT ( 'NONE',  ( 2.499999999999999600, 0.0000000000000000000, 0.0000000000000000000 ) ) ;
#129 = EDGE_LOOP ( 'NONE', ( #273, #88, #249, #22 ) ) ;
#130 = SURFACE_STYLE_FILL_AREA ( #132 ) ;
#131 = CIRCLE ( 'NONE', #202, 0.09999999999999939500 ) ;
#132 = FILL_AREA_STYLE ('',( #228 ) ) ;
#133 = ORIENTED_EDGE ( 'NONE', *, *, #170, .T. ) ;
#134 = ORIENTED_EDGE ( 'NONE', *, *, #100, .F. ) ;
#135 = AXIS2_PLACEMENT_3D ( 'NONE', #289, #319, #152 ) ;
#136 = DIRECTION ( 'NONE',  ( 0.0000000000000000000, 1.000000000000000000, -1.224646799147353200E-016 ) ) ;
#137 = AXIS2_PLACEMENT_3D ( 'NONE', #204, #176, #114 ) ;
#138 = FACE_OUTER_BOUND ( 'NONE', #226, .T. ) ;
#139 = EDGE_CURVE ( 'NONE', #61, #83, #14, .T. ) ;
#140 = VECTOR ( 'NONE', #40, 1000.000000000000000 ) ;
#141 = CARTESIAN_POINT ( 'NONE',  ( 0.0000000000000000000, 2.204364238465235800E-015, -18.00000000000000400 ) ) ;
#142 = COLOUR_RGB ( '',1.000000000000000000, 0.0000000000000000000, 0.0000000000000000000 ) ;
#143 = AXIS2_PLACEMENT_3D ( 'NONE', #266, #7, #154 ) ;
#144 = CARTESIAN_POINT ( 'NONE',  ( 0.0000000000000000000, 0.0000000000000000000, -18.10000000000000100 ) ) ;
#145 = MANIFOLD_SOLID_BREP ( 'Verrundung1', #103 ) ;
#146 = ORIENTED_EDGE ( 'NONE', *, *, #139, .T. ) ;
#147 = DIRECTION ( 'NONE',  ( 0.0000000000000000000, 0.0000000000000000000, -1.000000000000000000 ) ) ;
#148 = STYLED_ITEM ( 'NONE', ( #285 ), #145 ) ;
#149 = EDGE_CURVE ( 'NONE', #192, #230, #52, .T. ) ;
#150 = ORIENTED_EDGE ( 'NONE', *, *, #82, .F. ) ;
#151 = ORIENTED_EDGE ( 'NONE', *, *, #242, .T. ) ;
#152 = DIRECTION ( 'NONE',  ( 0.0000000000000000000, 0.0000000000000000000, -1.000000000000000000 ) ) ;
#153 = FACE_BOUND ( 'NONE', #124, .T. ) ;
#154 = DIRECTION ( 'NONE',  ( 0.0000000000000000000, 0.0000000000000000000, -1.000000000000000000 ) ) ;
#155 =( GEOMETRIC_REPRESENTATION_CONTEXT ( 3 ) GLOBAL_UNCERTAINTY_ASSIGNED_CONTEXT ( ( #270 ) ) GLOBAL_UNIT_ASSIGNED_CONTEXT ( ( #156, #318, #38 ) ) REPRESENTATION_CONTEXT ( 'NONE', 'WORKASPACE' ) );
#156 =( LENGTH_UNIT ( ) NAMED_UNIT ( * ) SI_UNIT ( .MILLI., .METRE. ) );
#157 = ADVANCED_FACE ( 'NONE', ( #138 ), #277, .F. ) ;
#158 = EDGE_LOOP ( 'NONE', ( #331, #233, #58, #213 ) ) ;
#159 = VECTOR ( 'NONE', #15, 1000.000000000000000 ) ;
#160 = ADVANCED_FACE ( 'NONE', ( #68, #153 ), #275, .F. ) ;
#161 = ADVANCED_FACE ( 'NONE', ( #254 ), #35, .T. ) ;
#162 = CARTESIAN_POINT ( 'NONE',  ( 0.1000000000000000100, 2.804441170047439000E-015, 22.89999999999999900 ) ) ;
#163 = AXIS2_PLACEMENT_3D ( 'NONE', #316, #62, #187 ) ;
#164 = AXIS2_PLACEMENT_3D ( 'NONE', #223, #283, #340 ) ;
#165 = DIRECTION ( 'NONE',  ( 0.0000000000000000000, 0.0000000000000000000, -1.000000000000000000 ) ) ;
#166 = EDGE_LOOP ( 'NONE', ( #301, #326, #151, #150 ) ) ;
#167 = LINE ( 'NONE', #168, #306 ) ;
#168 = CARTESIAN_POINT ( 'NONE',  ( 0.0000000000000000000, 2.816687638038912400E-015, -23.00000000000000000 ) ) ;
#169 = ORIENTED_EDGE ( 'NONE', *, *, #191, .T. ) ;
#170 = EDGE_CURVE ( 'NONE', #106, #190, #43, .T. ) ;
#171 = AXIS2_PLACEMENT_3D ( 'NONE', #183, #180, #212 ) ;
#172 = CARTESIAN_POINT ( 'NONE',  ( 2.500000000000000000, 0.0000000000000000000, 0.0000000000000000000 ) ) ;
#173 = DIRECTION ( 'NONE',  ( 0.0000000000000000000, 0.0000000000000000000, 1.000000000000000000 ) ) ;
#174 =( NAMED_UNIT ( * ) PLANE_ANGLE_UNIT ( ) SI_UNIT ( $, .RADIAN. ) );
#175 = CARTESIAN_POINT ( 'NONE',  ( 0.1000000000000000100, 2.204364238465235800E-015, -18.00000000000000400 ) ) ;
#176 = DIRECTION ( 'NONE',  ( 1.000000000000000000, 0.0000000000000000000, 0.0000000000000000000 ) ) ;
#177 = CARTESIAN_POINT ( 'NONE',  ( 2.499999999999999600, 2.510525938252074500E-015, -20.50000000000000000 ) ) ;
#178 = PRODUCT_RELATED_PRODUCT_CATEGORY ( 'part', '', ( #253 ) ) ;
#179 = DIRECTION ( 'NONE',  ( -1.000000000000000000, -0.0000000000000000000, -0.0000000000000000000 ) ) ;
#180 = DIRECTION ( 'NONE',  ( 0.0000000000000000000, 0.0000000000000000000, 1.000000000000000000 ) ) ;
#181 = EDGE_CURVE ( 'NONE', #190, #106, #257, .T. ) ;
#182 = AXIS2_PLACEMENT_3D ( 'NONE', #338, #335, #231 ) ;
#183 = CARTESIAN_POINT ( 'NONE',  ( 0.0000000000000000000, 0.0000000000000000000, 0.0000000000000000000 ) ) ;
#184 = CYLINDRICAL_SURFACE ( 'NONE', #95, 23.00000000000000000 ) ;
#185 = ADVANCED_FACE ( 'NONE', ( #101 ), #292, .T. ) ;
#186 = ORIENTED_EDGE ( 'NONE', *, *, #36, .F. ) ;
#187 = DIRECTION ( 'NONE',  ( 0.0000000000000000000, 0.0000000000000000000, -1.000000000000000000 ) ) ;
#188 = PRODUCT_DEFINITION_SHAPE ( 'NONE', 'NONE',  #337 ) ;
#189 = ADVANCED_FACE ( 'NONE', ( #39 ), #184, .T. ) ;
#190 = VERTEX_POINT ( 'NONE', #287 ) ;
#191 = EDGE_CURVE ( 'NONE', #190, #267, #94, .T. ) ;
#192 = VERTEX_POINT ( 'NONE', #205 ) ;
#193 = CIRCLE ( 'NONE', #109, 0.09999999999999939500 ) ;
#194 = DIRECTION ( 'NONE',  ( 0.0000000000000000000, 1.224646799147373400E-016, 1.000000000000000000 ) ) ;
#195 = AXIS2_PLACEMENT_3D ( 'NONE', #73, #309, #173 ) ;
#196 = CARTESIAN_POINT ( 'NONE',  ( 0.0000000000000000000, 2.216610706456710000E-015, 18.10000000000000100 ) ) ;
#197 = ORIENTED_EDGE ( 'NONE', *, *, #274, .T. ) ;
#198 = TOROIDAL_SURFACE ( 'NONE', #119, 18.10000000000000100, 0.1000000000000000100 ) ;
#199 = CARTESIAN_POINT ( 'NONE',  ( 0.0000000000000000000, 0.0000000000000000000, 23.00000000000000000 ) ) ;
#200 = LINE ( 'NONE', #141, #334 ) ;
#201 = VERTEX_POINT ( 'NONE', #210 ) ;
#202 = AXIS2_PLACEMENT_3D ( 'NONE', #162, #10, #194 ) ;
#203 = AXIS2_PLACEMENT_3D ( 'NONE', #247, #136, #215 ) ;
#204 = CARTESIAN_POINT ( 'NONE',  ( 0.1000000000000000100, 0.0000000000000000000, 0.0000000000000000000 ) ) ;
#205 = CARTESIAN_POINT ( 'NONE',  ( 0.1000000000000000100, 2.816687638038912400E-015, -23.00000000000000000 ) ) ;
#206 = CARTESIAN_POINT ( 'NONE',  ( 0.1000000000000000100, 0.0000000000000000000, -22.89999999999999900 ) ) ;
#207 = DIRECTION ( 'NONE',  ( 1.000000000000000000, 0.0000000000000000000, 0.0000000000000000000 ) ) ;
#208 = DIRECTION ( 'NONE',  ( 0.0000000000000000000, 0.0000000000000000000, 1.000000000000000000 ) ) ;
#209 = ORIENTED_EDGE ( 'NONE', *, *, #118, .T. ) ;
#210 = CARTESIAN_POINT ( 'NONE',  ( 0.1000000000000000100, 0.0000000000000000000, 18.00000000000000400 ) ) ;
#211 = MECHANICAL_DESIGN_GEOMETRIC_PRESENTATION_REPRESENTATION (  '', ( #148 ), #41 ) ;
#212 = DIRECTION ( 'NONE',  ( 1.000000000000000000, 0.0000000000000000000, 0.0000000000000000000 ) ) ;
#213 = ORIENTED_EDGE ( 'NONE', *, *, #242, .F. ) ;
#214 = FACE_OUTER_BOUND ( 'NONE', #8, .T. ) ;
#215 = DIRECTION ( 'NONE',  ( 0.0000000000000000000, 1.224646799147373400E-016, 1.000000000000000000 ) ) ;
#216 = CARTESIAN_POINT ( 'NONE',  ( 2.499999999999999100, 0.0000000000000000000, 0.0000000000000000000 ) ) ;
#217 = LINE ( 'NONE', #299, #140 ) ;
#218 = PRODUCT_DEFINITION_CONTEXT ( 'detailed design', #295, 'design' ) ;
#219 = VERTEX_POINT ( 'NONE', #175 ) ;
#220 = AXIS2_PLACEMENT_3D ( 'NONE', #263, #34, #55 ) ;
#221 = ORIENTED_EDGE ( 'NONE', *, *, #100, .T. ) ;
#222 = CIRCLE ( 'NONE', #135, 2.499999999999998700 ) ;
#223 = CARTESIAN_POINT ( 'NONE',  ( 0.0000000000000000000, 18.00000000000000000, 0.0000000000000000000 ) ) ;
#224 = AXIS2_PLACEMENT_3D ( 'NONE', #325, #92, #147 ) ;
#225 = DIRECTION ( 'NONE',  ( 1.000000000000000000, 0.0000000000000000000, 0.0000000000000000000 ) ) ;
#226 = EDGE_LOOP ( 'NONE', ( #186, #42, #245, #284 ) ) ;
#227 = DIRECTION ( 'NONE',  ( 0.0000000000000000000, 0.0000000000000000000, -1.000000000000000000 ) ) ;
#228 = FILL_AREA_STYLE_COLOUR ( '', #142 ) ;
#229 = AXIS2_PLACEMENT_3D ( 'NONE', #177, #57, #232 ) ;
#230 = VERTEX_POINT ( 'NONE', #237 ) ;
#231 = DIRECTION ( 'NONE',  ( 0.0000000000000000000, 0.0000000000000000000, 1.000000000000000000 ) ) ;
#232 = DIRECTION ( 'NONE',  ( 0.0000000000000000000, -1.224646799147354200E-016, 1.000000000000000000 ) ) ;
#233 = ORIENTED_EDGE ( 'NONE', *, *, #6, .T. ) ;
#234 = FACE_OUTER_BOUND ( 'NONE', #129, .T. ) ;
#235 = DIRECTION ( 'NONE',  ( 0.0000000000000000000, -1.000000000000000000, 0.0000000000000000000 ) ) ;
#236 = CARTESIAN_POINT ( 'NONE',  ( 0.1000000000000000100, 0.0000000000000000000, 0.0000000000000000000 ) ) ;
#237 = CARTESIAN_POINT ( 'NONE',  ( 0.1000000000000000100, 0.0000000000000000000, 23.00000000000000000 ) ) ;
#238 = COLOUR_RGB ( '',1.000000000000000000, 0.0000000000000000000, 0.0000000000000000000 ) ;
#239 = CARTESIAN_POINT ( 'NONE',  ( 0.0000000000000000000, 2.810564404043175700E-015, 22.89999999999999900 ) ) ;
#240 = AXIS2_PLACEMENT_3D ( 'NONE', #116, #17, #252 ) ;
#241 =( LENGTH_UNIT ( ) NAMED_UNIT ( * ) SI_UNIT ( .MILLI., .METRE. ) );
#242 = EDGE_CURVE ( 'NONE', #291, #192, #23, .T. ) ;
#243 = FILL_AREA_STYLE ('',( #264 ) ) ;
#244 = APPLICATION_PROTOCOL_DEFINITION ( 'draft international standard', 'automotive_design', 1998, #59 ) ;
#245 = ORIENTED_EDGE ( 'NONE', *, *, #3, .T. ) ;
#246 = ORIENTED_EDGE ( 'NONE', *, *, #75, .T. ) ;
#247 = CARTESIAN_POINT ( 'NONE',  ( 0.1000000000000000100, 2.216610706456709600E-015, 18.10000000000000100 ) ) ;
#248 = ADVANCED_FACE ( 'NONE', ( #214 ), #314, .T. ) ;
#249 = ORIENTED_EDGE ( 'NONE', *, *, #18, .T. ) ;
#250 = CIRCLE ( 'NONE', #290, 22.89999999999999900 ) ;
#251 = STYLED_ITEM ( 'NONE', ( #79 ), #31 ) ;
#252 = DIRECTION ( 'NONE',  ( 0.0000000000000000000, 0.0000000000000000000, 1.000000000000000000 ) ) ;
#253 = PRODUCT ( 'GL-211-032-x Dichtung G32-x heco', 'GL-211-032-x Dichtung G32-x heco', '', ( #87 ) ) ;
#254 = FACE_OUTER_BOUND ( 'NONE', #115, .T. ) ;
#255 = VERTEX_POINT ( 'NONE', #81 ) ;
#256 = CARTESIAN_POINT ( 'NONE',  ( 0.1000000000000000100, 0.0000000000000000000, 0.0000000000000000000 ) ) ;
#257 = CIRCLE ( 'NONE', #11, 18.00000000000000400 ) ;
#258 = VERTEX_POINT ( 'NONE', #239 ) ;
#259 = CIRCLE ( 'NONE', #203, 0.09999999999999939500 ) ;
#260 =( NAMED_UNIT ( * ) SI_UNIT ( $, .STERADIAN. ) SOLID_ANGLE_UNIT ( ) );
#261 = ORIENTED_EDGE ( 'NONE', *, *, #1, .T. ) ;
#262 = CIRCLE ( 'NONE', #265, 18.10000000000000100 ) ;
#263 = CARTESIAN_POINT ( 'NONE',  ( 0.0000000000000000000, 0.0000000000000000000, 0.0000000000000000000 ) ) ;
#264 = FILL_AREA_STYLE_COLOUR ( '', #238 ) ;
#265 = AXIS2_PLACEMENT_3D ( 'NONE', #28, #207, #26 ) ;
#266 = CARTESIAN_POINT ( 'NONE',  ( 0.1000000000000000100, 0.0000000000000000000, 0.0000000000000000000 ) ) ;
#267 = VERTEX_POINT ( 'NONE', #33 ) ;
#268 =( NAMED_UNIT ( * ) SI_UNIT ( $, .STERADIAN. ) SOLID_ANGLE_UNIT ( ) );
#269 = FACE_OUTER_BOUND ( 'NONE', #166, .T. ) ;
#270 = UNCERTAINTY_MEASURE_WITH_UNIT (LENGTH_MEASURE( 1.000000000000000100E-005 ), #156, 'distance_accuracy_value', 'NONE');
#271 = DIRECTION ( 'NONE',  ( -1.000000000000000000, -0.0000000000000000000, -0.0000000000000000000 ) ) ;
#272 = ORIENTED_EDGE ( 'NONE', *, *, #139, .F. ) ;
#273 = ORIENTED_EDGE ( 'NONE', *, *, #181, .F. ) ;
#274 = EDGE_CURVE ( 'NONE', #106, #255, #222, .T. ) ;
#275 = PLANE ( 'NONE',  #164 ) ;
#276 = CARTESIAN_POINT ( 'NONE',  ( 2.499999999999999100, 0.0000000000000000000, 0.0000000000000000000 ) ) ;
#277 = CYLINDRICAL_SURFACE ( 'NONE', #60, 18.00000000000000400 ) ;
#278 = ORIENTED_EDGE ( 'NONE', *, *, #49, .F. ) ;
#279 = CARTESIAN_POINT ( 'NONE',  ( 0.0000000000000000000, 0.0000000000000000000, 0.0000000000000000000 ) ) ;
#280 = CARTESIAN_POINT ( 'NONE',  ( 0.1000000000000000100, 0.0000000000000000000, 0.0000000000000000000 ) ) ;
#281 = AXIS2_PLACEMENT_3D ( 'NONE', #66, #271, #12 ) ;
#282 = DIRECTION ( 'NONE',  ( 1.000000000000000000, 0.0000000000000000000, 0.0000000000000000000 ) ) ;
#283 = DIRECTION ( 'NONE',  ( 1.000000000000000000, 0.0000000000000000000, 0.0000000000000000000 ) ) ;
#284 = ORIENTED_EDGE ( 'NONE', *, *, #339, .T. ) ;
#285 = PRESENTATION_STYLE_ASSIGNMENT (( #286 ) ) ;
#286 = SURFACE_STYLE_USAGE ( .BOTH. , #104 ) ;
#287 = CARTESIAN_POINT ( 'NONE',  ( 2.500000000000000000, 2.204364238465235800E-015, -18.00000000000000400 ) ) ;
#288 = ORIENTED_EDGE ( 'NONE', *, *, #274, .F. ) ;
#289 = CARTESIAN_POINT ( 'NONE',  ( 2.499999999999999600, 0.0000000000000000000, 20.50000000000000000 ) ) ;
#290 = AXIS2_PLACEMENT_3D ( 'NONE', #279, #308, #20 ) ;
#291 = VERTEX_POINT ( 'NONE', #29 ) ;
#292 = TOROIDAL_SURFACE ( 'NONE', #195, 20.50000000000000000, 2.500000000000000400 ) ;
#293 = SURFACE_SIDE_STYLE ('',( #65 ) ) ;
#294 = EDGE_CURVE ( 'NONE', #201, #83, #259, .T. ) ;
#295 = APPLICATION_CONTEXT ( 'automotive_design' ) ;
#296 = ORIENTED_EDGE ( 'NONE', *, *, #118, .F. ) ;
#297 = ADVANCED_FACE ( 'NONE', ( #5 ), #105, .T. ) ;
#298 = ORIENTED_EDGE ( 'NONE', *, *, #67, .T. ) ;
#299 = CARTESIAN_POINT ( 'NONE',  ( 0.0000000000000000000, 0.0000000000000000000, 18.00000000000000400 ) ) ;
#300 = MECHANICAL_DESIGN_GEOMETRIC_PRESENTATION_REPRESENTATION (  '', ( #251 ), #125 ) ;
#301 = ORIENTED_EDGE ( 'NONE', *, *, #6, .F. ) ;
#302 = DIRECTION ( 'NONE',  ( 0.0000000000000000000, 0.0000000000000000000, 1.000000000000000000 ) ) ;
#303 = CARTESIAN_POINT ( 'NONE',  ( 2.500000000000000000, 0.0000000000000000000, 18.00000000000000400 ) ) ;
#304 = SHAPE_DEFINITION_REPRESENTATION ( #188, #31 ) ;
#305 = ORIENTED_EDGE ( 'NONE', *, *, #46, .T. ) ;
#306 = VECTOR ( 'NONE', #97, 1000.000000000000000 ) ;
#307 = UNCERTAINTY_MEASURE_WITH_UNIT (LENGTH_MEASURE( 1.000000000000000100E-005 ), #241, 'distance_accuracy_value', 'NONE');
#308 = DIRECTION ( 'NONE',  ( -1.000000000000000000, -0.0000000000000000000, -0.0000000000000000000 ) ) ;
#309 = DIRECTION ( 'NONE',  ( -1.000000000000000000, -0.0000000000000000000, -0.0000000000000000000 ) ) ;
#310 = AXIS2_PLACEMENT_3D ( 'NONE', #99, #123, #25 ) ;
#311 = DIRECTION ( 'NONE',  ( 0.0000000000000000000, 0.0000000000000000000, -1.000000000000000000 ) ) ;
#312 = AXIS2_PLACEMENT_3D ( 'NONE', #128, #50, #208 ) ;
#313 = ORIENTED_EDGE ( 'NONE', *, *, #181, .T. ) ;
#314 = TOROIDAL_SURFACE ( 'NONE', #312, 20.50000000000000000, 2.500000000000000400 ) ;
#315 = CARTESIAN_POINT ( 'NONE',  ( 0.0000000000000000000, 0.0000000000000000000, 0.0000000000000000000 ) ) ;
#316 = CARTESIAN_POINT ( 'NONE',  ( 0.1000000000000000100, 0.0000000000000000000, 0.0000000000000000000 ) ) ;
#317 = TOROIDAL_SURFACE ( 'NONE', #102, 22.89999999999999900, 0.1000000000000000100 ) ;
#318 =( NAMED_UNIT ( * ) PLANE_ANGLE_UNIT ( ) SI_UNIT ( $, .RADIAN. ) );
#319 = DIRECTION ( 'NONE',  ( 0.0000000000000000000, -1.000000000000000000, 0.0000000000000000000 ) ) ;
#320 = DIRECTION ( 'NONE',  ( -1.000000000000000000, -0.0000000000000000000, -0.0000000000000000000 ) ) ;
#321 = EDGE_LOOP ( 'NONE', ( #305, #298, #71, #278 ) ) ;
#322 = CIRCLE ( 'NONE', #143, 18.00000000000000400 ) ;
#323 = EDGE_LOOP ( 'NONE', ( #4, #336, #209, #134 ) ) ;
#324 = APPLICATION_PROTOCOL_DEFINITION ( 'draft international standard', 'automotive_design', 1998, #295 ) ;
#325 = CARTESIAN_POINT ( 'NONE',  ( 0.1000000000000000100, 0.0000000000000000000, 0.0000000000000000000 ) ) ;
#326 = ORIENTED_EDGE ( 'NONE', *, *, #75, .F. ) ;
#327 = TOROIDAL_SURFACE ( 'NONE', #137, 22.89999999999999900, 0.1000000000000000100 ) ;
#328 = EDGE_CURVE ( 'NONE', #267, #255, #96, .T. ) ;
#329 = DIRECTION ( 'NONE',  ( -1.000000000000000000, -0.0000000000000000000, -0.0000000000000000000 ) ) ;
#330 = AXIS2_PLACEMENT_3D ( 'NONE', #206, #54, #77 ) ;
#331 = ORIENTED_EDGE ( 'NONE', *, *, #1, .F. ) ;
#332 = DIRECTION ( 'NONE',  ( 1.000000000000000000, 0.0000000000000000000, 0.0000000000000000000 ) ) ;
#333 = ORIENTED_EDGE ( 'NONE', *, *, #294, .T. ) ;
#334 = VECTOR ( 'NONE', #329, 1000.000000000000000 ) ;
#335 = DIRECTION ( 'NONE',  ( -1.000000000000000000, -0.0000000000000000000, -0.0000000000000000000 ) ) ;
#336 = ORIENTED_EDGE ( 'NONE', *, *, #18, .F. ) ;
#337 = PRODUCT_DEFINITION ( 'UNKNOWN', '', #72, #218 ) ;
#338 = CARTESIAN_POINT ( 'NONE',  ( 2.500000000000000000, 0.0000000000000000000, 0.0000000000000000000 ) ) ;
#339 = EDGE_CURVE ( 'NONE', #201, #219, #322, .T. ) ;
#340 = DIRECTION ( 'NONE',  ( 0.0000000000000000000, 0.0000000000000000000, -1.000000000000000000 ) ) ;
ENDSEC;
END-ISO-10303-21;
