ISO-10303-21;
HEADER;
FILE_DESCRIPTION (( 'STEP AP214' ),
    '1' );
FILE_NAME ('GL-211-040-x Dichtung G40-x heco.STEP',
    '2017-09-01T09:40:28',
    ( '' ),
    ( '' ),
    'SwSTEP 2.0',
    'SolidWorks 2016',
    '' );
FILE_SCHEMA (( 'AUTOMOTIVE_DESIGN' ));
ENDSEC;

DATA;
#1 = DIRECTION ( 'NONE',  ( 1.000000000000000000, 0.0000000000000000000, 0.0000000000000000000 ) ) ;
#2 = CIRCLE ( 'NONE', #331, 2.499999999999998700 ) ;
#3 = ORIENTED_EDGE ( 'NONE', *, *, #68, .T. ) ;
#4 = DIRECTION ( 'NONE',  ( -1.000000000000000000, -0.0000000000000000000, -0.0000000000000000000 ) ) ;
#5 = DIRECTION ( 'NONE',  ( 0.0000000000000000000, 0.0000000000000000000, -1.000000000000000000 ) ) ;
#6 = ADVANCED_FACE ( 'NONE', ( #45 ), #271, .F. ) ;
#7 = FACE_OUTER_BOUND ( 'NONE', #43, .T. ) ;
#8 = FACE_OUTER_BOUND ( 'NONE', #149, .T. ) ;
#9 = CARTESIAN_POINT ( 'NONE',  ( 0.0000000000000000000, 0.0000000000000000000, 0.0000000000000000000 ) ) ;
#10 = ADVANCED_FACE ( 'NONE', ( #225 ), #240, .F. ) ;
#11 = MECHANICAL_DESIGN_GEOMETRIC_PRESENTATION_REPRESENTATION (  '', ( #254 ), #139 ) ;
#12 = CIRCLE ( 'NONE', #310, 21.00000000000000400 ) ;
#13 =( GEOMETRIC_REPRESENTATION_CONTEXT ( 3 ) GLOBAL_UNCERTAINTY_ASSIGNED_CONTEXT ( ( #306 ) ) GLOBAL_UNIT_ASSIGNED_CONTEXT ( ( #27, #242, #29 ) ) REPRESENTATION_CONTEXT ( 'NONE', 'WORKASPACE' ) );
#14 = LINE ( 'NONE', #309, #117 ) ;
#15 = EDGE_CURVE ( 'NONE', #120, #246, #166, .T. ) ;
#16 = PRODUCT_DEFINITION_CONTEXT ( 'detailed design', #326, 'design' ) ;
#17 = EDGE_CURVE ( 'NONE', #97, #209, #308, .T. ) ;
#18 = ORIENTED_EDGE ( 'NONE', *, *, #164, .F. ) ;
#19 = CARTESIAN_POINT ( 'NONE',  ( 2.499999999999998200, 0.0000000000000000000, 0.0000000000000000000 ) ) ;
#20 = AXIS2_PLACEMENT_3D ( 'NONE', #100, #161, #74 ) ;
#21 = DIRECTION ( 'NONE',  ( -1.000000000000000000, -0.0000000000000000000, -0.0000000000000000000 ) ) ;
#22 = CARTESIAN_POINT ( 'NONE',  ( 0.0000000000000000000, 0.0000000000000000000, 26.00000000000000400 ) ) ;
#23 = FACE_OUTER_BOUND ( 'NONE', #223, .T. ) ;
#24 = CIRCLE ( 'NONE', #185, 21.00000000000000400 ) ;
#25 = DIRECTION ( 'NONE',  ( 1.000000000000000000, 0.0000000000000000000, 0.0000000000000000000 ) ) ;
#26 = CARTESIAN_POINT ( 'NONE',  ( 0.1000000000000000100, 0.0000000000000000000, 0.0000000000000000000 ) ) ;
#27 =( LENGTH_UNIT ( ) NAMED_UNIT ( * ) SI_UNIT ( .MILLI., .METRE. ) );
#28 = AXIS2_PLACEMENT_3D ( 'NONE', #169, #290, #218 ) ;
#29 =( NAMED_UNIT ( * ) SI_UNIT ( $, .STERADIAN. ) SOLID_ANGLE_UNIT ( ) );
#30 = ORIENTED_EDGE ( 'NONE', *, *, #38, .F. ) ;
#31 = PRODUCT_DEFINITION ( 'UNKNOWN', '', #143, #16 ) ;
#32 = EDGE_LOOP ( 'NONE', ( #91, #304, #231, #30 ) ) ;
#33 = ORIENTED_EDGE ( 'NONE', *, *, #286, .T. ) ;
#34 = CARTESIAN_POINT ( 'NONE',  ( 0.0000000000000000000, 2.584004746200915400E-015, 21.10000000000000500 ) ) ;
#35 = DIRECTION ( 'NONE',  ( 0.0000000000000000000, 0.0000000000000000000, -1.000000000000000000 ) ) ;
#36 = SURFACE_STYLE_USAGE ( .BOTH. , #115 ) ;
#37 = CIRCLE ( 'NONE', #66, 26.00000000000000400 ) ;
#38 = EDGE_CURVE ( 'NONE', #181, #86, #236, .T. ) ;
#39 =( LENGTH_UNIT ( ) NAMED_UNIT ( * ) SI_UNIT ( .MILLI., .METRE. ) );
#40 = CYLINDRICAL_SURFACE ( 'NONE', #293, 26.00000000000000400 ) ;
#41 = ORIENTED_EDGE ( 'NONE', *, *, #17, .F. ) ;
#42 = ORIENTED_EDGE ( 'NONE', *, *, #52, .T. ) ;
#43 = EDGE_LOOP ( 'NONE', ( #255, #41, #298, #195 ) ) ;
#44 = DIRECTION ( 'NONE',  ( 0.0000000000000000000, 0.0000000000000000000, 1.000000000000000000 ) ) ;
#45 = FACE_OUTER_BOUND ( 'NONE', #241, .T. ) ;
#46 = DIRECTION ( 'NONE',  ( -1.000000000000000000, -0.0000000000000000000, -0.0000000000000000000 ) ) ;
#47 = CIRCLE ( 'NONE', #284, 21.00000000000000400 ) ;
#48 = ORIENTED_EDGE ( 'NONE', *, *, #325, .F. ) ;
#49 = AXIS2_PLACEMENT_3D ( 'NONE', #272, #224, #5 ) ;
#50 = ORIENTED_EDGE ( 'NONE', *, *, #221, .T. ) ;
#51 = CARTESIAN_POINT ( 'NONE',  ( 0.0000000000000000000, 0.0000000000000000000, 21.00000000000000400 ) ) ;
#52 = EDGE_CURVE ( 'NONE', #313, #246, #82, .T. ) ;
#53 = DIRECTION ( 'NONE',  ( -1.000000000000000000, -0.0000000000000000000, -0.0000000000000000000 ) ) ;
#54 = DIRECTION ( 'NONE',  ( 0.0000000000000000000, 0.0000000000000000000, 1.000000000000000000 ) ) ;
#55 = AXIS2_PLACEMENT_3D ( 'NONE', #109, #1, #140 ) ;
#56 = CARTESIAN_POINT ( 'NONE',  ( 0.1000000000000000100, 0.0000000000000000000, 0.0000000000000000000 ) ) ;
#57 = TOROIDAL_SURFACE ( 'NONE', #141, 23.50000000000000400, 2.500000000000000400 ) ;
#58 = DIRECTION ( 'NONE',  ( -1.000000000000000000, -0.0000000000000000000, -0.0000000000000000000 ) ) ;
#59 = FILL_AREA_STYLE_COLOUR ( '', #154 ) ;
#60 = DIRECTION ( 'NONE',  ( 1.000000000000000000, 0.0000000000000000000, 0.0000000000000000000 ) ) ;
#61 = AXIS2_PLACEMENT_3D ( 'NONE', #133, #105, #282 ) ;
#62 = DIRECTION ( 'NONE',  ( 0.0000000000000000000, 1.224646799147373400E-016, 1.000000000000000000 ) ) ;
#63 = DIRECTION ( 'NONE',  ( 0.0000000000000000000, 0.0000000000000000000, -1.000000000000000000 ) ) ;
#64 = PRESENTATION_STYLE_ASSIGNMENT (( #36 ) ) ;
#65 = ORIENTED_EDGE ( 'NONE', *, *, #38, .T. ) ;
#66 = AXIS2_PLACEMENT_3D ( 'NONE', #19, #206, #186 ) ;
#67 = AXIS2_PLACEMENT_3D ( 'NONE', #9, #146, #328 ) ;
#68 = EDGE_CURVE ( 'NONE', #313, #134, #12, .T. ) ;
#69 = ADVANCED_FACE ( 'NONE', ( #295 ), #57, .T. ) ;
#70 = AXIS2_PLACEMENT_3D ( 'NONE', #81, #260, #239 ) ;
#71 = CIRCLE ( 'NONE', #180, 21.00000000000000400 ) ;
#72 = EDGE_LOOP ( 'NONE', ( #111, #18, #201, #33 ) ) ;
#73 = EDGE_CURVE ( 'NONE', #330, #181, #131, .T. ) ;
#74 = DIRECTION ( 'NONE',  ( 0.0000000000000000000, -1.224646799147354200E-016, 1.000000000000000000 ) ) ;
#75 = DIRECTION ( 'NONE',  ( -1.000000000000000000, -0.0000000000000000000, -0.0000000000000000000 ) ) ;
#76 = SURFACE_STYLE_FILL_AREA ( #288 ) ;
#77 = ORIENTED_EDGE ( 'NONE', *, *, #325, .T. ) ;
#78 = DIRECTION ( 'NONE',  ( 0.0000000000000000000, 0.0000000000000000000, 1.000000000000000000 ) ) ;
#79 = CARTESIAN_POINT ( 'NONE',  ( 0.0000000000000000000, 0.0000000000000000000, -25.90000000000000200 ) ) ;
#80 = FACE_BOUND ( 'NONE', #205, .T. ) ;
#81 = CARTESIAN_POINT ( 'NONE',  ( 0.0000000000000000000, 0.0000000000000000000, 0.0000000000000000000 ) ) ;
#82 = CIRCLE ( 'NONE', #20, 2.499999999999998700 ) ;
#83 = DIRECTION ( 'NONE',  ( 0.0000000000000000000, 0.0000000000000000000, -1.000000000000000000 ) ) ;
#84 = AXIS2_PLACEMENT_3D ( 'NONE', #294, #151, #62 ) ;
#85 = DIRECTION ( 'NONE',  ( 0.0000000000000000000, 0.0000000000000000000, -1.000000000000000000 ) ) ;
#86 = VERTEX_POINT ( 'NONE', #235 ) ;
#87 = DIRECTION ( 'NONE',  ( -1.000000000000000000, -0.0000000000000000000, -0.0000000000000000000 ) ) ;
#88 = FILL_AREA_STYLE_COLOUR ( '', #199 ) ;
#89 = EDGE_CURVE ( 'NONE', #196, #319, #245, .T. ) ;
#90 = EDGE_LOOP ( 'NONE', ( #103, #283, #333, #167 ) ) ;
#91 = ORIENTED_EDGE ( 'NONE', *, *, #73, .F. ) ;
#92 = SHAPE_DEFINITION_REPRESENTATION ( #183, #125 ) ;
#93 = FACE_OUTER_BOUND ( 'NONE', #32, .T. ) ;
#94 = CARTESIAN_POINT ( 'NONE',  ( 0.0000000000000000000, 0.0000000000000000000, 0.0000000000000000000 ) ) ;
#95 = ORIENTED_EDGE ( 'NONE', *, *, #89, .T. ) ;
#96 = DIRECTION ( 'NONE',  ( 1.000000000000000000, 0.0000000000000000000, 0.0000000000000000000 ) ) ;
#97 = VERTEX_POINT ( 'NONE', #79 ) ;
#98 = ORIENTED_EDGE ( 'NONE', *, *, #237, .F. ) ;
#99 = EDGE_CURVE ( 'NONE', #120, #196, #229, .T. ) ;
#100 = CARTESIAN_POINT ( 'NONE',  ( 2.499999999999998700, 2.877919977996280700E-015, -23.50000000000000400 ) ) ;
#101 = CARTESIAN_POINT ( 'NONE',  ( 2.499999999999999100, 0.0000000000000000000, 0.0000000000000000000 ) ) ;
#102 = PRESENTATION_STYLE_ASSIGNMENT (( #289 ) ) ;
#103 = ORIENTED_EDGE ( 'NONE', *, *, #286, .F. ) ;
#104 = ORIENTED_EDGE ( 'NONE', *, *, #99, .T. ) ;
#105 = DIRECTION ( 'NONE',  ( 1.000000000000000000, 0.0000000000000000000, 0.0000000000000000000 ) ) ;
#106 = DIRECTION ( 'NONE',  ( 0.0000000000000000000, 0.0000000000000000000, -1.000000000000000000 ) ) ;
#107 = PRESENTATION_LAYER_ASSIGNMENT (  '', '', ( #252 ) ) ;
#108 = EDGE_CURVE ( 'NONE', #246, #319, #14, .T. ) ;
#109 = CARTESIAN_POINT ( 'NONE',  ( 0.1000000000000000100, 0.0000000000000000000, 0.0000000000000000000 ) ) ;
#110 = ORIENTED_EDGE ( 'NONE', *, *, #153, .F. ) ;
#111 = ORIENTED_EDGE ( 'NONE', *, *, #198, .F. ) ;
#112 = ORIENTED_EDGE ( 'NONE', *, *, #329, .F. ) ;
#113 = CARTESIAN_POINT ( 'NONE',  ( 0.0000000000000000000, 2.571758278209442100E-015, -21.00000000000000400 ) ) ;
#114 = CARTESIAN_POINT ( 'NONE',  ( 2.499999999999998200, 3.184081677783118600E-015, -26.00000000000000400 ) ) ;
#115 = SURFACE_SIDE_STYLE ('',( #269 ) ) ;
#116 = CIRCLE ( 'NONE', #70, 25.90000000000000200 ) ;
#117 = VECTOR ( 'NONE', #135, 1000.000000000000000 ) ;
#118 = DIRECTION ( 'NONE',  ( 1.000000000000000000, 0.0000000000000000000, 0.0000000000000000000 ) ) ;
#119 = PRODUCT_CONTEXT ( 'NONE', #197, 'mechanical' ) ;
#120 = VERTEX_POINT ( 'NONE', #211 ) ;
#121 = PRESENTATION_LAYER_ASSIGNMENT (  '', '', ( #254 ) ) ;
#122 = EDGE_CURVE ( 'NONE', #246, #120, #37, .T. ) ;
#123 = CYLINDRICAL_SURFACE ( 'NONE', #302, 26.00000000000000400 ) ;
#124 = DIRECTION ( 'NONE',  ( -1.000000000000000000, -0.0000000000000000000, -0.0000000000000000000 ) ) ;
#125 = ADVANCED_BREP_SHAPE_REPRESENTATION ( 'GL-211-040-x Dichtung G40-x heco', ( #226, #67 ), #192 ) ;
#126 = CLOSED_SHELL ( 'NONE', ( #148, #301, #176, #273, #6, #10, #222, #152, #69, #275, #202 ) ) ;
#127 = AXIS2_PLACEMENT_3D ( 'NONE', #162, #96, #132 ) ;
#128 = CARTESIAN_POINT ( 'NONE',  ( 0.0000000000000000000, 0.0000000000000000000, 0.0000000000000000000 ) ) ;
#129 = AXIS2_PLACEMENT_3D ( 'NONE', #338, #168, #106 ) ;
#130 = CARTESIAN_POINT ( 'NONE',  ( 0.0000000000000000000, 0.0000000000000000000, 0.0000000000000000000 ) ) ;
#131 = CIRCLE ( 'NONE', #170, 0.09999999999999939500 ) ;
#132 = DIRECTION ( 'NONE',  ( 0.0000000000000000000, 0.0000000000000000000, -1.000000000000000000 ) ) ;
#133 = CARTESIAN_POINT ( 'NONE',  ( 0.1000000000000000100, 0.0000000000000000000, 0.0000000000000000000 ) ) ;
#134 = VERTEX_POINT ( 'NONE', #280 ) ;
#135 = DIRECTION ( 'NONE',  ( -1.000000000000000000, -0.0000000000000000000, -0.0000000000000000000 ) ) ;
#136 = DIRECTION ( 'NONE',  ( -1.000000000000000000, -0.0000000000000000000, -0.0000000000000000000 ) ) ;
#137 = ORIENTED_EDGE ( 'NONE', *, *, #305, .F. ) ;
#138 = PLANE ( 'NONE',  #28 ) ;
#139 =( GEOMETRIC_REPRESENTATION_CONTEXT ( 3 ) GLOBAL_UNCERTAINTY_ASSIGNED_CONTEXT ( ( #270 ) ) GLOBAL_UNIT_ASSIGNED_CONTEXT ( ( #296, #297, #150 ) ) REPRESENTATION_CONTEXT ( 'NONE', 'WORKASPACE' ) );
#140 = DIRECTION ( 'NONE',  ( 0.0000000000000000000, 0.0000000000000000000, -1.000000000000000000 ) ) ;
#141 = AXIS2_PLACEMENT_3D ( 'NONE', #256, #75, #336 ) ;
#142 = CARTESIAN_POINT ( 'NONE',  ( 0.1000000000000000100, 2.571758278209442100E-015, -21.00000000000000400 ) ) ;
#143 = PRODUCT_DEFINITION_FORMATION_WITH_SPECIFIED_SOURCE ( 'ANY', '', #244, .NOT_KNOWN. ) ;
#144 = DIRECTION ( 'NONE',  ( 0.0000000000000000000, -1.000000000000000000, 0.0000000000000000000 ) ) ;
#145 = ORIENTED_EDGE ( 'NONE', *, *, #237, .T. ) ;
#146 = DIRECTION ( 'NONE',  ( 0.0000000000000000000, 0.0000000000000000000, 1.000000000000000000 ) ) ;
#147 = APPLICATION_PROTOCOL_DEFINITION ( 'draft international standard', 'automotive_design', 1998, #197 ) ;
#148 = ADVANCED_FACE ( 'NONE', ( #178 ), #278, .T. ) ;
#149 = EDGE_LOOP ( 'NONE', ( #324, #300, #104, #95 ) ) ;
#150 =( NAMED_UNIT ( * ) SI_UNIT ( $, .STERADIAN. ) SOLID_ANGLE_UNIT ( ) );
#151 = DIRECTION ( 'NONE',  ( 0.0000000000000000000, 1.000000000000000000, -1.224646799147353200E-016 ) ) ;
#152 = ADVANCED_FACE ( 'NONE', ( #8 ), #40, .T. ) ;
#153 = EDGE_CURVE ( 'NONE', #134, #330, #327, .T. ) ;
#154 = COLOUR_RGB ( '',1.000000000000000000, 0.0000000000000000000, 0.0000000000000000000 ) ;
#155 = ORIENTED_EDGE ( 'NONE', *, *, #68, .F. ) ;
#156 = VECTOR ( 'NONE', #58, 1000.000000000000000 ) ;
#157 = ORIENTED_EDGE ( 'NONE', *, *, #52, .F. ) ;
#158 = DIRECTION ( 'NONE',  ( -1.000000000000000000, -0.0000000000000000000, -0.0000000000000000000 ) ) ;
#159 = ORIENTED_EDGE ( 'NONE', *, *, #305, .T. ) ;
#160 = AXIS2_PLACEMENT_3D ( 'NONE', #130, #279, #307 ) ;
#161 = DIRECTION ( 'NONE',  ( -0.0000000000000000000, 1.000000000000000000, 1.224646799147353200E-016 ) ) ;
#162 = CARTESIAN_POINT ( 'NONE',  ( 0.1000000000000000100, 0.0000000000000000000, 0.0000000000000000000 ) ) ;
#163 = ORIENTED_EDGE ( 'NONE', *, *, #122, .F. ) ;
#164 = EDGE_CURVE ( 'NONE', #134, #313, #24, .T. ) ;
#165 = DIRECTION ( 'NONE',  ( 0.0000000000000000000, 0.0000000000000000000, -1.000000000000000000 ) ) ;
#166 = CIRCLE ( 'NONE', #216, 26.00000000000000400 ) ;
#167 = ORIENTED_EDGE ( 'NONE', *, *, #340, .F. ) ;
#168 = DIRECTION ( 'NONE',  ( 1.000000000000000000, 0.0000000000000000000, 0.0000000000000000000 ) ) ;
#169 = CARTESIAN_POINT ( 'NONE',  ( 0.0000000000000000000, 21.00000000000000000, 0.0000000000000000000 ) ) ;
#170 = AXIS2_PLACEMENT_3D ( 'NONE', #227, #184, #188 ) ;
#171 = DIRECTION ( 'NONE',  ( 0.0000000000000000000, -1.000000000000000000, 0.0000000000000000000 ) ) ;
#172 = TOROIDAL_SURFACE ( 'NONE', #219, 23.50000000000000400, 2.500000000000000400 ) ;
#173 =( NAMED_UNIT ( * ) SI_UNIT ( $, .STERADIAN. ) SOLID_ANGLE_UNIT ( ) );
#174 = ORIENTED_EDGE ( 'NONE', *, *, #198, .T. ) ;
#175 = AXIS2_PLACEMENT_3D ( 'NONE', #322, #171, #63 ) ;
#176 = ADVANCED_FACE ( 'NONE', ( #339 ), #172, .T. ) ;
#177 = CIRCLE ( 'NONE', #334, 26.00000000000000400 ) ;
#178 = FACE_OUTER_BOUND ( 'NONE', #90, .T. ) ;
#179 = ORIENTED_EDGE ( 'NONE', *, *, #204, .T. ) ;
#180 = AXIS2_PLACEMENT_3D ( 'NONE', #26, #189, #165 ) ;
#181 = VERTEX_POINT ( 'NONE', #34 ) ;
#182 = EDGE_LOOP ( 'NONE', ( #262, #42, #190, #137 ) ) ;
#183 = PRODUCT_DEFINITION_SHAPE ( 'NONE', 'NONE',  #31 ) ;
#184 = DIRECTION ( 'NONE',  ( 0.0000000000000000000, 1.000000000000000000, -1.224646799147353200E-016 ) ) ;
#185 = AXIS2_PLACEMENT_3D ( 'NONE', #208, #53, #233 ) ;
#186 = DIRECTION ( 'NONE',  ( 0.0000000000000000000, 0.0000000000000000000, 1.000000000000000000 ) ) ;
#187 = VECTOR ( 'NONE', #259, 1000.000000000000000 ) ;
#188 = DIRECTION ( 'NONE',  ( 0.0000000000000000000, 1.224646799147373400E-016, 1.000000000000000000 ) ) ;
#189 = DIRECTION ( 'NONE',  ( -1.000000000000000000, -0.0000000000000000000, -0.0000000000000000000 ) ) ;
#190 = ORIENTED_EDGE ( 'NONE', *, *, #15, .F. ) ;
#191 = CARTESIAN_POINT ( 'NONE',  ( 0.0000000000000000000, 0.0000000000000000000, 0.0000000000000000000 ) ) ;
#192 =( GEOMETRIC_REPRESENTATION_CONTEXT ( 3 ) GLOBAL_UNCERTAINTY_ASSIGNED_CONTEXT ( ( #210 ) ) GLOBAL_UNIT_ASSIGNED_CONTEXT ( ( #39, #267, #173 ) ) REPRESENTATION_CONTEXT ( 'NONE', 'WORKASPACE' ) );
#193 = DIRECTION ( 'NONE',  ( 0.0000000000000000000, 0.0000000000000000000, -1.000000000000000000 ) ) ;
#194 = CARTESIAN_POINT ( 'NONE',  ( 0.1000000000000000100, 0.0000000000000000000, 21.00000000000000400 ) ) ;
#195 = ORIENTED_EDGE ( 'NONE', *, *, #89, .F. ) ;
#196 = VERTEX_POINT ( 'NONE', #232 ) ;
#197 = APPLICATION_CONTEXT ( 'automotive_design' ) ;
#198 = EDGE_CURVE ( 'NONE', #313, #292, #287, .T. ) ;
#199 = COLOUR_RGB ( '',1.000000000000000000, 0.0000000000000000000, 0.0000000000000000000 ) ;
#200 = AXIS2_PLACEMENT_3D ( 'NONE', #191, #238, #85 ) ;
#201 = ORIENTED_EDGE ( 'NONE', *, *, #153, .T. ) ;
#202 = ADVANCED_FACE ( 'NONE', ( #93 ), #234, .T. ) ;
#203 = CARTESIAN_POINT ( 'NONE',  ( 2.499999999999998200, 0.0000000000000000000, 0.0000000000000000000 ) ) ;
#204 = EDGE_CURVE ( 'NONE', #292, #330, #71, .T. ) ;
#205 = EDGE_LOOP ( 'NONE', ( #50, #65 ) ) ;
#206 = DIRECTION ( 'NONE',  ( -1.000000000000000000, -0.0000000000000000000, -0.0000000000000000000 ) ) ;
#207 = PRODUCT_RELATED_PRODUCT_CATEGORY ( 'part', '', ( #244 ) ) ;
#208 = CARTESIAN_POINT ( 'NONE',  ( 2.499999999999999100, 0.0000000000000000000, 0.0000000000000000000 ) ) ;
#209 = VERTEX_POINT ( 'NONE', #321 ) ;
#210 = UNCERTAINTY_MEASURE_WITH_UNIT (LENGTH_MEASURE( 1.000000000000000100E-005 ), #39, 'distance_accuracy_value', 'NONE');
#211 = CARTESIAN_POINT ( 'NONE',  ( 2.499999999999998200, 0.0000000000000000000, 26.00000000000000400 ) ) ;
#212 = DIRECTION ( 'NONE',  ( 0.0000000000000000000, 0.0000000000000000000, 1.000000000000000000 ) ) ;
#213 = TOROIDAL_SURFACE ( 'NONE', #317, 25.90000000000000200, 0.1000000000000000100 ) ;
#214 = EDGE_LOOP ( 'NONE', ( #249, #265, #77, #230 ) ) ;
#215 = CARTESIAN_POINT ( 'NONE',  ( 2.499999999999999100, 2.571758278209442100E-015, -21.00000000000000400 ) ) ;
#216 = AXIS2_PLACEMENT_3D ( 'NONE', #203, #158, #44 ) ;
#217 = CARTESIAN_POINT ( 'NONE',  ( 2.499999999999998700, 0.0000000000000000000, 23.50000000000000400 ) ) ;
#218 = DIRECTION ( 'NONE',  ( 0.0000000000000000000, 0.0000000000000000000, -1.000000000000000000 ) ) ;
#219 = AXIS2_PLACEMENT_3D ( 'NONE', #311, #21, #78 ) ;
#220 = APPLICATION_PROTOCOL_DEFINITION ( 'draft international standard', 'automotive_design', 1998, #326 ) ;
#221 = EDGE_CURVE ( 'NONE', #86, #181, #281, .T. ) ;
#222 = ADVANCED_FACE ( 'NONE', ( #23, #80 ), #138, .F. ) ;
#223 = EDGE_LOOP ( 'NONE', ( #253, #145 ) ) ;
#224 = DIRECTION ( 'NONE',  ( 0.0000000000000000000, -1.000000000000000000, 0.0000000000000000000 ) ) ;
#225 = FACE_OUTER_BOUND ( 'NONE', #72, .T. ) ;
#226 = MANIFOLD_SOLID_BREP ( 'Verrundung1', #126 ) ;
#227 = CARTESIAN_POINT ( 'NONE',  ( 0.1000000000000000100, 2.584004746200915800E-015, 21.10000000000000500 ) ) ;
#228 = AXIS2_PLACEMENT_3D ( 'NONE', #94, #124, #276 ) ;
#229 = LINE ( 'NONE', #22, #187 ) ;
#230 = ORIENTED_EDGE ( 'NONE', *, *, #99, .F. ) ;
#231 = ORIENTED_EDGE ( 'NONE', *, *, #340, .T. ) ;
#232 = CARTESIAN_POINT ( 'NONE',  ( 0.1000000000000000100, 0.0000000000000000000, 26.00000000000000400 ) ) ;
#233 = DIRECTION ( 'NONE',  ( 0.0000000000000000000, 0.0000000000000000000, 1.000000000000000000 ) ) ;
#234 = TOROIDAL_SURFACE ( 'NONE', #55, 21.10000000000000500, 0.1000000000000000100 ) ;
#235 = CARTESIAN_POINT ( 'NONE',  ( 0.0000000000000000000, 0.0000000000000000000, -21.10000000000000500 ) ) ;
#236 = CIRCLE ( 'NONE', #247, 21.10000000000000500 ) ;
#237 = EDGE_CURVE ( 'NONE', #209, #97, #116, .T. ) ;
#238 = DIRECTION ( 'NONE',  ( 1.000000000000000000, 0.0000000000000000000, 0.0000000000000000000 ) ) ;
#239 = DIRECTION ( 'NONE',  ( 0.0000000000000000000, 0.0000000000000000000, -1.000000000000000000 ) ) ;
#240 = CYLINDRICAL_SURFACE ( 'NONE', #160, 21.00000000000000400 ) ;
#241 = EDGE_LOOP ( 'NONE', ( #155, #174, #179, #110 ) ) ;
#242 =( NAMED_UNIT ( * ) PLANE_ANGLE_UNIT ( ) SI_UNIT ( $, .RADIAN. ) );
#243 = FILL_AREA_STYLE ('',( #88 ) ) ;
#244 = PRODUCT ( 'GL-211-040-x Dichtung G40-x heco', 'GL-211-040-x Dichtung G40-x heco', '', ( #119 ) ) ;
#245 = CIRCLE ( 'NONE', #127, 26.00000000000000400 ) ;
#246 = VERTEX_POINT ( 'NONE', #114 ) ;
#247 = AXIS2_PLACEMENT_3D ( 'NONE', #312, #25, #257 ) ;
#248 = CARTESIAN_POINT ( 'NONE',  ( 0.1000000000000000100, 0.0000000000000000000, 0.0000000000000000000 ) ) ;
#249 = ORIENTED_EDGE ( 'NONE', *, *, #15, .T. ) ;
#250 = EDGE_LOOP ( 'NONE', ( #157, #3, #159, #163 ) ) ;
#251 = AXIS2_PLACEMENT_3D ( 'NONE', #128, #46, #332 ) ;
#252 = STYLED_ITEM ( 'NONE', ( #102 ), #226 ) ;
#253 = ORIENTED_EDGE ( 'NONE', *, *, #17, .T. ) ;
#254 = STYLED_ITEM ( 'NONE', ( #64 ), #125 ) ;
#255 = ORIENTED_EDGE ( 'NONE', *, *, #337, .F. ) ;
#256 = CARTESIAN_POINT ( 'NONE',  ( 2.499999999999998700, 0.0000000000000000000, 0.0000000000000000000 ) ) ;
#257 = DIRECTION ( 'NONE',  ( 0.0000000000000000000, 0.0000000000000000000, -1.000000000000000000 ) ) ;
#258 = TOROIDAL_SURFACE ( 'NONE', #129, 25.90000000000000200, 0.1000000000000000100 ) ;
#259 = DIRECTION ( 'NONE',  ( -1.000000000000000000, -0.0000000000000000000, -0.0000000000000000000 ) ) ;
#260 = DIRECTION ( 'NONE',  ( -1.000000000000000000, -0.0000000000000000000, -0.0000000000000000000 ) ) ;
#261 = FACE_OUTER_BOUND ( 'NONE', #314, .T. ) ;
#262 = ORIENTED_EDGE ( 'NONE', *, *, #164, .T. ) ;
#263 = CARTESIAN_POINT ( 'NONE',  ( 0.0000000000000000000, 0.0000000000000000000, 0.0000000000000000000 ) ) ;
#264 = CARTESIAN_POINT ( 'NONE',  ( 0.1000000000000000100, 3.184081677783118600E-015, -26.00000000000000400 ) ) ;
#265 = ORIENTED_EDGE ( 'NONE', *, *, #108, .T. ) ;
#266 = MECHANICAL_DESIGN_GEOMETRIC_PRESENTATION_REPRESENTATION (  '', ( #252 ), #13 ) ;
#267 =( NAMED_UNIT ( * ) PLANE_ANGLE_UNIT ( ) SI_UNIT ( $, .RADIAN. ) );
#268 = DIRECTION ( 'NONE',  ( 0.0000000000000000000, 0.0000000000000000000, -1.000000000000000000 ) ) ;
#269 = SURFACE_STYLE_FILL_AREA ( #243 ) ;
#270 = UNCERTAINTY_MEASURE_WITH_UNIT (LENGTH_MEASURE( 1.000000000000000100E-005 ), #296, 'distance_accuracy_value', 'NONE');
#271 = CYLINDRICAL_SURFACE ( 'NONE', #228, 21.00000000000000400 ) ;
#272 = CARTESIAN_POINT ( 'NONE',  ( 0.1000000000000000100, 0.0000000000000000000, -25.90000000000000200 ) ) ;
#273 = ADVANCED_FACE ( 'NONE', ( #274 ), #123, .T. ) ;
#274 = FACE_OUTER_BOUND ( 'NONE', #214, .T. ) ;
#275 = ADVANCED_FACE ( 'NONE', ( #7 ), #213, .T. ) ;
#276 = DIRECTION ( 'NONE',  ( 0.0000000000000000000, 0.0000000000000000000, 1.000000000000000000 ) ) ;
#277 = CIRCLE ( 'NONE', #49, 0.09999999999999939500 ) ;
#278 = TOROIDAL_SURFACE ( 'NONE', #61, 21.10000000000000500, 0.1000000000000000100 ) ;
#279 = DIRECTION ( 'NONE',  ( -1.000000000000000000, -0.0000000000000000000, -0.0000000000000000000 ) ) ;
#280 = CARTESIAN_POINT ( 'NONE',  ( 2.499999999999999100, 0.0000000000000000000, 21.00000000000000400 ) ) ;
#281 = CIRCLE ( 'NONE', #200, 21.10000000000000500 ) ;
#282 = DIRECTION ( 'NONE',  ( 0.0000000000000000000, 0.0000000000000000000, -1.000000000000000000 ) ) ;
#283 = ORIENTED_EDGE ( 'NONE', *, *, #73, .T. ) ;
#284 = AXIS2_PLACEMENT_3D ( 'NONE', #56, #87, #83 ) ;
#285 = CARTESIAN_POINT ( 'NONE',  ( 0.0000000000000000000, 0.0000000000000000000, 0.0000000000000000000 ) ) ;
#286 = EDGE_CURVE ( 'NONE', #330, #292, #47, .T. ) ;
#287 = LINE ( 'NONE', #113, #156 ) ;
#288 = FILL_AREA_STYLE ('',( #59 ) ) ;
#289 = SURFACE_STYLE_USAGE ( .BOTH. , #291 ) ;
#290 = DIRECTION ( 'NONE',  ( 1.000000000000000000, 0.0000000000000000000, 0.0000000000000000000 ) ) ;
#291 = SURFACE_SIDE_STYLE ('',( #76 ) ) ;
#292 = VERTEX_POINT ( 'NONE', #142 ) ;
#293 = AXIS2_PLACEMENT_3D ( 'NONE', #285, #136, #54 ) ;
#294 = CARTESIAN_POINT ( 'NONE',  ( 0.1000000000000000100, 3.171835209791645200E-015, 25.90000000000000200 ) ) ;
#295 = FACE_OUTER_BOUND ( 'NONE', #250, .T. ) ;
#296 =( LENGTH_UNIT ( ) NAMED_UNIT ( * ) SI_UNIT ( .MILLI., .METRE. ) );
#297 =( NAMED_UNIT ( * ) PLANE_ANGLE_UNIT ( ) SI_UNIT ( $, .RADIAN. ) );
#298 = ORIENTED_EDGE ( 'NONE', *, *, #329, .T. ) ;
#299 = ORIENTED_EDGE ( 'NONE', *, *, #337, .T. ) ;
#300 = ORIENTED_EDGE ( 'NONE', *, *, #122, .T. ) ;
#301 = ADVANCED_FACE ( 'NONE', ( #261 ), #258, .T. ) ;
#302 = AXIS2_PLACEMENT_3D ( 'NONE', #263, #4, #316 ) ;
#303 = VECTOR ( 'NONE', #315, 1000.000000000000000 ) ;
#304 = ORIENTED_EDGE ( 'NONE', *, *, #204, .F. ) ;
#305 = EDGE_CURVE ( 'NONE', #134, #120, #2, .T. ) ;
#306 = UNCERTAINTY_MEASURE_WITH_UNIT (LENGTH_MEASURE( 1.000000000000000100E-005 ), #27, 'distance_accuracy_value', 'NONE');
#307 = DIRECTION ( 'NONE',  ( 0.0000000000000000000, 0.0000000000000000000, 1.000000000000000000 ) ) ;
#308 = CIRCLE ( 'NONE', #251, 25.90000000000000200 ) ;
#309 = CARTESIAN_POINT ( 'NONE',  ( 0.0000000000000000000, 3.184081677783118600E-015, -26.00000000000000400 ) ) ;
#310 = AXIS2_PLACEMENT_3D ( 'NONE', #101, #335, #212 ) ;
#311 = CARTESIAN_POINT ( 'NONE',  ( 2.499999999999998700, 0.0000000000000000000, 0.0000000000000000000 ) ) ;
#312 = CARTESIAN_POINT ( 'NONE',  ( 0.0000000000000000000, 0.0000000000000000000, 0.0000000000000000000 ) ) ;
#313 = VERTEX_POINT ( 'NONE', #215 ) ;
#314 = EDGE_LOOP ( 'NONE', ( #98, #299, #48, #112 ) ) ;
#315 = DIRECTION ( 'NONE',  ( -1.000000000000000000, -0.0000000000000000000, -0.0000000000000000000 ) ) ;
#316 = DIRECTION ( 'NONE',  ( 0.0000000000000000000, 0.0000000000000000000, 1.000000000000000000 ) ) ;
#317 = AXIS2_PLACEMENT_3D ( 'NONE', #320, #60, #35 ) ;
#318 = CIRCLE ( 'NONE', #84, 0.09999999999999939500 ) ;
#319 = VERTEX_POINT ( 'NONE', #264 ) ;
#320 = CARTESIAN_POINT ( 'NONE',  ( 0.1000000000000000100, 0.0000000000000000000, 0.0000000000000000000 ) ) ;
#321 = CARTESIAN_POINT ( 'NONE',  ( 0.0000000000000000000, 3.177958443787381900E-015, 25.90000000000000200 ) ) ;
#322 = CARTESIAN_POINT ( 'NONE',  ( 0.1000000000000000100, 0.0000000000000000000, -21.10000000000000500 ) ) ;
#323 = CIRCLE ( 'NONE', #175, 0.09999999999999939500 ) ;
#324 = ORIENTED_EDGE ( 'NONE', *, *, #108, .F. ) ;
#325 = EDGE_CURVE ( 'NONE', #319, #196, #177, .T. ) ;
#326 = APPLICATION_CONTEXT ( 'automotive_design' ) ;
#327 = LINE ( 'NONE', #51, #303 ) ;
#328 = DIRECTION ( 'NONE',  ( 1.000000000000000000, 0.0000000000000000000, 0.0000000000000000000 ) ) ;
#329 = EDGE_CURVE ( 'NONE', #97, #319, #277, .T. ) ;
#330 = VERTEX_POINT ( 'NONE', #194 ) ;
#331 = AXIS2_PLACEMENT_3D ( 'NONE', #217, #144, #268 ) ;
#332 = DIRECTION ( 'NONE',  ( 0.0000000000000000000, 0.0000000000000000000, -1.000000000000000000 ) ) ;
#333 = ORIENTED_EDGE ( 'NONE', *, *, #221, .F. ) ;
#334 = AXIS2_PLACEMENT_3D ( 'NONE', #248, #118, #193 ) ;
#335 = DIRECTION ( 'NONE',  ( -1.000000000000000000, -0.0000000000000000000, -0.0000000000000000000 ) ) ;
#336 = DIRECTION ( 'NONE',  ( 0.0000000000000000000, 0.0000000000000000000, 1.000000000000000000 ) ) ;
#337 = EDGE_CURVE ( 'NONE', #209, #196, #318, .T. ) ;
#338 = CARTESIAN_POINT ( 'NONE',  ( 0.1000000000000000100, 0.0000000000000000000, 0.0000000000000000000 ) ) ;
#339 = FACE_OUTER_BOUND ( 'NONE', #182, .T. ) ;
#340 = EDGE_CURVE ( 'NONE', #292, #86, #323, .T. ) ;
ENDSEC;
END-ISO-10303-21;
