ISO-10303-21;
HEADER;
FILE_DESCRIPTION (( 'STEP AP214' ),
    '1' );
FILE_NAME ('GL-211-065-x Dichtung G65-x heco.STEP',
    '2017-09-01T09:45:55',
    ( '' ),
    ( '' ),
    'SwSTEP 2.0',
    'SolidWorks 2016',
    '' );
FILE_SCHEMA (( 'AUTOMOTIVE_DESIGN' ));
ENDSEC;

DATA;
#1 = DIRECTION ( 'NONE',  ( 0.0000000000000000000, 0.0000000000000000000, 1.000000000000000000 ) ) ;
#2 = DIRECTION ( 'NONE',  ( 0.0000000000000000000, 0.0000000000000000000, -1.000000000000000000 ) ) ;
#3 = SURFACE_STYLE_FILL_AREA ( #5 ) ;
#4 = CARTESIAN_POINT ( 'NONE',  ( 0.1000000000000000100, 0.0000000000000000000, 0.0000000000000000000 ) ) ;
#5 = FILL_AREA_STYLE ('',( #169 ) ) ;
#6 = DIRECTION ( 'NONE',  ( 0.0000000000000000000, 0.0000000000000000000, -1.000000000000000000 ) ) ;
#7 = ADVANCED_FACE ( 'NONE', ( #164 ), #67, .T. ) ;
#8 = VECTOR ( 'NONE', #285, 1000.000000000000000 ) ;
#9 = CARTESIAN_POINT ( 'NONE',  ( 2.500000000000000000, 0.0000000000000000000, 0.0000000000000000000 ) ) ;
#10 =( NAMED_UNIT ( * ) PLANE_ANGLE_UNIT ( ) SI_UNIT ( $, .RADIAN. ) );
#11 = COLOUR_RGB ( '',1.000000000000000000, 0.0000000000000000000, 0.0000000000000000000 ) ;
#12 = CIRCLE ( 'NONE', #257, 40.49999999999999300 ) ;
#13 = ORIENTED_EDGE ( 'NONE', *, *, #309, .T. ) ;
#14 = EDGE_CURVE ( 'NONE', #119, #320, #152, .T. ) ;
#15 = TOROIDAL_SURFACE ( 'NONE', #136, 35.59999999999999400, 0.1000000000000000100 ) ;
#16 = CIRCLE ( 'NONE', #76, 2.500000000000002200 ) ;
#17 = DIRECTION ( 'NONE',  ( 0.0000000000000000000, 0.0000000000000000000, -1.000000000000000000 ) ) ;
#18 = CIRCLE ( 'NONE', #89, 40.39999999999999100 ) ;
#19 = VERTEX_POINT ( 'NONE', #221 ) ;
#20 = CARTESIAN_POINT ( 'NONE',  ( 2.500000000000000400, 0.0000000000000000000, 0.0000000000000000000 ) ) ;
#21 = EDGE_CURVE ( 'NONE', #243, #61, #204, .T. ) ;
#22 = SURFACE_SIDE_STYLE ('',( #3 ) ) ;
#23 = CARTESIAN_POINT ( 'NONE',  ( 0.1000000000000000100, 4.947573068555305700E-015, 40.39999999999999100 ) ) ;
#24 = AXIS2_PLACEMENT_3D ( 'NONE', #189, #111, #28 ) ;
#25 = DIRECTION ( 'NONE',  ( 0.0000000000000000000, 0.0000000000000000000, -1.000000000000000000 ) ) ;
#26 = PRODUCT_CONTEXT ( 'NONE', #278, 'mechanical' ) ;
#27 = EDGE_CURVE ( 'NONE', #108, #290, #16, .T. ) ;
#28 = DIRECTION ( 'NONE',  ( 0.0000000000000000000, 0.0000000000000000000, -1.000000000000000000 ) ) ;
#29 = ORIENTED_EDGE ( 'NONE', *, *, #120, .T. ) ;
#30 = CARTESIAN_POINT ( 'NONE',  ( 2.500000000000000900, 4.347496136973102500E-015, -35.49999999999999300 ) ) ;
#31 = CIRCLE ( 'NONE', #210, 0.1000000000000028600 ) ;
#32 = DIRECTION ( 'NONE',  ( 0.0000000000000000000, 0.0000000000000000000, 1.000000000000000000 ) ) ;
#33 = ORIENTED_EDGE ( 'NONE', *, *, #291, .F. ) ;
#34 = EDGE_CURVE ( 'NONE', #290, #61, #215, .T. ) ;
#35 = MANIFOLD_SOLID_BREP ( 'Verrundung1', #142 ) ;
#36 = CARTESIAN_POINT ( 'NONE',  ( 0.1000000000000000100, 0.0000000000000000000, 0.0000000000000000000 ) ) ;
#37 = DIRECTION ( 'NONE',  ( 0.0000000000000000000, 1.000000000000000000, -1.224646799147353200E-016 ) ) ;
#38 = ORIENTED_EDGE ( 'NONE', *, *, #27, .T. ) ;
#39 = UNCERTAINTY_MEASURE_WITH_UNIT (LENGTH_MEASURE( 1.000000000000000100E-005 ), #219, 'distance_accuracy_value', 'NONE');
#40 = CYLINDRICAL_SURFACE ( 'NONE', #336, 40.49999999999999300 ) ;
#41 = CARTESIAN_POINT ( 'NONE',  ( 2.500000000000000000, 4.959819536546779800E-015, -40.49999999999999300 ) ) ;
#42 = DIRECTION ( 'NONE',  ( 0.0000000000000000000, 0.0000000000000000000, -1.000000000000000000 ) ) ;
#43 = DIRECTION ( 'NONE',  ( 0.0000000000000000000, 0.0000000000000000000, 1.000000000000000000 ) ) ;
#44 = ORIENTED_EDGE ( 'NONE', *, *, #57, .F. ) ;
#45 = EDGE_CURVE ( 'NONE', #290, #177, #283, .T. ) ;
#46 = ORIENTED_EDGE ( 'NONE', *, *, #250, .F. ) ;
#47 = ORIENTED_EDGE ( 'NONE', *, *, #62, .T. ) ;
#48 = CARTESIAN_POINT ( 'NONE',  ( 0.0000000000000000000, 4.347496136973102500E-015, -35.49999999999999300 ) ) ;
#49 = ADVANCED_FACE ( 'NONE', ( #196 ), #339, .T. ) ;
#50 = AXIS2_PLACEMENT_3D ( 'NONE', #198, #311, #168 ) ;
#51 = ADVANCED_FACE ( 'NONE', ( #340, #279 ), #117, .F. ) ;
#52 = VECTOR ( 'NONE', #269, 1000.000000000000000 ) ;
#53 = EDGE_LOOP ( 'NONE', ( #92, #97, #255, #139 ) ) ;
#54 = CARTESIAN_POINT ( 'NONE',  ( 0.1000000000000000100, 4.959819536546779800E-015, -40.49999999999999300 ) ) ;
#55 = EDGE_CURVE ( 'NONE', #19, #146, #193, .T. ) ;
#56 = DIRECTION ( 'NONE',  ( -1.000000000000000000, -0.0000000000000000000, -0.0000000000000000000 ) ) ;
#57 = EDGE_CURVE ( 'NONE', #19, #316, #226, .T. ) ;
#58 = ORIENTED_EDGE ( 'NONE', *, *, #304, .F. ) ;
#59 = LINE ( 'NONE', #176, #52 ) ;
#60 = VERTEX_POINT ( 'NONE', #30 ) ;
#61 = VERTEX_POINT ( 'NONE', #191 ) ;
#62 = EDGE_CURVE ( 'NONE', #60, #108, #300, .T. ) ;
#63 =( GEOMETRIC_REPRESENTATION_CONTEXT ( 3 ) GLOBAL_UNCERTAINTY_ASSIGNED_CONTEXT ( ( #39 ) ) GLOBAL_UNIT_ASSIGNED_CONTEXT ( ( #219, #333, #276 ) ) REPRESENTATION_CONTEXT ( 'NONE', 'WORKASPACE' ) );
#64 = FACE_OUTER_BOUND ( 'NONE', #232, .T. ) ;
#65 = ORIENTED_EDGE ( 'NONE', *, *, #322, .F. ) ;
#66 = DIRECTION ( 'NONE',  ( -1.000000000000000000, -0.0000000000000000000, -0.0000000000000000000 ) ) ;
#67 = TOROIDAL_SURFACE ( 'NONE', #201, 40.39999999999999100, 0.1000000000000000100 ) ;
#68 = EDGE_CURVE ( 'NONE', #177, #243, #122, .T. ) ;
#69 = DIRECTION ( 'NONE',  ( 0.0000000000000000000, 0.0000000000000000000, 1.000000000000000000 ) ) ;
#70 = EDGE_LOOP ( 'NONE', ( #312, #47, #38, #33 ) ) ;
#71 = CARTESIAN_POINT ( 'NONE',  ( 2.500000000000000900, 0.0000000000000000000, 0.0000000000000000000 ) ) ;
#72 = DIRECTION ( 'NONE',  ( 0.0000000000000000000, -1.224646799147352500E-016, 1.000000000000000000 ) ) ;
#73 = ADVANCED_FACE ( 'NONE', ( #64 ), #231, .T. ) ;
#74 =( LENGTH_UNIT ( ) NAMED_UNIT ( * ) SI_UNIT ( .MILLI., .METRE. ) );
#75 = DIRECTION ( 'NONE',  ( 1.000000000000000000, 0.0000000000000000000, 0.0000000000000000000 ) ) ;
#76 = AXIS2_PLACEMENT_3D ( 'NONE', #202, #263, #99 ) ;
#77 = ORIENTED_EDGE ( 'NONE', *, *, #107, .T. ) ;
#78 = CARTESIAN_POINT ( 'NONE',  ( 0.0000000000000000000, 0.0000000000000000000, 0.0000000000000000000 ) ) ;
#79 = DIRECTION ( 'NONE',  ( 0.0000000000000000000, -1.000000000000000000, 0.0000000000000000000 ) ) ;
#80 = DIRECTION ( 'NONE',  ( 1.000000000000000000, 0.0000000000000000000, 0.0000000000000000000 ) ) ;
#81 = FACE_OUTER_BOUND ( 'NONE', #153, .T. ) ;
#82 = EDGE_LOOP ( 'NONE', ( #134, #158 ) ) ;
#83 = DIRECTION ( 'NONE',  ( -1.000000000000000000, -0.0000000000000000000, -0.0000000000000000000 ) ) ;
#84 = PRODUCT_DEFINITION_FORMATION_WITH_SPECIFIED_SOURCE ( 'ANY', '', #94, .NOT_KNOWN. ) ;
#85 = CARTESIAN_POINT ( 'NONE',  ( 0.0000000000000000000, 0.0000000000000000000, -35.59999999999999400 ) ) ;
#86 = AXIS2_PLACEMENT_3D ( 'NONE', #313, #138, #225 ) ;
#87 = FACE_OUTER_BOUND ( 'NONE', #70, .T. ) ;
#88 = CARTESIAN_POINT ( 'NONE',  ( 0.0000000000000000000, 0.0000000000000000000, 0.0000000000000000000 ) ) ;
#89 = AXIS2_PLACEMENT_3D ( 'NONE', #126, #125, #267 ) ;
#90 = DIRECTION ( 'NONE',  ( 1.000000000000000000, 0.0000000000000000000, 0.0000000000000000000 ) ) ;
#91 = EDGE_LOOP ( 'NONE', ( #331, #58, #249, #65 ) ) ;
#92 = ORIENTED_EDGE ( 'NONE', *, *, #68, .F. ) ;
#93 = CARTESIAN_POINT ( 'NONE',  ( 0.0000000000000000000, 0.0000000000000000000, 0.0000000000000000000 ) ) ;
#94 = PRODUCT ( 'GL-211-065-x Dichtung G65-x heco', 'GL-211-065-x Dichtung G65-x heco', '', ( #26 ) ) ;
#95 = EDGE_CURVE ( 'NONE', #334, #146, #323, .T. ) ;
#96 = FACE_OUTER_BOUND ( 'NONE', #187, .T. ) ;
#97 = ORIENTED_EDGE ( 'NONE', *, *, #291, .T. ) ;
#98 = AXIS2_PLACEMENT_3D ( 'NONE', #274, #80, #25 ) ;
#99 = DIRECTION ( 'NONE',  ( 0.0000000000000000000, 0.0000000000000000000, -1.000000000000000000 ) ) ;
#100 = DIRECTION ( 'NONE',  ( -1.000000000000000000, -0.0000000000000000000, -0.0000000000000000000 ) ) ;
#101 = ORIENTED_EDGE ( 'NONE', *, *, #160, .T. ) ;
#102 = DIRECTION ( 'NONE',  ( 1.000000000000000000, 0.0000000000000000000, 0.0000000000000000000 ) ) ;
#103 = ORIENTED_EDGE ( 'NONE', *, *, #124, .F. ) ;
#104 = DIRECTION ( 'NONE',  ( 1.000000000000000000, 0.0000000000000000000, 0.0000000000000000000 ) ) ;
#105 = AXIS2_PLACEMENT_3D ( 'NONE', #36, #75, #246 ) ;
#106 = CIRCLE ( 'NONE', #24, 35.59999999999999400 ) ;
#107 = EDGE_CURVE ( 'NONE', #60, #316, #310, .T. ) ;
#108 = VERTEX_POINT ( 'NONE', #318 ) ;
#109 = ADVANCED_FACE ( 'NONE', ( #96 ), #156, .T. ) ;
#110 = CARTESIAN_POINT ( 'NONE',  ( 0.1000000000000000100, 0.0000000000000000000, -35.59999999999999400 ) ) ;
#111 = DIRECTION ( 'NONE',  ( 1.000000000000000000, 0.0000000000000000000, 0.0000000000000000000 ) ) ;
#112 = PRESENTATION_STYLE_ASSIGNMENT (( #114 ) ) ;
#113 = DIRECTION ( 'NONE',  ( 0.0000000000000000000, 0.0000000000000000000, -1.000000000000000000 ) ) ;
#114 = SURFACE_STYLE_USAGE ( .BOTH. , #306 ) ;
#115 = CYLINDRICAL_SURFACE ( 'NONE', #319, 35.49999999999999300 ) ;
#116 = ORIENTED_EDGE ( 'NONE', *, *, #21, .T. ) ;
#117 = PLANE ( 'NONE',  #240 ) ;
#118 = AXIS2_PLACEMENT_3D ( 'NONE', #148, #236, #72 ) ;
#119 = VERTEX_POINT ( 'NONE', #317 ) ;
#120 = EDGE_CURVE ( 'NONE', #60, #177, #149, .T. ) ;
#121 = DIRECTION ( 'NONE',  ( 0.0000000000000000000, 1.224646799147330800E-016, 1.000000000000000000 ) ) ;
#122 = LINE ( 'NONE', #137, #315 ) ;
#123 = ORIENTED_EDGE ( 'NONE', *, *, #130, .F. ) ;
#124 = EDGE_CURVE ( 'NONE', #108, #60, #200, .T. ) ;
#125 = DIRECTION ( 'NONE',  ( -1.000000000000000000, -0.0000000000000000000, -0.0000000000000000000 ) ) ;
#126 = CARTESIAN_POINT ( 'NONE',  ( 0.0000000000000000000, 0.0000000000000000000, 0.0000000000000000000 ) ) ;
#127 = ORIENTED_EDGE ( 'NONE', *, *, #45, .F. ) ;
#128 = DIRECTION ( 'NONE',  ( -1.000000000000000000, -0.0000000000000000000, -0.0000000000000000000 ) ) ;
#129 = AXIS2_PLACEMENT_3D ( 'NONE', #88, #188, #90 ) ;
#130 = EDGE_CURVE ( 'NONE', #108, #19, #59, .T. ) ;
#131 =( NAMED_UNIT ( * ) PLANE_ANGLE_UNIT ( ) SI_UNIT ( $, .RADIAN. ) );
#132 = DIRECTION ( 'NONE',  ( 0.0000000000000000000, 0.0000000000000000000, 1.000000000000000000 ) ) ;
#133 = AXIS2_PLACEMENT_3D ( 'NONE', #229, #170, #42 ) ;
#134 = ORIENTED_EDGE ( 'NONE', *, *, #95, .T. ) ;
#135 =( LENGTH_UNIT ( ) NAMED_UNIT ( * ) SI_UNIT ( .MILLI., .METRE. ) );
#136 = AXIS2_PLACEMENT_3D ( 'NONE', #4, #178, #17 ) ;
#137 = CARTESIAN_POINT ( 'NONE',  ( 0.0000000000000000000, 4.959819536546779800E-015, -40.49999999999999300 ) ) ;
#138 = DIRECTION ( 'NONE',  ( -1.000000000000000000, -0.0000000000000000000, -0.0000000000000000000 ) ) ;
#139 = ORIENTED_EDGE ( 'NONE', *, *, #238, .T. ) ;
#140 = CIRCLE ( 'NONE', #314, 0.1000000000000028600 ) ;
#141 = ORIENTED_EDGE ( 'NONE', *, *, #304, .T. ) ;
#142 = CLOSED_SHELL ( 'NONE', ( #73, #7, #109, #321, #179, #241, #51, #49, #161, #213, #208 ) ) ;
#143 = CARTESIAN_POINT ( 'NONE',  ( 2.500000000000000400, 0.0000000000000000000, 0.0000000000000000000 ) ) ;
#144 = FACE_OUTER_BOUND ( 'NONE', #330, .T. ) ;
#145 = ORIENTED_EDGE ( 'NONE', *, *, #14, .T. ) ;
#146 = VERTEX_POINT ( 'NONE', #203 ) ;
#147 = PRESENTATION_LAYER_ASSIGNMENT (  '', '', ( #165 ) ) ;
#148 = CARTESIAN_POINT ( 'NONE',  ( 2.500000000000000400, 4.653657836759941200E-015, -37.99999999999999300 ) ) ;
#149 = CIRCLE ( 'NONE', #118, 2.500000000000002200 ) ;
#150 = DIRECTION ( 'NONE',  ( 0.0000000000000000000, 0.0000000000000000000, -1.000000000000000000 ) ) ;
#151 = PRODUCT_DEFINITION ( 'UNKNOWN', '', #84, #327 ) ;
#152 = CIRCLE ( 'NONE', #86, 40.39999999999999100 ) ;
#153 = EDGE_LOOP ( 'NONE', ( #296, #103, #266, #258 ) ) ;
#154 = CARTESIAN_POINT ( 'NONE',  ( 2.500000000000000000, 0.0000000000000000000, 40.49999999999999300 ) ) ;
#155 = FILL_AREA_STYLE_COLOUR ( '', #307 ) ;
#156 = TOROIDAL_SURFACE ( 'NONE', #288, 37.99999999999999300, 2.500000000000002200 ) ;
#157 = CARTESIAN_POINT ( 'NONE',  ( 2.500000000000000000, 0.0000000000000000000, 0.0000000000000000000 ) ) ;
#158 = ORIENTED_EDGE ( 'NONE', *, *, #322, .T. ) ;
#159 = EDGE_LOOP ( 'NONE', ( #145, #101 ) ) ;
#160 = EDGE_CURVE ( 'NONE', #320, #119, #18, .T. ) ;
#161 = ADVANCED_FACE ( 'NONE', ( #87 ), #261, .T. ) ;
#162 = APPLICATION_CONTEXT ( 'automotive_design' ) ;
#163 = CYLINDRICAL_SURFACE ( 'NONE', #205, 35.49999999999999300 ) ;
#164 = FACE_OUTER_BOUND ( 'NONE', #174, .T. ) ;
#165 = STYLED_ITEM ( 'NONE', ( #112 ), #197 ) ;
#166 = ORIENTED_EDGE ( 'NONE', *, *, #55, .T. ) ;
#167 = ORIENTED_EDGE ( 'NONE', *, *, #14, .F. ) ;
#168 = DIRECTION ( 'NONE',  ( 0.0000000000000000000, 0.0000000000000000000, -1.000000000000000000 ) ) ;
#169 = FILL_AREA_STYLE_COLOUR ( '', #11 ) ;
#170 = DIRECTION ( 'NONE',  ( 1.000000000000000000, 0.0000000000000000000, 0.0000000000000000000 ) ) ;
#171 = AXIS2_PLACEMENT_3D ( 'NONE', #78, #282, #32 ) ;
#172 = ORIENTED_EDGE ( 'NONE', *, *, #68, .T. ) ;
#173 = CARTESIAN_POINT ( 'NONE',  ( 2.500000000000000900, 0.0000000000000000000, 0.0000000000000000000 ) ) ;
#174 = EDGE_LOOP ( 'NONE', ( #281, #13, #301, #46 ) ) ;
#175 =( NAMED_UNIT ( * ) SI_UNIT ( $, .STERADIAN. ) SOLID_ANGLE_UNIT ( ) );
#176 = CARTESIAN_POINT ( 'NONE',  ( 0.0000000000000000000, 0.0000000000000000000, 35.49999999999999300 ) ) ;
#177 = VERTEX_POINT ( 'NONE', #41 ) ;
#178 = DIRECTION ( 'NONE',  ( 1.000000000000000000, 0.0000000000000000000, 0.0000000000000000000 ) ) ;
#179 = ADVANCED_FACE ( 'NONE', ( #144 ), #163, .F. ) ;
#180 = PRESENTATION_LAYER_ASSIGNMENT (  '', '', ( #190 ) ) ;
#181 = SHAPE_DEFINITION_REPRESENTATION ( #185, #197 ) ;
#182 = DIRECTION ( 'NONE',  ( 0.0000000000000000000, -1.000000000000000000, 0.0000000000000000000 ) ) ;
#183 = CIRCLE ( 'NONE', #199, 40.49999999999999300 ) ;
#184 = EDGE_LOOP ( 'NONE', ( #228, #167, #335, #194 ) ) ;
#185 = PRODUCT_DEFINITION_SHAPE ( 'NONE', 'NONE',  #151 ) ;
#186 = DIRECTION ( 'NONE',  ( 0.0000000000000000000, 1.000000000000000000, -1.224646799147353200E-016 ) ) ;
#187 = EDGE_LOOP ( 'NONE', ( #235, #29, #127, #220 ) ) ;
#188 = DIRECTION ( 'NONE',  ( 0.0000000000000000000, 0.0000000000000000000, 1.000000000000000000 ) ) ;
#189 = CARTESIAN_POINT ( 'NONE',  ( 0.0000000000000000000, 0.0000000000000000000, 0.0000000000000000000 ) ) ;
#190 = STYLED_ITEM ( 'NONE', ( #286 ), #35 ) ;
#191 = CARTESIAN_POINT ( 'NONE',  ( 0.1000000000000000100, 0.0000000000000000000, 40.49999999999999300 ) ) ;
#192 = AXIS2_PLACEMENT_3D ( 'NONE', #110, #182, #302 ) ;
#193 = CIRCLE ( 'NONE', #223, 0.1000000000000028600 ) ;
#194 = ORIENTED_EDGE ( 'NONE', *, *, #238, .F. ) ;
#195 = AXIS2_PLACEMENT_3D ( 'NONE', #173, #66, #1 ) ;
#196 = FACE_OUTER_BOUND ( 'NONE', #53, .T. ) ;
#197 = ADVANCED_BREP_SHAPE_REPRESENTATION ( 'GL-211-065-x Dichtung G65-x heco', ( #35, #129 ), #63 ) ;
#198 = CARTESIAN_POINT ( 'NONE',  ( 0.1000000000000000100, 0.0000000000000000000, 0.0000000000000000000 ) ) ;
#199 = AXIS2_PLACEMENT_3D ( 'NONE', #270, #104, #211 ) ;
#200 = CIRCLE ( 'NONE', #277, 35.49999999999999300 ) ;
#201 = AXIS2_PLACEMENT_3D ( 'NONE', #224, #252, #113 ) ;
#202 = CARTESIAN_POINT ( 'NONE',  ( 2.500000000000000400, 0.0000000000000000000, 37.99999999999999300 ) ) ;
#203 = CARTESIAN_POINT ( 'NONE',  ( 0.0000000000000000000, 4.359742604964576600E-015, 35.59999999999999400 ) ) ;
#204 = CIRCLE ( 'NONE', #133, 40.49999999999999300 ) ;
#205 = AXIS2_PLACEMENT_3D ( 'NONE', #237, #264, #293 ) ;
#206 = DIRECTION ( 'NONE',  ( -1.000000000000000000, -0.0000000000000000000, -0.0000000000000000000 ) ) ;
#207 = MECHANICAL_DESIGN_GEOMETRIC_PRESENTATION_REPRESENTATION (  '', ( #190 ), #284 ) ;
#208 = ADVANCED_FACE ( 'NONE', ( #271 ), #15, .T. ) ;
#209 = FACE_OUTER_BOUND ( 'NONE', #184, .T. ) ;
#210 = AXIS2_PLACEMENT_3D ( 'NONE', #242, #79, #150 ) ;
#211 = DIRECTION ( 'NONE',  ( 0.0000000000000000000, 0.0000000000000000000, -1.000000000000000000 ) ) ;
#212 =( GEOMETRIC_REPRESENTATION_CONTEXT ( 3 ) GLOBAL_UNCERTAINTY_ASSIGNED_CONTEXT ( ( #248 ) ) GLOBAL_UNIT_ASSIGNED_CONTEXT ( ( #135, #10, #222 ) ) REPRESENTATION_CONTEXT ( 'NONE', 'WORKASPACE' ) );
#213 = ADVANCED_FACE ( 'NONE', ( #209 ), #295, .T. ) ;
#214 = DIRECTION ( 'NONE',  ( 0.0000000000000000000, 1.224646799147330800E-016, 1.000000000000000000 ) ) ;
#215 = LINE ( 'NONE', #256, #8 ) ;
#216 = EDGE_CURVE ( 'NONE', #316, #334, #332, .T. ) ;
#217 = APPLICATION_PROTOCOL_DEFINITION ( 'draft international standard', 'automotive_design', 1998, #278 ) ;
#218 = DIRECTION ( 'NONE',  ( 0.0000000000000000000, 0.0000000000000000000, -1.000000000000000000 ) ) ;
#219 =( LENGTH_UNIT ( ) NAMED_UNIT ( * ) SI_UNIT ( .MILLI., .METRE. ) );
#220 = ORIENTED_EDGE ( 'NONE', *, *, #27, .F. ) ;
#221 = CARTESIAN_POINT ( 'NONE',  ( 0.1000000000000000100, 0.0000000000000000000, 35.49999999999999300 ) ) ;
#222 =( NAMED_UNIT ( * ) SI_UNIT ( $, .STERADIAN. ) SOLID_ANGLE_UNIT ( ) );
#223 = AXIS2_PLACEMENT_3D ( 'NONE', #260, #37, #121 ) ;
#224 = CARTESIAN_POINT ( 'NONE',  ( 0.1000000000000000100, 0.0000000000000000000, 0.0000000000000000000 ) ) ;
#225 = DIRECTION ( 'NONE',  ( 0.0000000000000000000, 0.0000000000000000000, -1.000000000000000000 ) ) ;
#226 = CIRCLE ( 'NONE', #50, 35.49999999999999300 ) ;
#227 = DIRECTION ( 'NONE',  ( -1.000000000000000000, -0.0000000000000000000, -0.0000000000000000000 ) ) ;
#228 = ORIENTED_EDGE ( 'NONE', *, *, #309, .F. ) ;
#229 = CARTESIAN_POINT ( 'NONE',  ( 0.1000000000000000100, 0.0000000000000000000, 0.0000000000000000000 ) ) ;
#230 = AXIS2_PLACEMENT_3D ( 'NONE', #275, #298, #6 ) ;
#231 = TOROIDAL_SURFACE ( 'NONE', #105, 35.59999999999999400, 0.1000000000000000100 ) ;
#232 = EDGE_LOOP ( 'NONE', ( #44, #166, #244, #268 ) ) ;
#233 = MECHANICAL_DESIGN_GEOMETRIC_PRESENTATION_REPRESENTATION (  '', ( #165 ), #212 ) ;
#234 = SURFACE_STYLE_FILL_AREA ( #303 ) ;
#235 = ORIENTED_EDGE ( 'NONE', *, *, #124, .T. ) ;
#236 = DIRECTION ( 'NONE',  ( -0.0000000000000000000, 1.000000000000000000, 1.224646799147353200E-016 ) ) ;
#237 = CARTESIAN_POINT ( 'NONE',  ( 0.0000000000000000000, 0.0000000000000000000, 0.0000000000000000000 ) ) ;
#238 = EDGE_CURVE ( 'NONE', #61, #243, #183, .T. ) ;
#239 = VECTOR ( 'NONE', #262, 1000.000000000000000 ) ;
#240 = AXIS2_PLACEMENT_3D ( 'NONE', #251, #308, #218 ) ;
#241 = ADVANCED_FACE ( 'NONE', ( #81 ), #115, .F. ) ;
#242 = CARTESIAN_POINT ( 'NONE',  ( 0.1000000000000000100, 0.0000000000000000000, -40.39999999999999100 ) ) ;
#243 = VERTEX_POINT ( 'NONE', #54 ) ;
#244 = ORIENTED_EDGE ( 'NONE', *, *, #95, .F. ) ;
#245 = CARTESIAN_POINT ( 'NONE',  ( 0.0000000000000000000, 4.953696302551041900E-015, 40.39999999999999100 ) ) ;
#246 = DIRECTION ( 'NONE',  ( 0.0000000000000000000, 0.0000000000000000000, -1.000000000000000000 ) ) ;
#247 = DIRECTION ( 'NONE',  ( 0.0000000000000000000, 0.0000000000000000000, 1.000000000000000000 ) ) ;
#248 = UNCERTAINTY_MEASURE_WITH_UNIT (LENGTH_MEASURE( 1.000000000000000100E-005 ), #135, 'distance_accuracy_value', 'NONE');
#249 = ORIENTED_EDGE ( 'NONE', *, *, #216, .T. ) ;
#250 = EDGE_CURVE ( 'NONE', #119, #243, #31, .T. ) ;
#251 = CARTESIAN_POINT ( 'NONE',  ( 0.0000000000000000000, 35.49999999999999300, 0.0000000000000000000 ) ) ;
#252 = DIRECTION ( 'NONE',  ( 1.000000000000000000, 0.0000000000000000000, 0.0000000000000000000 ) ) ;
#253 = DIRECTION ( 'NONE',  ( 0.0000000000000000000, 0.0000000000000000000, 1.000000000000000000 ) ) ;
#254 = CIRCLE ( 'NONE', #230, 35.49999999999999300 ) ;
#255 = ORIENTED_EDGE ( 'NONE', *, *, #34, .T. ) ;
#256 = CARTESIAN_POINT ( 'NONE',  ( 0.0000000000000000000, 0.0000000000000000000, 40.49999999999999300 ) ) ;
#257 = AXIS2_PLACEMENT_3D ( 'NONE', #9, #325, #132 ) ;
#258 = ORIENTED_EDGE ( 'NONE', *, *, #57, .T. ) ;
#259 = AXIS2_PLACEMENT_3D ( 'NONE', #93, #102, #2 ) ;
#260 = CARTESIAN_POINT ( 'NONE',  ( 0.1000000000000000100, 4.359742604964576600E-015, 35.59999999999999400 ) ) ;
#261 = TOROIDAL_SURFACE ( 'NONE', #294, 37.99999999999999300, 2.500000000000002200 ) ;
#262 = DIRECTION ( 'NONE',  ( -1.000000000000000000, -0.0000000000000000000, -0.0000000000000000000 ) ) ;
#263 = DIRECTION ( 'NONE',  ( 0.0000000000000000000, -1.000000000000000000, 0.0000000000000000000 ) ) ;
#264 = DIRECTION ( 'NONE',  ( -1.000000000000000000, -0.0000000000000000000, -0.0000000000000000000 ) ) ;
#265 = PRODUCT_RELATED_PRODUCT_CATEGORY ( 'part', '', ( #94 ) ) ;
#266 = ORIENTED_EDGE ( 'NONE', *, *, #130, .T. ) ;
#267 = DIRECTION ( 'NONE',  ( 0.0000000000000000000, 0.0000000000000000000, -1.000000000000000000 ) ) ;
#268 = ORIENTED_EDGE ( 'NONE', *, *, #216, .F. ) ;
#269 = DIRECTION ( 'NONE',  ( -1.000000000000000000, -0.0000000000000000000, -0.0000000000000000000 ) ) ;
#270 = CARTESIAN_POINT ( 'NONE',  ( 0.1000000000000000100, 0.0000000000000000000, 0.0000000000000000000 ) ) ;
#271 = FACE_OUTER_BOUND ( 'NONE', #91, .T. ) ;
#272 = ORIENTED_EDGE ( 'NONE', *, *, #62, .F. ) ;
#273 = CARTESIAN_POINT ( 'NONE',  ( 0.0000000000000000000, 0.0000000000000000000, 0.0000000000000000000 ) ) ;
#274 = CARTESIAN_POINT ( 'NONE',  ( 0.1000000000000000100, 0.0000000000000000000, 0.0000000000000000000 ) ) ;
#275 = CARTESIAN_POINT ( 'NONE',  ( 0.1000000000000000100, 0.0000000000000000000, 0.0000000000000000000 ) ) ;
#276 =( NAMED_UNIT ( * ) SI_UNIT ( $, .STERADIAN. ) SOLID_ANGLE_UNIT ( ) );
#277 = AXIS2_PLACEMENT_3D ( 'NONE', #71, #100, #69 ) ;
#278 = APPLICATION_CONTEXT ( 'automotive_design' ) ;
#279 = FACE_BOUND ( 'NONE', #82, .T. ) ;
#280 = DIRECTION ( 'NONE',  ( -1.000000000000000000, -0.0000000000000000000, -0.0000000000000000000 ) ) ;
#281 = ORIENTED_EDGE ( 'NONE', *, *, #160, .F. ) ;
#282 = DIRECTION ( 'NONE',  ( -1.000000000000000000, -0.0000000000000000000, -0.0000000000000000000 ) ) ;
#283 = CIRCLE ( 'NONE', #338, 40.49999999999999300 ) ;
#284 =( GEOMETRIC_REPRESENTATION_CONTEXT ( 3 ) GLOBAL_UNCERTAINTY_ASSIGNED_CONTEXT ( ( #329 ) ) GLOBAL_UNIT_ASSIGNED_CONTEXT ( ( #74, #131, #175 ) ) REPRESENTATION_CONTEXT ( 'NONE', 'WORKASPACE' ) );
#285 = DIRECTION ( 'NONE',  ( -1.000000000000000000, -0.0000000000000000000, -0.0000000000000000000 ) ) ;
#286 = PRESENTATION_STYLE_ASSIGNMENT (( #292 ) ) ;
#287 = DIRECTION ( 'NONE',  ( 0.0000000000000000000, 0.0000000000000000000, 1.000000000000000000 ) ) ;
#288 = AXIS2_PLACEMENT_3D ( 'NONE', #20, #206, #43 ) ;
#289 = FACE_OUTER_BOUND ( 'NONE', #324, .T. ) ;
#290 = VERTEX_POINT ( 'NONE', #154 ) ;
#291 = EDGE_CURVE ( 'NONE', #177, #290, #12, .T. ) ;
#292 = SURFACE_STYLE_USAGE ( .BOTH. , #22 ) ;
#293 = DIRECTION ( 'NONE',  ( 0.0000000000000000000, 0.0000000000000000000, 1.000000000000000000 ) ) ;
#294 = AXIS2_PLACEMENT_3D ( 'NONE', #143, #128, #287 ) ;
#295 = TOROIDAL_SURFACE ( 'NONE', #98, 40.39999999999999100, 0.1000000000000000100 ) ;
#296 = ORIENTED_EDGE ( 'NONE', *, *, #107, .F. ) ;
#297 = CARTESIAN_POINT ( 'NONE',  ( 0.0000000000000000000, 0.0000000000000000000, 0.0000000000000000000 ) ) ;
#298 = DIRECTION ( 'NONE',  ( -1.000000000000000000, -0.0000000000000000000, -0.0000000000000000000 ) ) ;
#299 = DIRECTION ( 'NONE',  ( 0.0000000000000000000, 0.0000000000000000000, 1.000000000000000000 ) ) ;
#300 = CIRCLE ( 'NONE', #195, 35.49999999999999300 ) ;
#301 = ORIENTED_EDGE ( 'NONE', *, *, #21, .F. ) ;
#302 = DIRECTION ( 'NONE',  ( 0.0000000000000000000, 0.0000000000000000000, -1.000000000000000000 ) ) ;
#303 = FILL_AREA_STYLE ('',( #155 ) ) ;
#304 = EDGE_CURVE ( 'NONE', #316, #19, #254, .T. ) ;
#305 = APPLICATION_PROTOCOL_DEFINITION ( 'draft international standard', 'automotive_design', 1998, #162 ) ;
#306 = SURFACE_SIDE_STYLE ('',( #234 ) ) ;
#307 = COLOUR_RGB ( '',1.000000000000000000, 0.0000000000000000000, 0.0000000000000000000 ) ;
#308 = DIRECTION ( 'NONE',  ( 1.000000000000000000, 0.0000000000000000000, 0.0000000000000000000 ) ) ;
#309 = EDGE_CURVE ( 'NONE', #320, #61, #140, .T. ) ;
#310 = LINE ( 'NONE', #48, #239 ) ;
#311 = DIRECTION ( 'NONE',  ( -1.000000000000000000, -0.0000000000000000000, -0.0000000000000000000 ) ) ;
#312 = ORIENTED_EDGE ( 'NONE', *, *, #120, .F. ) ;
#313 = CARTESIAN_POINT ( 'NONE',  ( 0.0000000000000000000, 0.0000000000000000000, 0.0000000000000000000 ) ) ;
#314 = AXIS2_PLACEMENT_3D ( 'NONE', #23, #186, #214 ) ;
#315 = VECTOR ( 'NONE', #227, 1000.000000000000000 ) ;
#316 = VERTEX_POINT ( 'NONE', #328 ) ;
#317 = CARTESIAN_POINT ( 'NONE',  ( 0.0000000000000000000, 0.0000000000000000000, -40.39999999999999100 ) ) ;
#318 = CARTESIAN_POINT ( 'NONE',  ( 2.500000000000000900, 0.0000000000000000000, 35.49999999999999300 ) ) ;
#319 = AXIS2_PLACEMENT_3D ( 'NONE', #297, #56, #299 ) ;
#320 = VERTEX_POINT ( 'NONE', #245 ) ;
#321 = ADVANCED_FACE ( 'NONE', ( #289 ), #40, .T. ) ;
#322 = EDGE_CURVE ( 'NONE', #146, #334, #106, .T. ) ;
#323 = CIRCLE ( 'NONE', #259, 35.59999999999999400 ) ;
#324 = EDGE_LOOP ( 'NONE', ( #337, #172, #116, #326 ) ) ;
#325 = DIRECTION ( 'NONE',  ( -1.000000000000000000, -0.0000000000000000000, -0.0000000000000000000 ) ) ;
#326 = ORIENTED_EDGE ( 'NONE', *, *, #34, .F. ) ;
#327 = PRODUCT_DEFINITION_CONTEXT ( 'detailed design', #162, 'design' ) ;
#328 = CARTESIAN_POINT ( 'NONE',  ( 0.1000000000000000100, 4.347496136973102500E-015, -35.49999999999999300 ) ) ;
#329 = UNCERTAINTY_MEASURE_WITH_UNIT (LENGTH_MEASURE( 1.000000000000000100E-005 ), #74, 'distance_accuracy_value', 'NONE');
#330 = EDGE_LOOP ( 'NONE', ( #272, #77, #141, #123 ) ) ;
#331 = ORIENTED_EDGE ( 'NONE', *, *, #55, .F. ) ;
#332 = CIRCLE ( 'NONE', #192, 0.1000000000000028600 ) ;
#333 =( NAMED_UNIT ( * ) PLANE_ANGLE_UNIT ( ) SI_UNIT ( $, .RADIAN. ) );
#334 = VERTEX_POINT ( 'NONE', #85 ) ;
#335 = ORIENTED_EDGE ( 'NONE', *, *, #250, .T. ) ;
#336 = AXIS2_PLACEMENT_3D ( 'NONE', #273, #83, #247 ) ;
#337 = ORIENTED_EDGE ( 'NONE', *, *, #45, .T. ) ;
#338 = AXIS2_PLACEMENT_3D ( 'NONE', #157, #280, #253 ) ;
#339 = CYLINDRICAL_SURFACE ( 'NONE', #171, 40.49999999999999300 ) ;
#340 = FACE_OUTER_BOUND ( 'NONE', #159, .T. ) ;
ENDSEC;
END-ISO-10303-21;
