ISO-10303-21;
HEADER;
FILE_DESCRIPTION (( 'STEP AP214' ),
    '1' );
FILE_NAME ('GL-211-100-x Dichtung G100-x heco.STEP',
    '2017-09-01T10:00:47',
    ( '' ),
    ( '' ),
    'SwSTEP 2.0',
    'SolidWorks 2016',
    '' );
FILE_SCHEMA (( 'AUTOMOTIVE_DESIGN' ));
ENDSEC;

DATA;
#1 = EDGE_LOOP ( 'NONE', ( #284, #235 ) ) ;
#2 = ORIENTED_EDGE ( 'NONE', *, *, #253, .F. ) ;
#3 = DIRECTION ( 'NONE',  ( 0.0000000000000000000, 0.0000000000000000000, -1.000000000000000000 ) ) ;
#4 = FACE_OUTER_BOUND ( 'NONE', #70, .T. ) ;
#5 = AXIS2_PLACEMENT_3D ( 'NONE', #86, #32, #298 ) ;
#6 = DIRECTION ( 'NONE',  ( 1.000000000000000000, 0.0000000000000000000, 0.0000000000000000000 ) ) ;
#7 = EDGE_LOOP ( 'NONE', ( #21, #282, #90, #202 ) ) ;
#8 = ORIENTED_EDGE ( 'NONE', *, *, #99, .T. ) ;
#9 = PRODUCT_DEFINITION_FORMATION_WITH_SPECIFIED_SOURCE ( 'ANY', '', #161, .NOT_KNOWN. ) ;
#10 = CARTESIAN_POINT ( 'NONE',  ( 0.1000000000000000100, 0.0000000000000000000, 0.0000000000000000000 ) ) ;
#11 = CARTESIAN_POINT ( 'NONE',  ( 3.500000000000000400, 0.0000000000000000000, 0.0000000000000000000 ) ) ;
#12 = AXIS2_PLACEMENT_3D ( 'NONE', #56, #93, #3 ) ;
#13 = DIRECTION ( 'NONE',  ( -1.000000000000000000, -0.0000000000000000000, -0.0000000000000000000 ) ) ;
#14 = CIRCLE ( 'NONE', #102, 52.09999999999999400 ) ;
#15 = DIRECTION ( 'NONE',  ( 1.000000000000000000, 0.0000000000000000000, 0.0000000000000000000 ) ) ;
#16 = AXIS2_PLACEMENT_3D ( 'NONE', #185, #285, #109 ) ;
#17 = EDGE_CURVE ( 'NONE', #72, #160, #173, .T. ) ;
#18 = DIRECTION ( 'NONE',  ( -1.000000000000000000, -0.0000000000000000000, -0.0000000000000000000 ) ) ;
#19 = ORIENTED_EDGE ( 'NONE', *, *, #155, .F. ) ;
#20 = DIRECTION ( 'NONE',  ( 0.0000000000000000000, 0.0000000000000000000, -1.000000000000000000 ) ) ;
#21 = ORIENTED_EDGE ( 'NONE', *, *, #17, .F. ) ;
#22 = DIRECTION ( 'NONE',  ( -1.000000000000000000, -0.0000000000000000000, -0.0000000000000000000 ) ) ;
#23 = CARTESIAN_POINT ( 'NONE',  ( 0.1000000000000000100, 0.0000000000000000000, -56.89999999999999100 ) ) ;
#24 = AXIS2_PLACEMENT_3D ( 'NONE', #299, #35, #201 ) ;
#25 =( LENGTH_UNIT ( ) NAMED_UNIT ( * ) SI_UNIT ( .MILLI., .METRE. ) );
#26 = DIRECTION ( 'NONE',  ( 1.000000000000000000, 0.0000000000000000000, 0.0000000000000000000 ) ) ;
#27 = ORIENTED_EDGE ( 'NONE', *, *, #337, .F. ) ;
#28 = DIRECTION ( 'NONE',  ( 0.0000000000000000000, 0.0000000000000000000, 1.000000000000000000 ) ) ;
#29 = PRODUCT_DEFINITION ( 'UNKNOWN', '', #9, #292 ) ;
#30 = AXIS2_PLACEMENT_3D ( 'NONE', #273, #57, #207 ) ;
#31 = ORIENTED_EDGE ( 'NONE', *, *, #275, .F. ) ;
#32 = DIRECTION ( 'NONE',  ( 0.0000000000000000000, 1.000000000000000000, -1.224646799147353200E-016 ) ) ;
#33 = FACE_OUTER_BOUND ( 'NONE', #209, .T. ) ;
#34 = VERTEX_POINT ( 'NONE', #145 ) ;
#35 = DIRECTION ( 'NONE',  ( -1.000000000000000000, -0.0000000000000000000, -0.0000000000000000000 ) ) ;
#36 = DIRECTION ( 'NONE',  ( -1.000000000000000000, -0.0000000000000000000, -0.0000000000000000000 ) ) ;
#37 = CYLINDRICAL_SURFACE ( 'NONE', #223, 56.99999999999999300 ) ;
#38 = DIRECTION ( 'NONE',  ( -0.0000000000000000000, 1.000000000000000000, 1.224646799147353200E-016 ) ) ;
#39 = AXIS2_PLACEMENT_3D ( 'NONE', #11, #67, #252 ) ;
#40 = CYLINDRICAL_SURFACE ( 'NONE', #111, 51.99999999999999300 ) ;
#41 = ORIENTED_EDGE ( 'NONE', *, *, #322, .T. ) ;
#42 = CARTESIAN_POINT ( 'NONE',  ( 0.0000000000000000000, 0.0000000000000000000, 56.99999999999999300 ) ) ;
#43 = DIRECTION ( 'NONE',  ( -1.000000000000000000, -0.0000000000000000000, -0.0000000000000000000 ) ) ;
#44 = TOROIDAL_SURFACE ( 'NONE', #45, 56.89999999999999100, 0.1000000000000000100 ) ;
#45 = AXIS2_PLACEMENT_3D ( 'NONE', #10, #205, #249 ) ;
#46 = AXIS2_PLACEMENT_3D ( 'NONE', #239, #43, #236 ) ;
#47 = APPLICATION_PROTOCOL_DEFINITION ( 'draft international standard', 'automotive_design', 1998, #264 ) ;
#48 = TOROIDAL_SURFACE ( 'NONE', #66, 54.49999999999999300, 2.500000000000002200 ) ;
#49 = ORIENTED_EDGE ( 'NONE', *, *, #99, .F. ) ;
#50 = EDGE_CURVE ( 'NONE', #127, #34, #301, .T. ) ;
#51 = CARTESIAN_POINT ( 'NONE',  ( 0.0000000000000000000, 52.00000000000000000, 0.0000000000000000000 ) ) ;
#52 = VERTEX_POINT ( 'NONE', #175 ) ;
#53 = FACE_OUTER_BOUND ( 'NONE', #136, .T. ) ;
#54 = MECHANICAL_DESIGN_GEOMETRIC_PRESENTATION_REPRESENTATION (  '', ( #164 ), #134 ) ;
#55 = CIRCLE ( 'NONE', #12, 56.99999999999999300 ) ;
#56 = CARTESIAN_POINT ( 'NONE',  ( 0.1000000000000000100, 0.0000000000000000000, 0.0000000000000000000 ) ) ;
#57 = DIRECTION ( 'NONE',  ( 1.000000000000000000, 0.0000000000000000000, 0.0000000000000000000 ) ) ;
#58 = ORIENTED_EDGE ( 'NONE', *, *, #322, .F. ) ;
#59 = PRESENTATION_LAYER_ASSIGNMENT (  '', '', ( #164 ) ) ;
#60 = VERTEX_POINT ( 'NONE', #146 ) ;
#61 = DIRECTION ( 'NONE',  ( 0.0000000000000000000, 0.0000000000000000000, 1.000000000000000000 ) ) ;
#62 = AXIS2_PLACEMENT_3D ( 'NONE', #124, #13, #307 ) ;
#63 = CARTESIAN_POINT ( 'NONE',  ( 0.0000000000000000000, 0.0000000000000000000, 0.0000000000000000000 ) ) ;
#64 = CIRCLE ( 'NONE', #288, 0.1000000000000028600 ) ;
#65 = CARTESIAN_POINT ( 'NONE',  ( 0.0000000000000000000, 6.368163355566235600E-015, -51.99999999999999300 ) ) ;
#66 = AXIS2_PLACEMENT_3D ( 'NONE', #287, #18, #216 ) ;
#67 = DIRECTION ( 'NONE',  ( -1.000000000000000000, -0.0000000000000000000, -0.0000000000000000000 ) ) ;
#68 = DIRECTION ( 'NONE',  ( -1.000000000000000000, -0.0000000000000000000, -0.0000000000000000000 ) ) ;
#69 = ADVANCED_FACE ( 'NONE', ( #33 ), #323, .T. ) ;
#70 = EDGE_LOOP ( 'NONE', ( #257, #141, #41, #334 ) ) ;
#71 = SURFACE_STYLE_FILL_AREA ( #243 ) ;
#72 = VERTEX_POINT ( 'NONE', #225 ) ;
#73 = DIRECTION ( 'NONE',  ( 0.0000000000000000000, -1.000000000000000000, 0.0000000000000000000 ) ) ;
#74 = DIRECTION ( 'NONE',  ( 0.0000000000000000000, 1.224646799147330800E-016, 1.000000000000000000 ) ) ;
#75 = AXIS2_PLACEMENT_3D ( 'NONE', #194, #28, #26 ) ;
#76 = DIRECTION ( 'NONE',  ( 0.0000000000000000000, 0.0000000000000000000, -1.000000000000000000 ) ) ;
#77 = EDGE_CURVE ( 'NONE', #91, #119, #234, .T. ) ;
#78 = DIRECTION ( 'NONE',  ( 1.000000000000000000, 0.0000000000000000000, 0.0000000000000000000 ) ) ;
#79 = ORIENTED_EDGE ( 'NONE', *, *, #166, .F. ) ;
#80 = FILL_AREA_STYLE_COLOUR ( '', #228 ) ;
#81 = CLOSED_SHELL ( 'NONE', ( #69, #163, #237, #260, #158, #107, #330, #152, #254, #226, #100 ) ) ;
#82 = EDGE_LOOP ( 'NONE', ( #306, #2, #302, #115 ) ) ;
#83 = PRODUCT_CONTEXT ( 'NONE', #267, 'mechanical' ) ;
#84 = AXIS2_PLACEMENT_3D ( 'NONE', #121, #101, #61 ) ;
#85 = CYLINDRICAL_SURFACE ( 'NONE', #123, 51.99999999999999300 ) ;
#86 = CARTESIAN_POINT ( 'NONE',  ( 0.1000000000000000100, 6.968240287148438800E-015, 56.89999999999999100 ) ) ;
#87 = AXIS2_PLACEMENT_3D ( 'NONE', #312, #68, #20 ) ;
#88 = EDGE_CURVE ( 'NONE', #160, #60, #55, .T. ) ;
#89 = ADVANCED_BREP_SHAPE_REPRESENTATION ( 'GL-211-100-x Dichtung G100-x heco', ( #304, #75 ), #200 ) ;
#90 = ORIENTED_EDGE ( 'NONE', *, *, #208, .T. ) ;
#91 = VERTEX_POINT ( 'NONE', #248 ) ;
#92 = VERTEX_POINT ( 'NONE', #245 ) ;
#93 = DIRECTION ( 'NONE',  ( 1.000000000000000000, 0.0000000000000000000, 0.0000000000000000000 ) ) ;
#94 = CARTESIAN_POINT ( 'NONE',  ( 3.500000000000000400, 6.980486755139912900E-015, -56.99999999999999300 ) ) ;
#95 = UNCERTAINTY_MEASURE_WITH_UNIT (LENGTH_MEASURE( 1.000000000000000100E-005 ), #25, 'distance_accuracy_value', 'NONE');
#96 = PRODUCT_RELATED_PRODUCT_CATEGORY ( 'part', '', ( #161 ) ) ;
#97 = CYLINDRICAL_SURFACE ( 'NONE', #84, 56.99999999999999300 ) ;
#98 = DIRECTION ( 'NONE',  ( 1.000000000000000000, 0.0000000000000000000, 0.0000000000000000000 ) ) ;
#99 = EDGE_CURVE ( 'NONE', #172, #171, #332, .T. ) ;
#100 = ADVANCED_FACE ( 'NONE', ( #153 ), #118, .T. ) ;
#101 = DIRECTION ( 'NONE',  ( -1.000000000000000000, -0.0000000000000000000, -0.0000000000000000000 ) ) ;
#102 = AXIS2_PLACEMENT_3D ( 'NONE', #63, #98, #154 ) ;
#103 = DIRECTION ( 'NONE',  ( 0.0000000000000000000, 0.0000000000000000000, 1.000000000000000000 ) ) ;
#104 = PRESENTATION_STYLE_ASSIGNMENT (( #165 ) ) ;
#105 = DIRECTION ( 'NONE',  ( -1.000000000000000000, -0.0000000000000000000, -0.0000000000000000000 ) ) ;
#106 = EDGE_LOOP ( 'NONE', ( #217, #186, #313, #58 ) ) ;
#107 = ADVANCED_FACE ( 'NONE', ( #4 ), #40, .F. ) ;
#108 = DIRECTION ( 'NONE',  ( 0.0000000000000000000, 0.0000000000000000000, 1.000000000000000000 ) ) ;
#109 = DIRECTION ( 'NONE',  ( 0.0000000000000000000, 0.0000000000000000000, -1.000000000000000000 ) ) ;
#110 = CIRCLE ( 'NONE', #231, 51.99999999999999300 ) ;
#111 = AXIS2_PLACEMENT_3D ( 'NONE', #256, #122, #251 ) ;
#112 =( GEOMETRIC_REPRESENTATION_CONTEXT ( 3 ) GLOBAL_UNCERTAINTY_ASSIGNED_CONTEXT ( ( #279 ) ) GLOBAL_UNIT_ASSIGNED_CONTEXT ( ( #213, #187, #336 ) ) REPRESENTATION_CONTEXT ( 'NONE', 'WORKASPACE' ) );
#113 = EDGE_CURVE ( 'NONE', #34, #92, #265, .T. ) ;
#114 = CIRCLE ( 'NONE', #142, 2.500000000000002200 ) ;
#115 = ORIENTED_EDGE ( 'NONE', *, *, #176, .F. ) ;
#116 = FACE_OUTER_BOUND ( 'NONE', #204, .T. ) ;
#117 = AXIS2_PLACEMENT_3D ( 'NONE', #296, #276, #143 ) ;
#118 = TOROIDAL_SURFACE ( 'NONE', #30, 52.09999999999999400, 0.1000000000000000100 ) ;
#119 = VERTEX_POINT ( 'NONE', #230 ) ;
#120 = CIRCLE ( 'NONE', #196, 0.1000000000000028600 ) ;
#121 = CARTESIAN_POINT ( 'NONE',  ( 0.0000000000000000000, 0.0000000000000000000, 0.0000000000000000000 ) ) ;
#122 = DIRECTION ( 'NONE',  ( -1.000000000000000000, -0.0000000000000000000, -0.0000000000000000000 ) ) ;
#123 = AXIS2_PLACEMENT_3D ( 'NONE', #156, #36, #103 ) ;
#124 = CARTESIAN_POINT ( 'NONE',  ( 3.500000000000000400, 0.0000000000000000000, 0.0000000000000000000 ) ) ;
#125 = CIRCLE ( 'NONE', #169, 51.99999999999999300 ) ;
#126 = LINE ( 'NONE', #42, #244 ) ;
#127 = VERTEX_POINT ( 'NONE', #329 ) ;
#128 = CARTESIAN_POINT ( 'NONE',  ( 0.0000000000000000000, 0.0000000000000000000, 51.99999999999999300 ) ) ;
#129 = DIRECTION ( 'NONE',  ( 0.0000000000000000000, -1.000000000000000000, 0.0000000000000000000 ) ) ;
#130 = VERTEX_POINT ( 'NONE', #324 ) ;
#131 = PRESENTATION_STYLE_ASSIGNMENT (( #317 ) ) ;
#132 = CARTESIAN_POINT ( 'NONE',  ( 0.1000000000000000100, 0.0000000000000000000, -52.09999999999999400 ) ) ;
#133 = DIRECTION ( 'NONE',  ( 0.0000000000000000000, 0.0000000000000000000, 1.000000000000000000 ) ) ;
#134 =( GEOMETRIC_REPRESENTATION_CONTEXT ( 3 ) GLOBAL_UNCERTAINTY_ASSIGNED_CONTEXT ( ( #95 ) ) GLOBAL_UNIT_ASSIGNED_CONTEXT ( ( #25, #168, #218 ) ) REPRESENTATION_CONTEXT ( 'NONE', 'WORKASPACE' ) );
#135 = EDGE_CURVE ( 'NONE', #172, #60, #229, .T. ) ;
#136 = EDGE_LOOP ( 'NONE', ( #199, #8, #325, #147 ) ) ;
#137 =( NAMED_UNIT ( * ) SI_UNIT ( $, .STERADIAN. ) SOLID_ANGLE_UNIT ( ) );
#138 = DIRECTION ( 'NONE',  ( 1.000000000000000000, 0.0000000000000000000, 0.0000000000000000000 ) ) ;
#139 = CARTESIAN_POINT ( 'NONE',  ( 0.1000000000000000100, 0.0000000000000000000, 0.0000000000000000000 ) ) ;
#140 = ORIENTED_EDGE ( 'NONE', *, *, #189, .F. ) ;
#141 = ORIENTED_EDGE ( 'NONE', *, *, #50, .F. ) ;
#142 = AXIS2_PLACEMENT_3D ( 'NONE', #150, #38, #227 ) ;
#143 = DIRECTION ( 'NONE',  ( 0.0000000000000000000, 0.0000000000000000000, -1.000000000000000000 ) ) ;
#144 = VECTOR ( 'NONE', #181, 1000.000000000000000 ) ;
#145 = CARTESIAN_POINT ( 'NONE',  ( 3.500000000000001300, 6.368163355566235600E-015, -51.99999999999999300 ) ) ;
#146 = CARTESIAN_POINT ( 'NONE',  ( 0.1000000000000000100, 6.980486755139912900E-015, -56.99999999999999300 ) ) ;
#147 = ORIENTED_EDGE ( 'NONE', *, *, #88, .T. ) ;
#148 = EDGE_LOOP ( 'NONE', ( #79, #277, #278, #49 ) ) ;
#149 = CARTESIAN_POINT ( 'NONE',  ( 0.1000000000000000100, 0.0000000000000000000, 56.99999999999999300 ) ) ;
#150 = CARTESIAN_POINT ( 'NONE',  ( 3.500000000000000900, 6.674325055353074300E-015, -54.49999999999999300 ) ) ;
#151 = AXIS2_PLACEMENT_3D ( 'NONE', #283, #78, #340 ) ;
#152 = ADVANCED_FACE ( 'NONE', ( #53 ), #97, .T. ) ;
#153 = FACE_OUTER_BOUND ( 'NONE', #82, .T. ) ;
#154 = DIRECTION ( 'NONE',  ( 0.0000000000000000000, 0.0000000000000000000, -1.000000000000000000 ) ) ;
#155 = EDGE_CURVE ( 'NONE', #171, #172, #167, .T. ) ;
#156 = CARTESIAN_POINT ( 'NONE',  ( 0.0000000000000000000, 0.0000000000000000000, 0.0000000000000000000 ) ) ;
#157 = DIRECTION ( 'NONE',  ( 0.0000000000000000000, 0.0000000000000000000, -1.000000000000000000 ) ) ;
#158 = ADVANCED_FACE ( 'NONE', ( #198 ), #85, .F. ) ;
#159 = FILL_AREA_STYLE_COLOUR ( '', #177 ) ;
#160 = VERTEX_POINT ( 'NONE', #149 ) ;
#161 = PRODUCT ( 'GL-211-100-x Dichtung G100-x heco', 'GL-211-100-x Dichtung G100-x heco', '', ( #83 ) ) ;
#162 = ORIENTED_EDGE ( 'NONE', *, *, #135, .T. ) ;
#163 = ADVANCED_FACE ( 'NONE', ( #262 ), #44, .T. ) ;
#164 = STYLED_ITEM ( 'NONE', ( #131 ), #89 ) ;
#165 = SURFACE_STYLE_USAGE ( .BOTH. , #238 ) ;
#166 = EDGE_CURVE ( 'NONE', #34, #172, #114, .T. ) ;
#167 = CIRCLE ( 'NONE', #62, 56.99999999999999300 ) ;
#168 =( NAMED_UNIT ( * ) PLANE_ANGLE_UNIT ( ) SI_UNIT ( $, .RADIAN. ) );
#169 = AXIS2_PLACEMENT_3D ( 'NONE', #139, #220, #190 ) ;
#170 = EDGE_CURVE ( 'NONE', #72, #52, #192, .T. ) ;
#171 = VERTEX_POINT ( 'NONE', #305 ) ;
#172 = VERTEX_POINT ( 'NONE', #94 ) ;
#173 = CIRCLE ( 'NONE', #5, 0.1000000000000028600 ) ;
#174 = STYLED_ITEM ( 'NONE', ( #104 ), #304 ) ;
#175 = CARTESIAN_POINT ( 'NONE',  ( 0.0000000000000000000, 0.0000000000000000000, -56.89999999999999100 ) ) ;
#176 = EDGE_CURVE ( 'NONE', #119, #91, #14, .T. ) ;
#177 = COLOUR_RGB ( '',1.000000000000000000, 0.0000000000000000000, 0.0000000000000000000 ) ;
#178 = PRODUCT_DEFINITION_SHAPE ( 'NONE', 'NONE',  #29 ) ;
#179 = ORIENTED_EDGE ( 'NONE', *, *, #170, .F. ) ;
#180 = CIRCLE ( 'NONE', #87, 56.89999999999999100 ) ;
#181 = DIRECTION ( 'NONE',  ( -1.000000000000000000, -0.0000000000000000000, -0.0000000000000000000 ) ) ;
#182 = AXIS2_PLACEMENT_3D ( 'NONE', #303, #328, #280 ) ;
#183 = CARTESIAN_POINT ( 'NONE',  ( 0.1000000000000000100, 0.0000000000000000000, 0.0000000000000000000 ) ) ;
#184 = AXIS2_PLACEMENT_3D ( 'NONE', #51, #138, #314 ) ;
#185 = CARTESIAN_POINT ( 'NONE',  ( 3.500000000000000900, 0.0000000000000000000, 54.49999999999999300 ) ) ;
#186 = ORIENTED_EDGE ( 'NONE', *, *, #113, .T. ) ;
#187 =( NAMED_UNIT ( * ) PLANE_ANGLE_UNIT ( ) SI_UNIT ( $, .RADIAN. ) );
#188 = CIRCLE ( 'NONE', #16, 2.500000000000002200 ) ;
#189 = EDGE_CURVE ( 'NONE', #92, #91, #64, .T. ) ;
#190 = DIRECTION ( 'NONE',  ( 0.0000000000000000000, 0.0000000000000000000, -1.000000000000000000 ) ) ;
#191 =( LENGTH_UNIT ( ) NAMED_UNIT ( * ) SI_UNIT ( .MILLI., .METRE. ) );
#192 = CIRCLE ( 'NONE', #182, 56.89999999999999100 ) ;
#193 = ORIENTED_EDGE ( 'NONE', *, *, #77, .F. ) ;
#194 = CARTESIAN_POINT ( 'NONE',  ( 0.0000000000000000000, 0.0000000000000000000, 0.0000000000000000000 ) ) ;
#195 = ORIENTED_EDGE ( 'NONE', *, *, #155, .T. ) ;
#196 = AXIS2_PLACEMENT_3D ( 'NONE', #23, #129, #157 ) ;
#197 = DIRECTION ( 'NONE',  ( 0.0000000000000000000, 0.0000000000000000000, -1.000000000000000000 ) ) ;
#198 = FACE_OUTER_BOUND ( 'NONE', #106, .T. ) ;
#199 = ORIENTED_EDGE ( 'NONE', *, *, #135, .F. ) ;
#200 =( GEOMETRIC_REPRESENTATION_CONTEXT ( 3 ) GLOBAL_UNCERTAINTY_ASSIGNED_CONTEXT ( ( #222 ) ) GLOBAL_UNIT_ASSIGNED_CONTEXT ( ( #191, #291, #137 ) ) REPRESENTATION_CONTEXT ( 'NONE', 'WORKASPACE' ) );
#201 = DIRECTION ( 'NONE',  ( 0.0000000000000000000, 0.0000000000000000000, 1.000000000000000000 ) ) ;
#202 = ORIENTED_EDGE ( 'NONE', *, *, #88, .F. ) ;
#203 = FACE_OUTER_BOUND ( 'NONE', #255, .T. ) ;
#204 = EDGE_LOOP ( 'NONE', ( #211, #214, #19, #295 ) ) ;
#205 = DIRECTION ( 'NONE',  ( 1.000000000000000000, 0.0000000000000000000, 0.0000000000000000000 ) ) ;
#206 = AXIS2_PLACEMENT_3D ( 'NONE', #232, #289, #215 ) ;
#207 = DIRECTION ( 'NONE',  ( 0.0000000000000000000, 0.0000000000000000000, -1.000000000000000000 ) ) ;
#208 = EDGE_CURVE ( 'NONE', #52, #60, #120, .T. ) ;
#209 = EDGE_LOOP ( 'NONE', ( #27, #269, #193, #140 ) ) ;
#210 = DIRECTION ( 'NONE',  ( -1.000000000000000000, -0.0000000000000000000, -0.0000000000000000000 ) ) ;
#211 = ORIENTED_EDGE ( 'NONE', *, *, #50, .T. ) ;
#212 = CIRCLE ( 'NONE', #151, 56.99999999999999300 ) ;
#213 =( LENGTH_UNIT ( ) NAMED_UNIT ( * ) SI_UNIT ( .MILLI., .METRE. ) );
#214 = ORIENTED_EDGE ( 'NONE', *, *, #166, .T. ) ;
#215 = DIRECTION ( 'NONE',  ( 0.0000000000000000000, 0.0000000000000000000, 1.000000000000000000 ) ) ;
#216 = DIRECTION ( 'NONE',  ( 0.0000000000000000000, 0.0000000000000000000, 1.000000000000000000 ) ) ;
#217 = ORIENTED_EDGE ( 'NONE', *, *, #281, .F. ) ;
#218 =( NAMED_UNIT ( * ) SI_UNIT ( $, .STERADIAN. ) SOLID_ANGLE_UNIT ( ) );
#219 = AXIS2_PLACEMENT_3D ( 'NONE', #261, #263, #74 ) ;
#220 = DIRECTION ( 'NONE',  ( -1.000000000000000000, -0.0000000000000000000, -0.0000000000000000000 ) ) ;
#221 = ORIENTED_EDGE ( 'NONE', *, *, #320, .F. ) ;
#222 = UNCERTAINTY_MEASURE_WITH_UNIT (LENGTH_MEASURE( 1.000000000000000100E-005 ), #191, 'distance_accuracy_value', 'NONE');
#223 = AXIS2_PLACEMENT_3D ( 'NONE', #259, #240, #108 ) ;
#224 = CIRCLE ( 'NONE', #219, 0.1000000000000028600 ) ;
#225 = CARTESIAN_POINT ( 'NONE',  ( 0.0000000000000000000, 6.974363521144175000E-015, 56.89999999999999100 ) ) ;
#226 = ADVANCED_FACE ( 'NONE', ( #250 ), #339, .T. ) ;
#227 = DIRECTION ( 'NONE',  ( 0.0000000000000000000, -1.224646799147352500E-016, 1.000000000000000000 ) ) ;
#228 = COLOUR_RGB ( '',1.000000000000000000, 0.0000000000000000000, 0.0000000000000000000 ) ;
#229 = LINE ( 'NONE', #331, #144 ) ;
#230 = CARTESIAN_POINT ( 'NONE',  ( 0.0000000000000000000, 6.380409823557708900E-015, 52.09999999999999400 ) ) ;
#231 = AXIS2_PLACEMENT_3D ( 'NONE', #333, #105, #133 ) ;
#232 = CARTESIAN_POINT ( 'NONE',  ( 3.500000000000000900, 0.0000000000000000000, 0.0000000000000000000 ) ) ;
#233 = EDGE_CURVE ( 'NONE', #127, #171, #188, .T. ) ;
#234 = CIRCLE ( 'NONE', #271, 52.09999999999999400 ) ;
#235 = ORIENTED_EDGE ( 'NONE', *, *, #176, .T. ) ;
#236 = DIRECTION ( 'NONE',  ( 0.0000000000000000000, 0.0000000000000000000, -1.000000000000000000 ) ) ;
#237 = ADVANCED_FACE ( 'NONE', ( #116 ), #290, .T. ) ;
#238 = SURFACE_SIDE_STYLE ('',( #242 ) ) ;
#239 = CARTESIAN_POINT ( 'NONE',  ( 0.1000000000000000100, 0.0000000000000000000, 0.0000000000000000000 ) ) ;
#240 = DIRECTION ( 'NONE',  ( -1.000000000000000000, -0.0000000000000000000, -0.0000000000000000000 ) ) ;
#241 = EDGE_CURVE ( 'NONE', #130, #119, #224, .T. ) ;
#242 = SURFACE_STYLE_FILL_AREA ( #338 ) ;
#243 = FILL_AREA_STYLE ('',( #80 ) ) ;
#244 = VECTOR ( 'NONE', #311, 1000.000000000000000 ) ;
#245 = CARTESIAN_POINT ( 'NONE',  ( 0.1000000000000000100, 6.368163355566235600E-015, -51.99999999999999300 ) ) ;
#246 = FACE_OUTER_BOUND ( 'NONE', #293, .T. ) ;
#247 = ORIENTED_EDGE ( 'NONE', *, *, #320, .T. ) ;
#248 = CARTESIAN_POINT ( 'NONE',  ( 0.0000000000000000000, 0.0000000000000000000, -52.09999999999999400 ) ) ;
#249 = DIRECTION ( 'NONE',  ( 0.0000000000000000000, 0.0000000000000000000, -1.000000000000000000 ) ) ;
#250 = FACE_OUTER_BOUND ( 'NONE', #7, .T. ) ;
#251 = DIRECTION ( 'NONE',  ( 0.0000000000000000000, 0.0000000000000000000, 1.000000000000000000 ) ) ;
#252 = DIRECTION ( 'NONE',  ( 0.0000000000000000000, 0.0000000000000000000, 1.000000000000000000 ) ) ;
#253 = EDGE_CURVE ( 'NONE', #92, #130, #315, .T. ) ;
#254 = ADVANCED_FACE ( 'NONE', ( #308 ), #48, .T. ) ;
#255 = EDGE_LOOP ( 'NONE', ( #319, #274 ) ) ;
#256 = CARTESIAN_POINT ( 'NONE',  ( 0.0000000000000000000, 0.0000000000000000000, 0.0000000000000000000 ) ) ;
#257 = ORIENTED_EDGE ( 'NONE', *, *, #113, .F. ) ;
#258 = DIRECTION ( 'NONE',  ( 0.0000000000000000000, 0.0000000000000000000, -1.000000000000000000 ) ) ;
#259 = CARTESIAN_POINT ( 'NONE',  ( 0.0000000000000000000, 0.0000000000000000000, 0.0000000000000000000 ) ) ;
#260 = ADVANCED_FACE ( 'NONE', ( #246 ), #37, .T. ) ;
#261 = CARTESIAN_POINT ( 'NONE',  ( 0.1000000000000000100, 6.380409823557708900E-015, 52.09999999999999400 ) ) ;
#262 = FACE_OUTER_BOUND ( 'NONE', #286, .T. ) ;
#263 = DIRECTION ( 'NONE',  ( 0.0000000000000000000, 1.000000000000000000, -1.224646799147353200E-016 ) ) ;
#264 = APPLICATION_CONTEXT ( 'automotive_design' ) ;
#265 = LINE ( 'NONE', #65, #327 ) ;
#266 = AXIS2_PLACEMENT_3D ( 'NONE', #183, #15, #258 ) ;
#267 = APPLICATION_CONTEXT ( 'automotive_design' ) ;
#268 = SURFACE_SIDE_STYLE ('',( #71 ) ) ;
#269 = ORIENTED_EDGE ( 'NONE', *, *, #241, .T. ) ;
#270 = FACE_BOUND ( 'NONE', #1, .T. ) ;
#271 = AXIS2_PLACEMENT_3D ( 'NONE', #321, #6, #197 ) ;
#272 = VECTOR ( 'NONE', #22, 1000.000000000000000 ) ;
#273 = CARTESIAN_POINT ( 'NONE',  ( 0.1000000000000000100, 0.0000000000000000000, 0.0000000000000000000 ) ) ;
#274 = ORIENTED_EDGE ( 'NONE', *, *, #170, .T. ) ;
#275 = EDGE_CURVE ( 'NONE', #171, #160, #126, .T. ) ;
#276 = DIRECTION ( 'NONE',  ( 1.000000000000000000, 0.0000000000000000000, 0.0000000000000000000 ) ) ;
#277 = ORIENTED_EDGE ( 'NONE', *, *, #281, .T. ) ;
#278 = ORIENTED_EDGE ( 'NONE', *, *, #233, .T. ) ;
#279 = UNCERTAINTY_MEASURE_WITH_UNIT (LENGTH_MEASURE( 1.000000000000000100E-005 ), #213, 'distance_accuracy_value', 'NONE');
#280 = DIRECTION ( 'NONE',  ( 0.0000000000000000000, 0.0000000000000000000, -1.000000000000000000 ) ) ;
#281 = EDGE_CURVE ( 'NONE', #34, #127, #110, .T. ) ;
#282 = ORIENTED_EDGE ( 'NONE', *, *, #297, .F. ) ;
#283 = CARTESIAN_POINT ( 'NONE',  ( 0.1000000000000000100, 0.0000000000000000000, 0.0000000000000000000 ) ) ;
#284 = ORIENTED_EDGE ( 'NONE', *, *, #77, .T. ) ;
#285 = DIRECTION ( 'NONE',  ( 0.0000000000000000000, -1.000000000000000000, 0.0000000000000000000 ) ) ;
#286 = EDGE_LOOP ( 'NONE', ( #179, #335, #221, #309 ) ) ;
#287 = CARTESIAN_POINT ( 'NONE',  ( 3.500000000000000900, 0.0000000000000000000, 0.0000000000000000000 ) ) ;
#288 = AXIS2_PLACEMENT_3D ( 'NONE', #132, #73, #76 ) ;
#289 = DIRECTION ( 'NONE',  ( -1.000000000000000000, -0.0000000000000000000, -0.0000000000000000000 ) ) ;
#290 = TOROIDAL_SURFACE ( 'NONE', #206, 54.49999999999999300, 2.500000000000002200 ) ;
#291 =( NAMED_UNIT ( * ) PLANE_ANGLE_UNIT ( ) SI_UNIT ( $, .RADIAN. ) );
#292 = PRODUCT_DEFINITION_CONTEXT ( 'detailed design', #264, 'design' ) ;
#293 = EDGE_LOOP ( 'NONE', ( #195, #162, #247, #31 ) ) ;
#294 = LINE ( 'NONE', #128, #272 ) ;
#295 = ORIENTED_EDGE ( 'NONE', *, *, #233, .F. ) ;
#296 = CARTESIAN_POINT ( 'NONE',  ( 0.1000000000000000100, 0.0000000000000000000, 0.0000000000000000000 ) ) ;
#297 = EDGE_CURVE ( 'NONE', #52, #72, #180, .T. ) ;
#298 = DIRECTION ( 'NONE',  ( 0.0000000000000000000, 1.224646799147253900E-016, 1.000000000000000000 ) ) ;
#299 = CARTESIAN_POINT ( 'NONE',  ( 3.500000000000001300, 0.0000000000000000000, 0.0000000000000000000 ) ) ;
#300 = PRESENTATION_LAYER_ASSIGNMENT (  '', '', ( #174 ) ) ;
#301 = CIRCLE ( 'NONE', #24, 51.99999999999999300 ) ;
#302 = ORIENTED_EDGE ( 'NONE', *, *, #189, .T. ) ;
#303 = CARTESIAN_POINT ( 'NONE',  ( 0.0000000000000000000, 0.0000000000000000000, 0.0000000000000000000 ) ) ;
#304 = MANIFOLD_SOLID_BREP ( 'Verrundung1', #81 ) ;
#305 = CARTESIAN_POINT ( 'NONE',  ( 3.500000000000000400, 0.0000000000000000000, 56.99999999999999300 ) ) ;
#306 = ORIENTED_EDGE ( 'NONE', *, *, #241, .F. ) ;
#307 = DIRECTION ( 'NONE',  ( 0.0000000000000000000, 0.0000000000000000000, 1.000000000000000000 ) ) ;
#308 = FACE_OUTER_BOUND ( 'NONE', #148, .T. ) ;
#309 = ORIENTED_EDGE ( 'NONE', *, *, #208, .F. ) ;
#310 = PLANE ( 'NONE',  #184 ) ;
#311 = DIRECTION ( 'NONE',  ( -1.000000000000000000, -0.0000000000000000000, -0.0000000000000000000 ) ) ;
#312 = CARTESIAN_POINT ( 'NONE',  ( 0.0000000000000000000, 0.0000000000000000000, 0.0000000000000000000 ) ) ;
#313 = ORIENTED_EDGE ( 'NONE', *, *, #253, .T. ) ;
#314 = DIRECTION ( 'NONE',  ( 0.0000000000000000000, 0.0000000000000000000, -1.000000000000000000 ) ) ;
#315 = CIRCLE ( 'NONE', #46, 51.99999999999999300 ) ;
#316 = MECHANICAL_DESIGN_GEOMETRIC_PRESENTATION_REPRESENTATION (  '', ( #174 ), #112 ) ;
#317 = SURFACE_STYLE_USAGE ( .BOTH. , #268 ) ;
#318 = APPLICATION_PROTOCOL_DEFINITION ( 'draft international standard', 'automotive_design', 1998, #267 ) ;
#319 = ORIENTED_EDGE ( 'NONE', *, *, #297, .T. ) ;
#320 = EDGE_CURVE ( 'NONE', #60, #160, #212, .T. ) ;
#321 = CARTESIAN_POINT ( 'NONE',  ( 0.0000000000000000000, 0.0000000000000000000, 0.0000000000000000000 ) ) ;
#322 = EDGE_CURVE ( 'NONE', #127, #130, #294, .T. ) ;
#323 = TOROIDAL_SURFACE ( 'NONE', #117, 52.09999999999999400, 0.1000000000000000100 ) ;
#324 = CARTESIAN_POINT ( 'NONE',  ( 0.1000000000000000100, 0.0000000000000000000, 51.99999999999999300 ) ) ;
#325 = ORIENTED_EDGE ( 'NONE', *, *, #275, .T. ) ;
#326 = SHAPE_DEFINITION_REPRESENTATION ( #178, #89 ) ;
#327 = VECTOR ( 'NONE', #210, 1000.000000000000000 ) ;
#328 = DIRECTION ( 'NONE',  ( -1.000000000000000000, -0.0000000000000000000, -0.0000000000000000000 ) ) ;
#329 = CARTESIAN_POINT ( 'NONE',  ( 3.500000000000001300, 0.0000000000000000000, 51.99999999999999300 ) ) ;
#330 = ADVANCED_FACE ( 'NONE', ( #203, #270 ), #310, .F. ) ;
#331 = CARTESIAN_POINT ( 'NONE',  ( 0.0000000000000000000, 6.980486755139912900E-015, -56.99999999999999300 ) ) ;
#332 = CIRCLE ( 'NONE', #39, 56.99999999999999300 ) ;
#333 = CARTESIAN_POINT ( 'NONE',  ( 3.500000000000001300, 0.0000000000000000000, 0.0000000000000000000 ) ) ;
#334 = ORIENTED_EDGE ( 'NONE', *, *, #337, .T. ) ;
#335 = ORIENTED_EDGE ( 'NONE', *, *, #17, .T. ) ;
#336 =( NAMED_UNIT ( * ) SI_UNIT ( $, .STERADIAN. ) SOLID_ANGLE_UNIT ( ) );
#337 = EDGE_CURVE ( 'NONE', #130, #92, #125, .T. ) ;
#338 = FILL_AREA_STYLE ('',( #159 ) ) ;
#339 = TOROIDAL_SURFACE ( 'NONE', #266, 56.89999999999999100, 0.1000000000000000100 ) ;
#340 = DIRECTION ( 'NONE',  ( 0.0000000000000000000, 0.0000000000000000000, -1.000000000000000000 ) ) ;
ENDSEC;
END-ISO-10303-21;
