ISO-10303-21;
HEADER;
FILE_DESCRIPTION( ( 'Unknown' ), '1' );
FILE_NAME( '//Server/ofimatica/alfredo/Alfredo2/ISOTUBI/PZAS3D/FICHATECNICA/NUMEPRESS/generico 3D/F1DN139,7.stp', 'Unknown', ( 'Unknown' ), ( 'Unknown' ), 'PSStep 14.0', 'Unknown', '  ' );
FILE_SCHEMA( ( 'AUTOMOTIVE_DESIGN { 1 0 10303 214 1 1 1 1 }' ) );
ENDSEC;
DATA;
#1 = MECHANICAL_DESIGN_GEOMETRIC_PRESENTATION_REPRESENTATION( ' ', ( #10, #11, #12, #13, #14, #15, #16, #17, #18, #19, #20, #21, #22 ), #6 );
#2 = PRODUCT_DEFINITION_CONTEXT( '', #23, 'design' );
#3 = APPLICATION_PROTOCOL_DEFINITION( 'international standard', 'automotive_design', 2001, #23 );
#4 = PRODUCT_CATEGORY_RELATIONSHIP( 'NONE', 'NONE', #24, #25 );
#5 = SHAPE_DEFINITION_REPRESENTATION( #26, #27 );
#6 =  ( GEOMETRIC_REPRESENTATION_CONTEXT( 3 )GLOBAL_UNCERTAINTY_ASSIGNED_CONTEXT( ( #30 ) )GLOBAL_UNIT_ASSIGNED_CONTEXT( ( #32, #33, #34 ) )REPRESENTATION_CONTEXT( 'NONE', 'WORKSPACE' ) );
#10 = STYLED_ITEM( '', ( #36 ), #37 );
#11 = STYLED_ITEM( '', ( #38 ), #39 );
#12 = STYLED_ITEM( '', ( #40 ), #41 );
#13 = STYLED_ITEM( '', ( #42 ), #43 );
#14 = STYLED_ITEM( '', ( #44 ), #45 );
#15 = STYLED_ITEM( '', ( #46 ), #47 );
#16 = STYLED_ITEM( '', ( #48 ), #49 );
#17 = STYLED_ITEM( '', ( #50 ), #51 );
#18 = STYLED_ITEM( '', ( #52 ), #53 );
#19 = STYLED_ITEM( '', ( #54 ), #55 );
#20 = STYLED_ITEM( '', ( #56 ), #57 );
#21 = STYLED_ITEM( '', ( #58 ), #59 );
#22 = STYLED_ITEM( '', ( #60 ), #61 );
#23 = APPLICATION_CONTEXT( 'core data for automotive mechanical design processes' );
#24 = PRODUCT_CATEGORY( 'part', 'NONE' );
#25 = PRODUCT_RELATED_PRODUCT_CATEGORY( 'detail', ' ', ( #62 ) );
#26 = PRODUCT_DEFINITION_SHAPE( 'NONE', 'NONE', #63 );
#27 = ADVANCED_BREP_SHAPE_REPRESENTATION( '1', ( #64, #65 ), #6 );
#30 = UNCERTAINTY_MEASURE_WITH_UNIT( LENGTH_MEASURE( 0.00100000000000000 ), #32, '', '' );
#32 =  ( CONVERSION_BASED_UNIT( 'MILLIMETRE', #68 )LENGTH_UNIT(  )NAMED_UNIT( #71 ) );
#33 =  ( NAMED_UNIT( #73 )PLANE_ANGLE_UNIT(  )SI_UNIT( $, .RADIAN. ) );
#34 =  ( NAMED_UNIT( #73 )SI_UNIT( $, .STERADIAN. )SOLID_ANGLE_UNIT(  ) );
#36 = PRESENTATION_STYLE_ASSIGNMENT( ( #79 ) );
#37 = ADVANCED_FACE( '', ( #80 ), #81, .F. );
#38 = PRESENTATION_STYLE_ASSIGNMENT( ( #82 ) );
#39 = ADVANCED_FACE( '', ( #83, #84 ), #85, .F. );
#40 = PRESENTATION_STYLE_ASSIGNMENT( ( #86 ) );
#41 = ADVANCED_FACE( '', ( #87, #88 ), #89, .T. );
#42 = PRESENTATION_STYLE_ASSIGNMENT( ( #90 ) );
#43 = ADVANCED_FACE( '', ( #91, #92 ), #93, .T. );
#44 = PRESENTATION_STYLE_ASSIGNMENT( ( #94 ) );
#45 = ADVANCED_FACE( '', ( #95 ), #96, .F. );
#46 = PRESENTATION_STYLE_ASSIGNMENT( ( #97 ) );
#47 = ADVANCED_FACE( '', ( #98, #99 ), #100, .T. );
#48 = PRESENTATION_STYLE_ASSIGNMENT( ( #101 ) );
#49 = ADVANCED_FACE( '', ( #102, #103 ), #104, .F. );
#50 = PRESENTATION_STYLE_ASSIGNMENT( ( #105 ) );
#51 = ADVANCED_FACE( '', ( #106, #107 ), #108, .T. );
#52 = PRESENTATION_STYLE_ASSIGNMENT( ( #109 ) );
#53 = ADVANCED_FACE( '', ( #110, #111 ), #112, .F. );
#54 = PRESENTATION_STYLE_ASSIGNMENT( ( #113 ) );
#55 = ADVANCED_FACE( '', ( #114, #115 ), #116, .T. );
#56 = PRESENTATION_STYLE_ASSIGNMENT( ( #117 ) );
#57 = ADVANCED_FACE( '', ( #118, #119 ), #120, .T. );
#58 = PRESENTATION_STYLE_ASSIGNMENT( ( #121 ) );
#59 = ADVANCED_FACE( '', ( #122, #123 ), #124, .T. );
#60 = PRESENTATION_STYLE_ASSIGNMENT( ( #125 ) );
#61 = ADVANCED_FACE( '', ( #126, #127 ), #128, .F. );
#62 = PRODUCT( '1', '1', 'PART-1-DESC', ( #129 ) );
#63 = PRODUCT_DEFINITION( 'NONE', 'NONE', #130, #2 );
#64 = MANIFOLD_SOLID_BREP( '1', #131 );
#65 = AXIS2_PLACEMENT_3D( '', #132, #133, #134 );
#68 = LENGTH_MEASURE_WITH_UNIT( LENGTH_MEASURE( 1.00000000000000 ), #135 );
#71 = DIMENSIONAL_EXPONENTS( 1.00000000000000, 0.000000000000000, 0.000000000000000, 0.000000000000000, 0.000000000000000, 0.000000000000000, 0.000000000000000 );
#73 = DIMENSIONAL_EXPONENTS( 0.000000000000000, 0.000000000000000, 0.000000000000000, 0.000000000000000, 0.000000000000000, 0.000000000000000, 0.000000000000000 );
#79 = SURFACE_STYLE_USAGE( .BOTH., #136 );
#80 = FACE_OUTER_BOUND( '', #137, .T. );
#81 = PLANE( '', #138 );
#82 = SURFACE_STYLE_USAGE( .BOTH., #139 );
#83 = FACE_OUTER_BOUND( '', #140, .T. );
#84 = FACE_OUTER_BOUND( '', #141, .T. );
#85 = CYLINDRICAL_SURFACE( '', #142, 69.8500000000000 );
#86 = SURFACE_STYLE_USAGE( .BOTH., #143 );
#87 = FACE_OUTER_BOUND( '', #144, .T. );
#88 = FACE_OUTER_BOUND( '', #145, .T. );
#89 = CYLINDRICAL_SURFACE( '', #146, 70.0000000000000 );
#90 = SURFACE_STYLE_USAGE( .BOTH., #147 );
#91 = FACE_OUTER_BOUND( '', #148, .T. );
#92 = FACE_OUTER_BOUND( '', #149, .T. );
#93 = CYLINDRICAL_SURFACE( '', #150, 72.5000000000000 );
#94 = SURFACE_STYLE_USAGE( .BOTH., #151 );
#95 = FACE_OUTER_BOUND( '', #152, .T. );
#96 = PLANE( '', #153 );
#97 = SURFACE_STYLE_USAGE( .BOTH., #154 );
#98 = FACE_OUTER_BOUND( '', #155, .T. );
#99 = FACE_BOUND( '', #156, .T. );
#100 = CONICAL_SURFACE( '', #157, 70.5000000000000, 0.785398163397448 );
#101 = SURFACE_STYLE_USAGE( .BOTH., #158 );
#102 = FACE_OUTER_BOUND( '', #159, .T. );
#103 = FACE_OUTER_BOUND( '', #160, .T. );
#104 = CYLINDRICAL_SURFACE( '', #161, 69.8500000000000 );
#105 = SURFACE_STYLE_USAGE( .BOTH., #162 );
#106 = FACE_OUTER_BOUND( '', #163, .T. );
#107 = FACE_BOUND( '', #164, .T. );
#108 = PLANE( '', #165 );
#109 = SURFACE_STYLE_USAGE( .BOTH., #166 );
#110 = FACE_OUTER_BOUND( '', #167, .T. );
#111 = FACE_BOUND( '', #168, .T. );
#112 = PLANE( '', #169 );
#113 = SURFACE_STYLE_USAGE( .BOTH., #170 );
#114 = FACE_OUTER_BOUND( '', #171, .T. );
#115 = FACE_BOUND( '', #172, .T. );
#116 = CONICAL_SURFACE( '', #173, 70.5000000000000, 0.785398163397448 );
#117 = SURFACE_STYLE_USAGE( .BOTH., #174 );
#118 = FACE_OUTER_BOUND( '', #175, .T. );
#119 = FACE_BOUND( '', #176, .T. );
#120 = PLANE( '', #177 );
#121 = SURFACE_STYLE_USAGE( .BOTH., #178 );
#122 = FACE_OUTER_BOUND( '', #179, .T. );
#123 = FACE_OUTER_BOUND( '', #180, .T. );
#124 = CYLINDRICAL_SURFACE( '', #181, 72.5000000000000 );
#125 = SURFACE_STYLE_USAGE( .BOTH., #182 );
#126 = FACE_OUTER_BOUND( '', #183, .T. );
#127 = FACE_BOUND( '', #184, .T. );
#128 = PLANE( '', #185 );
#129 = PRODUCT_CONTEXT( '', #23, 'mechanical' );
#130 = PRODUCT_DEFINITION_FORMATION_WITH_SPECIFIED_SOURCE( ' ', 'NONE', #62, .NOT_KNOWN. );
#131 = CLOSED_SHELL( '', ( #53, #49, #45, #37, #39, #61, #41, #43, #51, #59, #55, #57, #47 ) );
#132 = CARTESIAN_POINT( '', ( 0.000000000000000, 0.000000000000000, 0.000000000000000 ) );
#133 = DIRECTION( '', ( 0.000000000000000, 0.000000000000000, 1.00000000000000 ) );
#134 = DIRECTION( '', ( 1.00000000000000, 0.000000000000000, 0.000000000000000 ) );
#135 =  ( LENGTH_UNIT(  )NAMED_UNIT( #71 )SI_UNIT( .MILLI., .METRE. ) );
#136 = SURFACE_SIDE_STYLE( '', ( #187 ) );
#137 = EDGE_LOOP( '', ( #188 ) );
#138 = AXIS2_PLACEMENT_3D( '', #189, #190, #191 );
#139 = SURFACE_SIDE_STYLE( '', ( #192 ) );
#140 = EDGE_LOOP( '', ( #193 ) );
#141 = EDGE_LOOP( '', ( #194 ) );
#142 = AXIS2_PLACEMENT_3D( '', #195, #196, #197 );
#143 = SURFACE_SIDE_STYLE( '', ( #198 ) );
#144 = EDGE_LOOP( '', ( #199 ) );
#145 = EDGE_LOOP( '', ( #200 ) );
#146 = AXIS2_PLACEMENT_3D( '', #201, #202, #203 );
#147 = SURFACE_SIDE_STYLE( '', ( #204 ) );
#148 = EDGE_LOOP( '', ( #205 ) );
#149 = EDGE_LOOP( '', ( #206 ) );
#150 = AXIS2_PLACEMENT_3D( '', #207, #208, #209 );
#151 = SURFACE_SIDE_STYLE( '', ( #210 ) );
#152 = EDGE_LOOP( '', ( #211 ) );
#153 = AXIS2_PLACEMENT_3D( '', #212, #213, #214 );
#154 = SURFACE_SIDE_STYLE( '', ( #215 ) );
#155 = EDGE_LOOP( '', ( #216 ) );
#156 = EDGE_LOOP( '', ( #217 ) );
#157 = AXIS2_PLACEMENT_3D( '', #218, #219, #220 );
#158 = SURFACE_SIDE_STYLE( '', ( #221 ) );
#159 = EDGE_LOOP( '', ( #222 ) );
#160 = EDGE_LOOP( '', ( #223 ) );
#161 = AXIS2_PLACEMENT_3D( '', #224, #225, #226 );
#162 = SURFACE_SIDE_STYLE( '', ( #227 ) );
#163 = EDGE_LOOP( '', ( #228 ) );
#164 = EDGE_LOOP( '', ( #229 ) );
#165 = AXIS2_PLACEMENT_3D( '', #230, #231, #232 );
#166 = SURFACE_SIDE_STYLE( '', ( #233 ) );
#167 = EDGE_LOOP( '', ( #234 ) );
#168 = EDGE_LOOP( '', ( #235 ) );
#169 = AXIS2_PLACEMENT_3D( '', #236, #237, #238 );
#170 = SURFACE_SIDE_STYLE( '', ( #239 ) );
#171 = EDGE_LOOP( '', ( #240 ) );
#172 = EDGE_LOOP( '', ( #241 ) );
#173 = AXIS2_PLACEMENT_3D( '', #242, #243, #244 );
#174 = SURFACE_SIDE_STYLE( '', ( #245 ) );
#175 = EDGE_LOOP( '', ( #246 ) );
#176 = EDGE_LOOP( '', ( #247 ) );
#177 = AXIS2_PLACEMENT_3D( '', #248, #249, #250 );
#178 = SURFACE_SIDE_STYLE( '', ( #251 ) );
#179 = EDGE_LOOP( '', ( #252 ) );
#180 = EDGE_LOOP( '', ( #253 ) );
#181 = AXIS2_PLACEMENT_3D( '', #254, #255, #256 );
#182 = SURFACE_SIDE_STYLE( '', ( #257 ) );
#183 = EDGE_LOOP( '', ( #258 ) );
#184 = EDGE_LOOP( '', ( #259 ) );
#185 = AXIS2_PLACEMENT_3D( '', #260, #261, #262 );
#187 = SURFACE_STYLE_FILL_AREA( #263 );
#188 = ORIENTED_EDGE( '', *, *, #264, .F. );
#189 = CARTESIAN_POINT( '', ( 0.000000000000000, -27.0000000000000, 0.000000000000000 ) );
#190 = DIRECTION( '', ( 0.000000000000000, 1.00000000000000, 0.000000000000000 ) );
#191 = DIRECTION( '', ( 0.000000000000000, 0.000000000000000, 1.00000000000000 ) );
#192 = SURFACE_STYLE_FILL_AREA( #265 );
#193 = ORIENTED_EDGE( '', *, *, #264, .T. );
#194 = ORIENTED_EDGE( '', *, *, #266, .F. );
#195 = CARTESIAN_POINT( '', ( 0.000000000000000, -25.5000000000000, 0.000000000000000 ) );
#196 = DIRECTION( '', ( -0.000000000000000, 1.00000000000000, -0.000000000000000 ) );
#197 = DIRECTION( '', ( 0.000000000000000, 0.000000000000000, -1.00000000000000 ) );
#198 = SURFACE_STYLE_FILL_AREA( #267 );
#199 = ORIENTED_EDGE( '', *, *, #268, .F. );
#200 = ORIENTED_EDGE( '', *, *, #269, .T. );
#201 = CARTESIAN_POINT( '', ( 0.000000000000000, -96.5000000000000, 0.000000000000000 ) );
#202 = DIRECTION( '', ( -0.000000000000000, -1.00000000000000, -0.000000000000000 ) );
#203 = DIRECTION( '', ( 0.000000000000000, 0.000000000000000, 1.00000000000000 ) );
#204 = SURFACE_STYLE_FILL_AREA( #270 );
#205 = ORIENTED_EDGE( '', *, *, #271, .T. );
#206 = ORIENTED_EDGE( '', *, *, #272, .T. );
#207 = CARTESIAN_POINT( '', ( 0.000000000000000, -25.5000000000000, 0.000000000000000 ) );
#208 = DIRECTION( '', ( -0.000000000000000, 1.00000000000000, -0.000000000000000 ) );
#209 = DIRECTION( '', ( 0.000000000000000, 0.000000000000000, -1.00000000000000 ) );
#210 = SURFACE_STYLE_FILL_AREA( #273 );
#211 = ORIENTED_EDGE( '', *, *, #274, .T. );
#212 = CARTESIAN_POINT( '', ( 0.000000000000000, 27.0000000000000, 0.000000000000000 ) );
#213 = DIRECTION( '', ( 0.000000000000000, -1.00000000000000, 0.000000000000000 ) );
#214 = DIRECTION( '', ( 0.000000000000000, 0.000000000000000, 1.00000000000000 ) );
#215 = SURFACE_STYLE_FILL_AREA( #275 );
#216 = ORIENTED_EDGE( '', *, *, #271, .F. );
#217 = ORIENTED_EDGE( '', *, *, #276, .F. );
#218 = CARTESIAN_POINT( '', ( 0.000000000000000, -22.5000000000000, 0.000000000000000 ) );
#219 = DIRECTION( '', ( 0.000000000000000, -1.00000000000000, -0.000000000000000 ) );
#220 = DIRECTION( '', ( 0.000000000000000, 0.000000000000000, -1.00000000000000 ) );
#221 = SURFACE_STYLE_FILL_AREA( #277 );
#222 = ORIENTED_EDGE( '', *, *, #274, .F. );
#223 = ORIENTED_EDGE( '', *, *, #278, .T. );
#224 = CARTESIAN_POINT( '', ( 0.000000000000000, 25.5000000000000, 0.000000000000000 ) );
#225 = DIRECTION( '', ( -0.000000000000000, -1.00000000000000, -0.000000000000000 ) );
#226 = DIRECTION( '', ( 0.000000000000000, 0.000000000000000, -1.00000000000000 ) );
#227 = SURFACE_STYLE_FILL_AREA( #279 );
#228 = ORIENTED_EDGE( '', *, *, #276, .T. );
#229 = ORIENTED_EDGE( '', *, *, #268, .T. );
#230 = CARTESIAN_POINT( '', ( 0.000000000000000, -22.5000000000000, 0.000000000000000 ) );
#231 = DIRECTION( '', ( 0.000000000000000, 1.00000000000000, 0.000000000000000 ) );
#232 = DIRECTION( '', ( 0.000000000000000, 0.000000000000000, 1.00000000000000 ) );
#233 = SURFACE_STYLE_FILL_AREA( #280 );
#234 = ORIENTED_EDGE( '', *, *, #281, .T. );
#235 = ORIENTED_EDGE( '', *, *, #278, .F. );
#236 = CARTESIAN_POINT( '', ( 0.000000000000000, 125.000000000000, 0.000000000000000 ) );
#237 = DIRECTION( '', ( 0.000000000000000, -1.00000000000000, 0.000000000000000 ) );
#238 = DIRECTION( '', ( 0.000000000000000, 0.000000000000000, 1.00000000000000 ) );
#239 = SURFACE_STYLE_FILL_AREA( #282 );
#240 = ORIENTED_EDGE( '', *, *, #283, .T. );
#241 = ORIENTED_EDGE( '', *, *, #284, .T. );
#242 = CARTESIAN_POINT( '', ( 0.000000000000000, 22.5000000000000, 0.000000000000000 ) );
#243 = DIRECTION( '', ( -0.000000000000000, 1.00000000000000, -0.000000000000000 ) );
#244 = DIRECTION( '', ( 0.000000000000000, 0.000000000000000, 1.00000000000000 ) );
#245 = SURFACE_STYLE_FILL_AREA( #285 );
#246 = ORIENTED_EDGE( '', *, *, #284, .F. );
#247 = ORIENTED_EDGE( '', *, *, #269, .F. );
#248 = CARTESIAN_POINT( '', ( 0.000000000000000, 22.5000000000000, 0.000000000000000 ) );
#249 = DIRECTION( '', ( 0.000000000000000, -1.00000000000000, 0.000000000000000 ) );
#250 = DIRECTION( '', ( 0.000000000000000, 0.000000000000000, 1.00000000000000 ) );
#251 = SURFACE_STYLE_FILL_AREA( #286 );
#252 = ORIENTED_EDGE( '', *, *, #283, .F. );
#253 = ORIENTED_EDGE( '', *, *, #281, .F. );
#254 = CARTESIAN_POINT( '', ( 0.000000000000000, 25.5000000000000, 0.000000000000000 ) );
#255 = DIRECTION( '', ( -0.000000000000000, -1.00000000000000, -0.000000000000000 ) );
#256 = DIRECTION( '', ( 0.000000000000000, 0.000000000000000, -1.00000000000000 ) );
#257 = SURFACE_STYLE_FILL_AREA( #287 );
#258 = ORIENTED_EDGE( '', *, *, #272, .F. );
#259 = ORIENTED_EDGE( '', *, *, #266, .T. );
#260 = CARTESIAN_POINT( '', ( 0.000000000000000, -125.000000000000, 0.000000000000000 ) );
#261 = DIRECTION( '', ( 0.000000000000000, 1.00000000000000, 0.000000000000000 ) );
#262 = DIRECTION( '', ( 0.000000000000000, 0.000000000000000, 1.00000000000000 ) );
#263 = FILL_AREA_STYLE( '', ( #288 ) );
#264 = EDGE_CURVE( '', #289, #289, #290, .T. );
#265 = FILL_AREA_STYLE( '', ( #291 ) );
#266 = EDGE_CURVE( '', #292, #292, #293, .T. );
#267 = FILL_AREA_STYLE( '', ( #294 ) );
#268 = EDGE_CURVE( '', #295, #295, #296, .F. );
#269 = EDGE_CURVE( '', #297, #297, #298, .T. );
#270 = FILL_AREA_STYLE( '', ( #299 ) );
#271 = EDGE_CURVE( '', #300, #300, #301, .T. );
#272 = EDGE_CURVE( '', #302, #302, #303, .T. );
#273 = FILL_AREA_STYLE( '', ( #304 ) );
#274 = EDGE_CURVE( '', #305, #305, #306, .F. );
#275 = FILL_AREA_STYLE( '', ( #307 ) );
#276 = EDGE_CURVE( '', #308, #308, #309, .T. );
#277 = FILL_AREA_STYLE( '', ( #310 ) );
#278 = EDGE_CURVE( '', #311, #311, #312, .F. );
#279 = FILL_AREA_STYLE( '', ( #313 ) );
#280 = FILL_AREA_STYLE( '', ( #314 ) );
#281 = EDGE_CURVE( '', #315, #315, #316, .F. );
#282 = FILL_AREA_STYLE( '', ( #317 ) );
#283 = EDGE_CURVE( '', #318, #318, #319, .F. );
#284 = EDGE_CURVE( '', #320, #320, #321, .F. );
#285 = FILL_AREA_STYLE( '', ( #322 ) );
#286 = FILL_AREA_STYLE( '', ( #323 ) );
#287 = FILL_AREA_STYLE( '', ( #324 ) );
#288 = FILL_AREA_STYLE_COLOUR( '', #325 );
#289 = VERTEX_POINT( '', #326 );
#290 = CIRCLE( '', #327, 69.8500000000000 );
#291 = FILL_AREA_STYLE_COLOUR( '', #328 );
#292 = VERTEX_POINT( '', #329 );
#293 = CIRCLE( '', #330, 69.8500000000000 );
#294 = FILL_AREA_STYLE_COLOUR( '', #331 );
#295 = VERTEX_POINT( '', #332 );
#296 = CIRCLE( '', #333, 70.0000000000000 );
#297 = VERTEX_POINT( '', #334 );
#298 = CIRCLE( '', #335, 70.0000000000000 );
#299 = FILL_AREA_STYLE_COLOUR( '', #336 );
#300 = VERTEX_POINT( '', #337 );
#301 = CIRCLE( '', #338, 72.5000000000000 );
#302 = VERTEX_POINT( '', #339 );
#303 = CIRCLE( '', #340, 72.5000000000000 );
#304 = FILL_AREA_STYLE_COLOUR( '', #341 );
#305 = VERTEX_POINT( '', #342 );
#306 = CIRCLE( '', #343, 69.8500000000000 );
#307 = FILL_AREA_STYLE_COLOUR( '', #344 );
#308 = VERTEX_POINT( '', #345 );
#309 = CIRCLE( '', #346, 70.5000000000000 );
#310 = FILL_AREA_STYLE_COLOUR( '', #347 );
#311 = VERTEX_POINT( '', #348 );
#312 = CIRCLE( '', #349, 69.8500000000000 );
#313 = FILL_AREA_STYLE_COLOUR( '', #350 );
#314 = FILL_AREA_STYLE_COLOUR( '', #351 );
#315 = VERTEX_POINT( '', #352 );
#316 = CIRCLE( '', #353, 72.5000000000000 );
#317 = FILL_AREA_STYLE_COLOUR( '', #354 );
#318 = VERTEX_POINT( '', #355 );
#319 = CIRCLE( '', #356, 72.5000000000000 );
#320 = VERTEX_POINT( '', #357 );
#321 = CIRCLE( '', #358, 70.5000000000000 );
#322 = FILL_AREA_STYLE_COLOUR( '', #359 );
#323 = FILL_AREA_STYLE_COLOUR( '', #360 );
#324 = FILL_AREA_STYLE_COLOUR( '', #361 );
#325 = COLOUR_RGB( '', 0.537254929542542, 0.239215686917305, 0.839215695858002 );
#326 = CARTESIAN_POINT( '', ( 0.000000000000000, -27.0000000000000, 69.8500000000000 ) );
#327 = AXIS2_PLACEMENT_3D( '', #362, #363, #364 );
#328 = COLOUR_RGB( '', 0.537254929542542, 0.239215686917305, 0.839215695858002 );
#329 = CARTESIAN_POINT( '', ( 0.000000000000000, -125.000000000000, 69.8500000000000 ) );
#330 = AXIS2_PLACEMENT_3D( '', #365, #366, #367 );
#331 = COLOUR_RGB( '', 0.537254929542542, 0.239215686917305, 0.839215695858002 );
#332 = CARTESIAN_POINT( '', ( 0.000000000000000, -22.5000000000000, 70.0000000000000 ) );
#333 = AXIS2_PLACEMENT_3D( '', #368, #369, #370 );
#334 = CARTESIAN_POINT( '', ( 0.000000000000000, 22.5000000000000, -70.0000000000000 ) );
#335 = AXIS2_PLACEMENT_3D( '', #371, #372, #373 );
#336 = COLOUR_RGB( '', 0.537254929542542, 0.239215686917305, 0.839215695858002 );
#337 = CARTESIAN_POINT( '', ( 0.000000000000000, -24.5000000000000, -72.5000000000000 ) );
#338 = AXIS2_PLACEMENT_3D( '', #374, #375, #376 );
#339 = CARTESIAN_POINT( '', ( 0.000000000000000, -125.000000000000, 72.5000000000000 ) );
#340 = AXIS2_PLACEMENT_3D( '', #377, #378, #379 );
#341 = COLOUR_RGB( '', 0.537254929542542, 0.239215686917305, 0.839215695858002 );
#342 = CARTESIAN_POINT( '', ( 0.000000000000000, 27.0000000000000, -69.8500000000000 ) );
#343 = AXIS2_PLACEMENT_3D( '', #380, #381, #382 );
#344 = COLOUR_RGB( '', 0.537254929542542, 0.239215686917305, 0.839215695858002 );
#345 = CARTESIAN_POINT( '', ( 0.000000000000000, -22.5000000000000, 70.5000000000000 ) );
#346 = AXIS2_PLACEMENT_3D( '', #383, #384, #385 );
#347 = COLOUR_RGB( '', 0.537254929542542, 0.239215686917305, 0.839215695858002 );
#348 = CARTESIAN_POINT( '', ( 0.000000000000000, 125.000000000000, -69.8500000000000 ) );
#349 = AXIS2_PLACEMENT_3D( '', #386, #387, #388 );
#350 = COLOUR_RGB( '', 0.537254929542542, 0.239215686917305, 0.839215695858002 );
#351 = COLOUR_RGB( '', 0.537254929542542, 0.239215686917305, 0.839215695858002 );
#352 = CARTESIAN_POINT( '', ( 0.000000000000000, 125.000000000000, -72.5000000000000 ) );
#353 = AXIS2_PLACEMENT_3D( '', #389, #390, #391 );
#354 = COLOUR_RGB( '', 0.537254929542542, 0.239215686917305, 0.839215695858002 );
#355 = CARTESIAN_POINT( '', ( 0.000000000000000, 24.5000000000000, 72.5000000000000 ) );
#356 = AXIS2_PLACEMENT_3D( '', #392, #393, #394 );
#357 = CARTESIAN_POINT( '', ( 0.000000000000000, 22.5000000000000, -70.5000000000000 ) );
#358 = AXIS2_PLACEMENT_3D( '', #395, #396, #397 );
#359 = COLOUR_RGB( '', 0.537254929542542, 0.239215686917305, 0.839215695858002 );
#360 = COLOUR_RGB( '', 0.537254929542542, 0.239215686917305, 0.839215695858002 );
#361 = COLOUR_RGB( '', 0.537254929542542, 0.239215686917305, 0.839215695858002 );
#362 = CARTESIAN_POINT( '', ( 0.000000000000000, -27.0000000000000, 0.000000000000000 ) );
#363 = DIRECTION( '', ( 0.000000000000000, 1.00000000000000, 0.000000000000000 ) );
#364 = DIRECTION( '', ( 0.000000000000000, 0.000000000000000, 1.00000000000000 ) );
#365 = CARTESIAN_POINT( '', ( 0.000000000000000, -125.000000000000, 0.000000000000000 ) );
#366 = DIRECTION( '', ( 0.000000000000000, 1.00000000000000, 0.000000000000000 ) );
#367 = DIRECTION( '', ( 0.000000000000000, 0.000000000000000, 1.00000000000000 ) );
#368 = CARTESIAN_POINT( '', ( 0.000000000000000, -22.5000000000000, 0.000000000000000 ) );
#369 = DIRECTION( '', ( 0.000000000000000, 1.00000000000000, 0.000000000000000 ) );
#370 = DIRECTION( '', ( 0.000000000000000, 0.000000000000000, 1.00000000000000 ) );
#371 = CARTESIAN_POINT( '', ( 0.000000000000000, 22.5000000000000, 0.000000000000000 ) );
#372 = DIRECTION( '', ( 0.000000000000000, -1.00000000000000, 0.000000000000000 ) );
#373 = DIRECTION( '', ( 0.000000000000000, 0.000000000000000, -1.00000000000000 ) );
#374 = CARTESIAN_POINT( '', ( 0.000000000000000, -24.5000000000000, 0.000000000000000 ) );
#375 = DIRECTION( '', ( 0.000000000000000, -1.00000000000000, 0.000000000000000 ) );
#376 = DIRECTION( '', ( 0.000000000000000, 0.000000000000000, -1.00000000000000 ) );
#377 = CARTESIAN_POINT( '', ( 0.000000000000000, -125.000000000000, 0.000000000000000 ) );
#378 = DIRECTION( '', ( 0.000000000000000, 1.00000000000000, 0.000000000000000 ) );
#379 = DIRECTION( '', ( 0.000000000000000, 0.000000000000000, 1.00000000000000 ) );
#380 = CARTESIAN_POINT( '', ( 0.000000000000000, 27.0000000000000, 0.000000000000000 ) );
#381 = DIRECTION( '', ( 0.000000000000000, -1.00000000000000, 0.000000000000000 ) );
#382 = DIRECTION( '', ( 0.000000000000000, 0.000000000000000, -1.00000000000000 ) );
#383 = CARTESIAN_POINT( '', ( 0.000000000000000, -22.5000000000000, 0.000000000000000 ) );
#384 = DIRECTION( '', ( 0.000000000000000, 1.00000000000000, 0.000000000000000 ) );
#385 = DIRECTION( '', ( 0.000000000000000, 0.000000000000000, 1.00000000000000 ) );
#386 = CARTESIAN_POINT( '', ( 0.000000000000000, 125.000000000000, 0.000000000000000 ) );
#387 = DIRECTION( '', ( 0.000000000000000, -1.00000000000000, 0.000000000000000 ) );
#388 = DIRECTION( '', ( 0.000000000000000, 0.000000000000000, -1.00000000000000 ) );
#389 = CARTESIAN_POINT( '', ( 0.000000000000000, 125.000000000000, 0.000000000000000 ) );
#390 = DIRECTION( '', ( 0.000000000000000, -1.00000000000000, 0.000000000000000 ) );
#391 = DIRECTION( '', ( 0.000000000000000, 0.000000000000000, -1.00000000000000 ) );
#392 = CARTESIAN_POINT( '', ( 0.000000000000000, 24.5000000000000, 0.000000000000000 ) );
#393 = DIRECTION( '', ( 0.000000000000000, 1.00000000000000, 0.000000000000000 ) );
#394 = DIRECTION( '', ( 0.000000000000000, 0.000000000000000, 1.00000000000000 ) );
#395 = CARTESIAN_POINT( '', ( 0.000000000000000, 22.5000000000000, 0.000000000000000 ) );
#396 = DIRECTION( '', ( 0.000000000000000, -1.00000000000000, 0.000000000000000 ) );
#397 = DIRECTION( '', ( 0.000000000000000, 0.000000000000000, -1.00000000000000 ) );
ENDSEC;
END-ISO-10303-21;
