ISO-10303-21;
HEADER;
FILE_DESCRIPTION( ( 'Unknown' ), '1' );
FILE_NAME( '//Server/ofimatica/alfredo/Alfredo2/ISOTUBI/PZAS3D/FICHATECNICA/NUMEPRESS/generico 3D/F14DN15-18.stp', 'Unknown', ( 'Unknown' ), ( 'Unknown' ), 'PSStep 14.0', 'Unknown', '  ' );
FILE_SCHEMA( ( 'AUTOMOTIVE_DESIGN { 1 0 10303 214 1 1 1 1 }' ) );
ENDSEC;
DATA;
#1 = MECHANICAL_DESIGN_GEOMETRIC_PRESENTATION_REPRESENTATION( ' ', ( #10, #11, #12, #13, #14, #15, #16, #17, #18, #19, #20, #21, #22, #23 ), #6 );
#2 = PRODUCT_DEFINITION_CONTEXT( '', #24, 'design' );
#3 = APPLICATION_PROTOCOL_DEFINITION( 'international standard', 'automotive_design', 2001, #24 );
#4 = PRODUCT_CATEGORY_RELATIONSHIP( 'NONE', 'NONE', #25, #26 );
#5 = SHAPE_DEFINITION_REPRESENTATION( #27, #28 );
#6 =  ( GEOMETRIC_REPRESENTATION_CONTEXT( 3 )GLOBAL_UNCERTAINTY_ASSIGNED_CONTEXT( ( #31 ) )GLOBAL_UNIT_ASSIGNED_CONTEXT( ( #33, #34, #35 ) )REPRESENTATION_CONTEXT( 'NONE', 'WORKSPACE' ) );
#10 = STYLED_ITEM( '', ( #37 ), #38 );
#11 = STYLED_ITEM( '', ( #39 ), #40 );
#12 = STYLED_ITEM( '', ( #41 ), #42 );
#13 = STYLED_ITEM( '', ( #43 ), #44 );
#14 = STYLED_ITEM( '', ( #45 ), #46 );
#15 = STYLED_ITEM( '', ( #47 ), #48 );
#16 = STYLED_ITEM( '', ( #49 ), #50 );
#17 = STYLED_ITEM( '', ( #51 ), #52 );
#18 = STYLED_ITEM( '', ( #53 ), #54 );
#19 = STYLED_ITEM( '', ( #55 ), #56 );
#20 = STYLED_ITEM( '', ( #57 ), #58 );
#21 = STYLED_ITEM( '', ( #59 ), #60 );
#22 = STYLED_ITEM( '', ( #61 ), #62 );
#23 = STYLED_ITEM( '', ( #63 ), #64 );
#24 = APPLICATION_CONTEXT( 'core data for automotive mechanical design processes' );
#25 = PRODUCT_CATEGORY( 'part', 'NONE' );
#26 = PRODUCT_RELATED_PRODUCT_CATEGORY( 'detail', ' ', ( #65 ) );
#27 = PRODUCT_DEFINITION_SHAPE( 'NONE', 'NONE', #66 );
#28 = ADVANCED_BREP_SHAPE_REPRESENTATION( '1', ( #67, #68 ), #6 );
#31 = UNCERTAINTY_MEASURE_WITH_UNIT( LENGTH_MEASURE( 0.00100000000000000 ), #33, '', '' );
#33 =  ( CONVERSION_BASED_UNIT( 'MILLIMETRE', #71 )LENGTH_UNIT(  )NAMED_UNIT( #74 ) );
#34 =  ( NAMED_UNIT( #76 )PLANE_ANGLE_UNIT(  )SI_UNIT( $, .RADIAN. ) );
#35 =  ( NAMED_UNIT( #76 )SI_UNIT( $, .STERADIAN. )SOLID_ANGLE_UNIT(  ) );
#37 = PRESENTATION_STYLE_ASSIGNMENT( ( #82 ) );
#38 = ADVANCED_FACE( '', ( #83, #84 ), #85, .T. );
#39 = PRESENTATION_STYLE_ASSIGNMENT( ( #86 ) );
#40 = ADVANCED_FACE( '', ( #87, #88 ), #89, .F. );
#41 = PRESENTATION_STYLE_ASSIGNMENT( ( #90 ) );
#42 = ADVANCED_FACE( '', ( #91 ), #92, .F. );
#43 = PRESENTATION_STYLE_ASSIGNMENT( ( #93 ) );
#44 = ADVANCED_FACE( '', ( #94, #95 ), #96, .T. );
#45 = PRESENTATION_STYLE_ASSIGNMENT( ( #97 ) );
#46 = ADVANCED_FACE( '', ( #98, #99 ), #100, .F. );
#47 = PRESENTATION_STYLE_ASSIGNMENT( ( #101 ) );
#48 = ADVANCED_FACE( '', ( #102, #103 ), #104, .F. );
#49 = PRESENTATION_STYLE_ASSIGNMENT( ( #105 ) );
#50 = ADVANCED_FACE( '', ( #106, #107 ), #108, .T. );
#51 = PRESENTATION_STYLE_ASSIGNMENT( ( #109 ) );
#52 = ADVANCED_FACE( '', ( #110, #111 ), #112, .T. );
#53 = PRESENTATION_STYLE_ASSIGNMENT( ( #113 ) );
#54 = ADVANCED_FACE( '', ( #114, #115 ), #116, .T. );
#55 = PRESENTATION_STYLE_ASSIGNMENT( ( #117 ) );
#56 = ADVANCED_FACE( '', ( #118, #119 ), #120, .F. );
#57 = PRESENTATION_STYLE_ASSIGNMENT( ( #121 ) );
#58 = ADVANCED_FACE( '', ( #122, #123 ), #124, .F. );
#59 = PRESENTATION_STYLE_ASSIGNMENT( ( #125 ) );
#60 = ADVANCED_FACE( '', ( #126 ), #127, .T. );
#61 = PRESENTATION_STYLE_ASSIGNMENT( ( #128 ) );
#62 = ADVANCED_FACE( '', ( #129, #130 ), #131, .T. );
#63 = PRESENTATION_STYLE_ASSIGNMENT( ( #132 ) );
#64 = ADVANCED_FACE( '', ( #133, #134 ), #135, .T. );
#65 = PRODUCT( '1', '1', 'PART-1-DESC', ( #136 ) );
#66 = PRODUCT_DEFINITION( 'NONE', 'NONE', #137, #2 );
#67 = MANIFOLD_SOLID_BREP( '1', #138 );
#68 = AXIS2_PLACEMENT_3D( '', #139, #140, #141 );
#71 = LENGTH_MEASURE_WITH_UNIT( LENGTH_MEASURE( 1.00000000000000 ), #142 );
#74 = DIMENSIONAL_EXPONENTS( 1.00000000000000, 0.000000000000000, 0.000000000000000, 0.000000000000000, 0.000000000000000, 0.000000000000000, 0.000000000000000 );
#76 = DIMENSIONAL_EXPONENTS( 0.000000000000000, 0.000000000000000, 0.000000000000000, 0.000000000000000, 0.000000000000000, 0.000000000000000, 0.000000000000000 );
#82 = SURFACE_STYLE_USAGE( .BOTH., #143 );
#83 = FACE_OUTER_BOUND( '', #144, .T. );
#84 = FACE_BOUND( '', #145, .T. );
#85 = CONICAL_SURFACE( '', #146, 9.50000000000000, 0.785398163397452 );
#86 = SURFACE_STYLE_USAGE( .BOTH., #147 );
#87 = FACE_OUTER_BOUND( '', #148, .T. );
#88 = FACE_OUTER_BOUND( '', #149, .T. );
#89 = CYLINDRICAL_SURFACE( '', #150, 7.50000000000000 );
#90 = SURFACE_STYLE_USAGE( .BOTH., #151 );
#91 = FACE_OUTER_BOUND( '', #152, .T. );
#92 = PLANE( '', #153 );
#93 = SURFACE_STYLE_USAGE( .BOTH., #154 );
#94 = FACE_OUTER_BOUND( '', #155, .T. );
#95 = FACE_OUTER_BOUND( '', #156, .T. );
#96 = CYLINDRICAL_SURFACE( '', #157, 8.69827966749825 );
#97 = SURFACE_STYLE_USAGE( .BOTH., #158 );
#98 = FACE_OUTER_BOUND( '', #159, .T. );
#99 = FACE_BOUND( '', #160, .T. );
#100 = PLANE( '', #161 );
#101 = SURFACE_STYLE_USAGE( .BOTH., #162 );
#102 = FACE_OUTER_BOUND( '', #163, .T. );
#103 = FACE_BOUND( '', #164, .T. );
#104 = PLANE( '', #165 );
#105 = SURFACE_STYLE_USAGE( .BOTH., #166 );
#106 = FACE_OUTER_BOUND( '', #167, .T. );
#107 = FACE_BOUND( '', #168, .T. );
#108 = PLANE( '', #169 );
#109 = SURFACE_STYLE_USAGE( .BOTH., #170 );
#110 = FACE_OUTER_BOUND( '', #171, .T. );
#111 = FACE_OUTER_BOUND( '', #172, .T. );
#112 = CYLINDRICAL_SURFACE( '', #173, 9.00000000000000 );
#113 = SURFACE_STYLE_USAGE( .BOTH., #174 );
#114 = FACE_OUTER_BOUND( '', #175, .T. );
#115 = FACE_OUTER_BOUND( '', #176, .T. );
#116 = CYLINDRICAL_SURFACE( '', #177, 10.0000000000000 );
#117 = SURFACE_STYLE_USAGE( .BOTH., #178 );
#118 = FACE_OUTER_BOUND( '', #179, .T. );
#119 = FACE_OUTER_BOUND( '', #180, .T. );
#120 = CYLINDRICAL_SURFACE( '', #181, 7.50000000000000 );
#121 = SURFACE_STYLE_USAGE( .BOTH., #182 );
#122 = FACE_OUTER_BOUND( '', #183, .T. );
#123 = FACE_OUTER_BOUND( '', #184, .T. );
#124 = CYLINDRICAL_SURFACE( '', #185, 7.25000000000000 );
#125 = SURFACE_STYLE_USAGE( .BOTH., #186 );
#126 = FACE_OUTER_BOUND( '', #187, .T. );
#127 = PLANE( '', #188 );
#128 = SURFACE_STYLE_USAGE( .BOTH., #189 );
#129 = FACE_OUTER_BOUND( '', #190, .T. );
#130 = FACE_OUTER_BOUND( '', #191, .T. );
#131 = TOROIDAL_SURFACE( '', #192, 9.75000000000000, 2.50000000000000 );
#132 = SURFACE_STYLE_USAGE( .BOTH., #193 );
#133 = FACE_OUTER_BOUND( '', #194, .T. );
#134 = FACE_OUTER_BOUND( '', #195, .T. );
#135 = TOROIDAL_SURFACE( '', #196, 5.00000000000000, 4.00000000000000 );
#136 = PRODUCT_CONTEXT( '', #24, 'mechanical' );
#137 = PRODUCT_DEFINITION_FORMATION_WITH_SPECIFIED_SOURCE( ' ', 'NONE', #65, .NOT_KNOWN. );
#138 = CLOSED_SHELL( '', ( #48, #44, #58, #62, #56, #38, #60, #52, #46, #50, #40, #54, #42, #64 ) );
#139 = CARTESIAN_POINT( '', ( 0.000000000000000, 0.000000000000000, 0.000000000000000 ) );
#140 = DIRECTION( '', ( 0.000000000000000, 0.000000000000000, 1.00000000000000 ) );
#141 = DIRECTION( '', ( 1.00000000000000, 0.000000000000000, 0.000000000000000 ) );
#142 =  ( LENGTH_UNIT(  )NAMED_UNIT( #74 )SI_UNIT( .MILLI., .METRE. ) );
#143 = SURFACE_SIDE_STYLE( '', ( #198 ) );
#144 = EDGE_LOOP( '', ( #199 ) );
#145 = EDGE_LOOP( '', ( #200 ) );
#146 = AXIS2_PLACEMENT_3D( '', #201, #202, #203 );
#147 = SURFACE_SIDE_STYLE( '', ( #204 ) );
#148 = EDGE_LOOP( '', ( #205 ) );
#149 = EDGE_LOOP( '', ( #206 ) );
#150 = AXIS2_PLACEMENT_3D( '', #207, #208, #209 );
#151 = SURFACE_SIDE_STYLE( '', ( #210 ) );
#152 = EDGE_LOOP( '', ( #211 ) );
#153 = AXIS2_PLACEMENT_3D( '', #212, #213, #214 );
#154 = SURFACE_SIDE_STYLE( '', ( #215 ) );
#155 = EDGE_LOOP( '', ( #216 ) );
#156 = EDGE_LOOP( '', ( #217 ) );
#157 = AXIS2_PLACEMENT_3D( '', #218, #219, #220 );
#158 = SURFACE_SIDE_STYLE( '', ( #221 ) );
#159 = EDGE_LOOP( '', ( #222 ) );
#160 = EDGE_LOOP( '', ( #223 ) );
#161 = AXIS2_PLACEMENT_3D( '', #224, #225, #226 );
#162 = SURFACE_SIDE_STYLE( '', ( #227 ) );
#163 = EDGE_LOOP( '', ( #228 ) );
#164 = EDGE_LOOP( '', ( #229 ) );
#165 = AXIS2_PLACEMENT_3D( '', #230, #231, #232 );
#166 = SURFACE_SIDE_STYLE( '', ( #233 ) );
#167 = EDGE_LOOP( '', ( #234 ) );
#168 = EDGE_LOOP( '', ( #235 ) );
#169 = AXIS2_PLACEMENT_3D( '', #236, #237, #238 );
#170 = SURFACE_SIDE_STYLE( '', ( #239 ) );
#171 = EDGE_LOOP( '', ( #240 ) );
#172 = EDGE_LOOP( '', ( #241 ) );
#173 = AXIS2_PLACEMENT_3D( '', #242, #243, #244 );
#174 = SURFACE_SIDE_STYLE( '', ( #245 ) );
#175 = EDGE_LOOP( '', ( #246 ) );
#176 = EDGE_LOOP( '', ( #247 ) );
#177 = AXIS2_PLACEMENT_3D( '', #248, #249, #250 );
#178 = SURFACE_SIDE_STYLE( '', ( #251 ) );
#179 = EDGE_LOOP( '', ( #252 ) );
#180 = EDGE_LOOP( '', ( #253 ) );
#181 = AXIS2_PLACEMENT_3D( '', #254, #255, #256 );
#182 = SURFACE_SIDE_STYLE( '', ( #257 ) );
#183 = EDGE_LOOP( '', ( #258 ) );
#184 = EDGE_LOOP( '', ( #259 ) );
#185 = AXIS2_PLACEMENT_3D( '', #260, #261, #262 );
#186 = SURFACE_SIDE_STYLE( '', ( #263 ) );
#187 = EDGE_LOOP( '', ( #264 ) );
#188 = AXIS2_PLACEMENT_3D( '', #265, #266, #267 );
#189 = SURFACE_SIDE_STYLE( '', ( #268 ) );
#190 = EDGE_LOOP( '', ( #269 ) );
#191 = EDGE_LOOP( '', ( #270 ) );
#192 = AXIS2_PLACEMENT_3D( '', #271, #272, #273 );
#193 = SURFACE_SIDE_STYLE( '', ( #274 ) );
#194 = EDGE_LOOP( '', ( #275 ) );
#195 = EDGE_LOOP( '', ( #276 ) );
#196 = AXIS2_PLACEMENT_3D( '', #277, #278, #279 );
#198 = SURFACE_STYLE_FILL_AREA( #280 );
#199 = ORIENTED_EDGE( '', *, *, #281, .F. );
#200 = ORIENTED_EDGE( '', *, *, #282, .F. );
#201 = CARTESIAN_POINT( '', ( 0.000000000000000, 0.000000000000000, 7.41084865782411 ) );
#202 = DIRECTION( '', ( -0.000000000000000, -0.000000000000000, 1.00000000000000 ) );
#203 = DIRECTION( '', ( 1.00000000000000, 0.000000000000000, 0.000000000000000 ) );
#204 = SURFACE_STYLE_FILL_AREA( #283 );
#205 = ORIENTED_EDGE( '', *, *, #284, .T. );
#206 = ORIENTED_EDGE( '', *, *, #285, .F. );
#207 = CARTESIAN_POINT( '', ( 0.000000000000000, 0.000000000000000, 9.25084865782410 ) );
#208 = DIRECTION( '', ( -0.000000000000000, -0.000000000000000, -1.00000000000000 ) );
#209 = DIRECTION( '', ( 1.00000000000000, 0.000000000000000, 0.000000000000000 ) );
#210 = SURFACE_STYLE_FILL_AREA( #286 );
#211 = ORIENTED_EDGE( '', *, *, #284, .F. );
#212 = CARTESIAN_POINT( '', ( 0.000000000000000, 0.000000000000000, 9.25084865782410 ) );
#213 = DIRECTION( '', ( 0.000000000000000, 0.000000000000000, -1.00000000000000 ) );
#214 = DIRECTION( '', ( -1.00000000000000, 0.000000000000000, 0.000000000000000 ) );
#215 = SURFACE_STYLE_FILL_AREA( #287 );
#216 = ORIENTED_EDGE( '', *, *, #288, .F. );
#217 = ORIENTED_EDGE( '', *, *, #289, .T. );
#218 = CARTESIAN_POINT( '', ( 0.000000000000000, 0.000000000000000, 0.118740044299815 ) );
#219 = DIRECTION( '', ( -0.000000000000000, -0.000000000000000, -1.00000000000000 ) );
#220 = DIRECTION( '', ( 1.00000000000000, 0.000000000000000, 0.000000000000000 ) );
#221 = SURFACE_STYLE_FILL_AREA( #290 );
#222 = ORIENTED_EDGE( '', *, *, #291, .F. );
#223 = ORIENTED_EDGE( '', *, *, #285, .T. );
#224 = CARTESIAN_POINT( '', ( 0.000000000000000, 0.000000000000000, 29.2508486578241 ) );
#225 = DIRECTION( '', ( 0.000000000000000, 0.000000000000000, -1.00000000000000 ) );
#226 = DIRECTION( '', ( -1.00000000000000, 0.000000000000000, 0.000000000000000 ) );
#227 = SURFACE_STYLE_FILL_AREA( #292 );
#228 = ORIENTED_EDGE( '', *, *, #293, .F. );
#229 = ORIENTED_EDGE( '', *, *, #294, .T. );
#230 = CARTESIAN_POINT( '', ( 0.000000000000000, 0.000000000000000, -31.7491513421759 ) );
#231 = DIRECTION( '', ( 0.000000000000000, 0.000000000000000, 1.00000000000000 ) );
#232 = DIRECTION( '', ( 1.00000000000000, 0.000000000000000, 0.000000000000000 ) );
#233 = SURFACE_STYLE_FILL_AREA( #295 );
#234 = ORIENTED_EDGE( '', *, *, #282, .T. );
#235 = ORIENTED_EDGE( '', *, *, #289, .F. );
#236 = CARTESIAN_POINT( '', ( 0.000000000000000, 0.000000000000000, 7.41084865782410 ) );
#237 = DIRECTION( '', ( 0.000000000000000, 0.000000000000000, -1.00000000000000 ) );
#238 = DIRECTION( '', ( -1.00000000000000, 0.000000000000000, 0.000000000000000 ) );
#239 = SURFACE_STYLE_FILL_AREA( #296 );
#240 = ORIENTED_EDGE( '', *, *, #297, .T. );
#241 = ORIENTED_EDGE( '', *, *, #293, .T. );
#242 = CARTESIAN_POINT( '', ( 0.000000000000000, 0.000000000000000, -28.8812599557002 ) );
#243 = DIRECTION( '', ( -0.000000000000000, -0.000000000000000, -1.00000000000000 ) );
#244 = DIRECTION( '', ( 1.00000000000000, 0.000000000000000, 0.000000000000000 ) );
#245 = SURFACE_STYLE_FILL_AREA( #298 );
#246 = ORIENTED_EDGE( '', *, *, #281, .T. );
#247 = ORIENTED_EDGE( '', *, *, #291, .T. );
#248 = CARTESIAN_POINT( '', ( 0.000000000000000, 0.000000000000000, 29.2508486578241 ) );
#249 = DIRECTION( '', ( -0.000000000000000, -0.000000000000000, 1.00000000000000 ) );
#250 = DIRECTION( '', ( -1.00000000000000, 0.000000000000000, 0.000000000000000 ) );
#251 = SURFACE_STYLE_FILL_AREA( #299 );
#252 = ORIENTED_EDGE( '', *, *, #300, .T. );
#253 = ORIENTED_EDGE( '', *, *, #294, .F. );
#254 = CARTESIAN_POINT( '', ( 0.000000000000000, 0.000000000000000, -28.8812599557002 ) );
#255 = DIRECTION( '', ( -0.000000000000000, -0.000000000000000, -1.00000000000000 ) );
#256 = DIRECTION( '', ( 1.00000000000000, 0.000000000000000, 0.000000000000000 ) );
#257 = SURFACE_STYLE_FILL_AREA( #301 );
#258 = ORIENTED_EDGE( '', *, *, #302, .T. );
#259 = ORIENTED_EDGE( '', *, *, #303, .F. );
#260 = CARTESIAN_POINT( '', ( 0.000000000000000, 0.000000000000000, 22.0114653745082 ) );
#261 = DIRECTION( '', ( -0.000000000000000, -0.000000000000000, 1.00000000000000 ) );
#262 = DIRECTION( '', ( -1.00000000000000, 0.000000000000000, 0.000000000000000 ) );
#263 = SURFACE_STYLE_FILL_AREA( #304 );
#264 = ORIENTED_EDGE( '', *, *, #303, .T. );
#265 = CARTESIAN_POINT( '', ( 0.000000000000000, 0.000000000000000, 7.41084865782410 ) );
#266 = DIRECTION( '', ( 0.000000000000000, 0.000000000000000, -1.00000000000000 ) );
#267 = DIRECTION( '', ( -1.00000000000000, 0.000000000000000, 0.000000000000000 ) );
#268 = SURFACE_STYLE_FILL_AREA( #305 );
#269 = ORIENTED_EDGE( '', *, *, #302, .F. );
#270 = ORIENTED_EDGE( '', *, *, #300, .F. );
#271 = CARTESIAN_POINT( '', ( 0.000000000000000, 0.000000000000000, 2.20846478018498 ) );
#272 = DIRECTION( '', ( 0.000000000000000, 0.000000000000000, -1.00000000000000 ) );
#273 = DIRECTION( '', ( -1.00000000000000, 0.000000000000000, 0.000000000000000 ) );
#274 = SURFACE_STYLE_FILL_AREA( #306 );
#275 = ORIENTED_EDGE( '', *, *, #297, .F. );
#276 = ORIENTED_EDGE( '', *, *, #288, .T. );
#277 = CARTESIAN_POINT( '', ( 0.000000000000000, 0.000000000000000, -0.273201046407687 ) );
#278 = DIRECTION( '', ( 0.000000000000000, 0.000000000000000, 1.00000000000000 ) );
#279 = DIRECTION( '', ( 1.00000000000000, 0.000000000000000, 0.000000000000000 ) );
#280 = FILL_AREA_STYLE( '', ( #307 ) );
#281 = EDGE_CURVE( '', #308, #308, #309, .F. );
#282 = EDGE_CURVE( '', #310, #310, #311, .T. );
#283 = FILL_AREA_STYLE( '', ( #312 ) );
#284 = EDGE_CURVE( '', #313, #313, #314, .T. );
#285 = EDGE_CURVE( '', #315, #315, #316, .T. );
#286 = FILL_AREA_STYLE( '', ( #317 ) );
#287 = FILL_AREA_STYLE( '', ( #318 ) );
#288 = EDGE_CURVE( '', #319, #319, #320, .T. );
#289 = EDGE_CURVE( '', #321, #321, #322, .T. );
#290 = FILL_AREA_STYLE( '', ( #323 ) );
#291 = EDGE_CURVE( '', #324, #324, #325, .T. );
#292 = FILL_AREA_STYLE( '', ( #326 ) );
#293 = EDGE_CURVE( '', #327, #327, #328, .T. );
#294 = EDGE_CURVE( '', #329, #329, #330, .T. );
#295 = FILL_AREA_STYLE( '', ( #331 ) );
#296 = FILL_AREA_STYLE( '', ( #332 ) );
#297 = EDGE_CURVE( '', #333, #333, #334, .F. );
#298 = FILL_AREA_STYLE( '', ( #335 ) );
#299 = FILL_AREA_STYLE( '', ( #336 ) );
#300 = EDGE_CURVE( '', #337, #337, #338, .T. );
#301 = FILL_AREA_STYLE( '', ( #339 ) );
#302 = EDGE_CURVE( '', #340, #340, #341, .T. );
#303 = EDGE_CURVE( '', #342, #342, #343, .T. );
#304 = FILL_AREA_STYLE( '', ( #344 ) );
#305 = FILL_AREA_STYLE( '', ( #345 ) );
#306 = FILL_AREA_STYLE( '', ( #346 ) );
#307 = FILL_AREA_STYLE_COLOUR( '', #347 );
#308 = VERTEX_POINT( '', #348 );
#309 = CIRCLE( '', #349, 10.0000000000000 );
#310 = VERTEX_POINT( '', #350 );
#311 = CIRCLE( '', #351, 9.50000000000000 );
#312 = FILL_AREA_STYLE_COLOUR( '', #352 );
#313 = VERTEX_POINT( '', #353 );
#314 = CIRCLE( '', #354, 7.50000000000000 );
#315 = VERTEX_POINT( '', #355 );
#316 = CIRCLE( '', #356, 7.50000000000000 );
#317 = FILL_AREA_STYLE_COLOUR( '', #357 );
#318 = FILL_AREA_STYLE_COLOUR( '', #358 );
#319 = VERTEX_POINT( '', #359 );
#320 = CIRCLE( '', #360, 8.69827966749825 );
#321 = VERTEX_POINT( '', #361 );
#322 = CIRCLE( '', #362, 8.69827966749825 );
#323 = FILL_AREA_STYLE_COLOUR( '', #363 );
#324 = VERTEX_POINT( '', #364 );
#325 = CIRCLE( '', #365, 10.0000000000000 );
#326 = FILL_AREA_STYLE_COLOUR( '', #366 );
#327 = VERTEX_POINT( '', #367 );
#328 = CIRCLE( '', #368, 9.00000000000000 );
#329 = VERTEX_POINT( '', #369 );
#330 = CIRCLE( '', #370, 7.50000000000000 );
#331 = FILL_AREA_STYLE_COLOUR( '', #371 );
#332 = FILL_AREA_STYLE_COLOUR( '', #372 );
#333 = VERTEX_POINT( '', #373 );
#334 = CIRCLE( '', #374, 9.00000000000000 );
#335 = FILL_AREA_STYLE_COLOUR( '', #375 );
#336 = FILL_AREA_STYLE_COLOUR( '', #376 );
#337 = VERTEX_POINT( '', #377 );
#338 = CIRCLE( '', #378, 7.50000000000000 );
#339 = FILL_AREA_STYLE_COLOUR( '', #379 );
#340 = VERTEX_POINT( '', #380 );
#341 = CIRCLE( '', #381, 7.25000000000000 );
#342 = VERTEX_POINT( '', #382 );
#343 = CIRCLE( '', #383, 7.25000000000000 );
#344 = FILL_AREA_STYLE_COLOUR( '', #384 );
#345 = FILL_AREA_STYLE_COLOUR( '', #385 );
#346 = FILL_AREA_STYLE_COLOUR( '', #386 );
#347 = COLOUR_RGB( '', 0.752941191196442, 0.752941191196442, 0.752941191196442 );
#348 = CARTESIAN_POINT( '', ( -10.0000000000000, 0.000000000000000, 7.91084865782410 ) );
#349 = AXIS2_PLACEMENT_3D( '', #387, #388, #389 );
#350 = CARTESIAN_POINT( '', ( -9.50000000000000, 0.000000000000000, 7.41084865782410 ) );
#351 = AXIS2_PLACEMENT_3D( '', #390, #391, #392 );
#352 = COLOUR_RGB( '', 0.752941191196442, 0.752941191196442, 0.752941191196442 );
#353 = CARTESIAN_POINT( '', ( 7.50000000000000, 0.000000000000000, 9.25084865782410 ) );
#354 = AXIS2_PLACEMENT_3D( '', #393, #394, #395 );
#355 = CARTESIAN_POINT( '', ( 7.50000000000000, 0.000000000000000, 29.2508486578241 ) );
#356 = AXIS2_PLACEMENT_3D( '', #396, #397, #398 );
#357 = COLOUR_RGB( '', 0.752941191196442, 0.752941191196442, 0.752941191196442 );
#358 = COLOUR_RGB( '', 0.752941191196442, 0.752941191196442, 0.752941191196442 );
#359 = CARTESIAN_POINT( '', ( -8.69827966749825, 0.000000000000000, 1.25084865782410 ) );
#360 = AXIS2_PLACEMENT_3D( '', #399, #400, #401 );
#361 = CARTESIAN_POINT( '', ( -8.69827966749825, 0.000000000000000, 7.41084865782410 ) );
#362 = AXIS2_PLACEMENT_3D( '', #402, #403, #404 );
#363 = COLOUR_RGB( '', 0.752941191196442, 0.752941191196442, 0.752941191196442 );
#364 = CARTESIAN_POINT( '', ( 10.0000000000000, 0.000000000000000, 29.2508486578241 ) );
#365 = AXIS2_PLACEMENT_3D( '', #405, #406, #407 );
#366 = COLOUR_RGB( '', 0.752941191196442, 0.752941191196442, 0.752941191196442 );
#367 = CARTESIAN_POINT( '', ( 9.00000000000000, 0.000000000000000, -31.7491513421759 ) );
#368 = AXIS2_PLACEMENT_3D( '', #408, #409, #410 );
#369 = CARTESIAN_POINT( '', ( 7.50000000000000, 0.000000000000000, -31.7491513421759 ) );
#370 = AXIS2_PLACEMENT_3D( '', #411, #412, #413 );
#371 = COLOUR_RGB( '', 0.752941191196442, 0.752941191196442, 0.752941191196442 );
#372 = COLOUR_RGB( '', 0.752941191196442, 0.752941191196442, 0.752941191196442 );
#373 = CARTESIAN_POINT( '', ( 9.00000000000000, 0.000000000000000, -0.273201046407684 ) );
#374 = AXIS2_PLACEMENT_3D( '', #414, #415, #416 );
#375 = COLOUR_RGB( '', 0.752941191196442, 0.752941191196442, 0.752941191196442 );
#376 = COLOUR_RGB( '', 0.752941191196442, 0.752941191196442, 0.752941191196442 );
#377 = CARTESIAN_POINT( '', ( 7.50000000000000, 0.000000000000000, 1.11874004429981 ) );
#378 = AXIS2_PLACEMENT_3D( '', #417, #418, #419 );
#379 = COLOUR_RGB( '', 0.752941191196442, 0.752941191196442, 0.752941191196442 );
#380 = CARTESIAN_POINT( '', ( -7.25000000000000, 0.000000000000000, 2.20846478018498 ) );
#381 = AXIS2_PLACEMENT_3D( '', #420, #421, #422 );
#382 = CARTESIAN_POINT( '', ( -7.25000000000000, 0.000000000000000, 7.41084865782411 ) );
#383 = AXIS2_PLACEMENT_3D( '', #423, #424, #425 );
#384 = COLOUR_RGB( '', 0.752941191196442, 0.752941191196442, 0.752941191196442 );
#385 = COLOUR_RGB( '', 0.752941191196442, 0.752941191196442, 0.752941191196442 );
#386 = COLOUR_RGB( '', 0.752941191196442, 0.752941191196442, 0.752941191196442 );
#387 = CARTESIAN_POINT( '', ( 0.000000000000000, 0.000000000000000, 7.91084865782410 ) );
#388 = DIRECTION( '', ( 0.000000000000000, 0.000000000000000, -1.00000000000000 ) );
#389 = DIRECTION( '', ( -1.00000000000000, 0.000000000000000, 0.000000000000000 ) );
#390 = CARTESIAN_POINT( '', ( 0.000000000000000, 0.000000000000000, 7.41084865782410 ) );
#391 = DIRECTION( '', ( 0.000000000000000, 0.000000000000000, -1.00000000000000 ) );
#392 = DIRECTION( '', ( -1.00000000000000, 0.000000000000000, 0.000000000000000 ) );
#393 = CARTESIAN_POINT( '', ( 0.000000000000000, 0.000000000000000, 9.25084865782410 ) );
#394 = DIRECTION( '', ( 0.000000000000000, 0.000000000000000, -1.00000000000000 ) );
#395 = DIRECTION( '', ( 1.00000000000000, 0.000000000000000, 0.000000000000000 ) );
#396 = CARTESIAN_POINT( '', ( 0.000000000000000, 0.000000000000000, 29.2508486578241 ) );
#397 = DIRECTION( '', ( 0.000000000000000, 0.000000000000000, -1.00000000000000 ) );
#398 = DIRECTION( '', ( 1.00000000000000, 0.000000000000000, 0.000000000000000 ) );
#399 = CARTESIAN_POINT( '', ( 0.000000000000000, 0.000000000000000, 1.25084865782410 ) );
#400 = DIRECTION( '', ( 0.000000000000000, 0.000000000000000, -1.00000000000000 ) );
#401 = DIRECTION( '', ( -1.00000000000000, 0.000000000000000, 0.000000000000000 ) );
#402 = CARTESIAN_POINT( '', ( 0.000000000000000, 0.000000000000000, 7.41084865782410 ) );
#403 = DIRECTION( '', ( 0.000000000000000, 0.000000000000000, -1.00000000000000 ) );
#404 = DIRECTION( '', ( -1.00000000000000, 0.000000000000000, 0.000000000000000 ) );
#405 = CARTESIAN_POINT( '', ( 0.000000000000000, 0.000000000000000, 29.2508486578241 ) );
#406 = DIRECTION( '', ( 0.000000000000000, 0.000000000000000, -1.00000000000000 ) );
#407 = DIRECTION( '', ( 1.00000000000000, 0.000000000000000, 0.000000000000000 ) );
#408 = CARTESIAN_POINT( '', ( 0.000000000000000, 0.000000000000000, -31.7491513421759 ) );
#409 = DIRECTION( '', ( 0.000000000000000, 0.000000000000000, 1.00000000000000 ) );
#410 = DIRECTION( '', ( 1.00000000000000, 0.000000000000000, 0.000000000000000 ) );
#411 = CARTESIAN_POINT( '', ( 0.000000000000000, 0.000000000000000, -31.7491513421759 ) );
#412 = DIRECTION( '', ( 0.000000000000000, 0.000000000000000, 1.00000000000000 ) );
#413 = DIRECTION( '', ( 1.00000000000000, 0.000000000000000, 0.000000000000000 ) );
#414 = CARTESIAN_POINT( '', ( 0.000000000000000, 0.000000000000000, -0.273201046407684 ) );
#415 = DIRECTION( '', ( 0.000000000000000, 0.000000000000000, 1.00000000000000 ) );
#416 = DIRECTION( '', ( 1.00000000000000, 0.000000000000000, 0.000000000000000 ) );
#417 = CARTESIAN_POINT( '', ( 0.000000000000000, 0.000000000000000, 1.11874004429981 ) );
#418 = DIRECTION( '', ( 0.000000000000000, 0.000000000000000, 1.00000000000000 ) );
#419 = DIRECTION( '', ( 1.00000000000000, 0.000000000000000, 0.000000000000000 ) );
#420 = CARTESIAN_POINT( '', ( 0.000000000000000, 0.000000000000000, 2.20846478018498 ) );
#421 = DIRECTION( '', ( 0.000000000000000, 0.000000000000000, -1.00000000000000 ) );
#422 = DIRECTION( '', ( -1.00000000000000, 0.000000000000000, 0.000000000000000 ) );
#423 = CARTESIAN_POINT( '', ( 0.000000000000000, 0.000000000000000, 7.41084865782411 ) );
#424 = DIRECTION( '', ( 0.000000000000000, 0.000000000000000, -1.00000000000000 ) );
#425 = DIRECTION( '', ( -1.00000000000000, 0.000000000000000, 0.000000000000000 ) );
ENDSEC;
END-ISO-10303-21;
