ISO-10303-21;
HEADER;
FILE_DESCRIPTION( ( 'Unknown' ), '1' );
FILE_NAME( '//Server/ofimatica/alfredo/Alfredo2/ISOTUBI/PZAS3D/FICHATECNICA/NUMEPRESS/generico 3D/F14DN18-22.stp', 'Unknown', ( 'Unknown' ), ( 'Unknown' ), 'PSStep 14.0', 'Unknown', '  ' );
FILE_SCHEMA( ( 'AUTOMOTIVE_DESIGN { 1 0 10303 214 1 1 1 1 }' ) );
ENDSEC;
DATA;
#1 = MECHANICAL_DESIGN_GEOMETRIC_PRESENTATION_REPRESENTATION( ' ', ( #10, #11, #12, #13, #14, #15, #16, #17, #18, #19, #20, #21, #22 ), #6 );
#2 = PRODUCT_DEFINITION_CONTEXT( '', #23, 'design' );
#3 = APPLICATION_PROTOCOL_DEFINITION( 'international standard', 'automotive_design', 2001, #23 );
#4 = PRODUCT_CATEGORY_RELATIONSHIP( 'NONE', 'NONE', #24, #25 );
#5 = SHAPE_DEFINITION_REPRESENTATION( #26, #27 );
#6 =  ( GEOMETRIC_REPRESENTATION_CONTEXT( 3 )GLOBAL_UNCERTAINTY_ASSIGNED_CONTEXT( ( #30 ) )GLOBAL_UNIT_ASSIGNED_CONTEXT( ( #32, #33, #34 ) )REPRESENTATION_CONTEXT( 'NONE', 'WORKSPACE' ) );
#10 = STYLED_ITEM( '', ( #36 ), #37 );
#11 = STYLED_ITEM( '', ( #38 ), #39 );
#12 = STYLED_ITEM( '', ( #40 ), #41 );
#13 = STYLED_ITEM( '', ( #42 ), #43 );
#14 = STYLED_ITEM( '', ( #44 ), #45 );
#15 = STYLED_ITEM( '', ( #46 ), #47 );
#16 = STYLED_ITEM( '', ( #48 ), #49 );
#17 = STYLED_ITEM( '', ( #50 ), #51 );
#18 = STYLED_ITEM( '', ( #52 ), #53 );
#19 = STYLED_ITEM( '', ( #54 ), #55 );
#20 = STYLED_ITEM( '', ( #56 ), #57 );
#21 = STYLED_ITEM( '', ( #58 ), #59 );
#22 = STYLED_ITEM( '', ( #60 ), #61 );
#23 = APPLICATION_CONTEXT( 'core data for automotive mechanical design processes' );
#24 = PRODUCT_CATEGORY( 'part', 'NONE' );
#25 = PRODUCT_RELATED_PRODUCT_CATEGORY( 'detail', ' ', ( #62 ) );
#26 = PRODUCT_DEFINITION_SHAPE( 'NONE', 'NONE', #63 );
#27 = ADVANCED_BREP_SHAPE_REPRESENTATION( '1', ( #64, #65 ), #6 );
#30 = UNCERTAINTY_MEASURE_WITH_UNIT( LENGTH_MEASURE( 0.00100000000000000 ), #32, '', '' );
#32 =  ( CONVERSION_BASED_UNIT( 'MILLIMETRE', #68 )LENGTH_UNIT(  )NAMED_UNIT( #71 ) );
#33 =  ( NAMED_UNIT( #73 )PLANE_ANGLE_UNIT(  )SI_UNIT( $, .RADIAN. ) );
#34 =  ( NAMED_UNIT( #73 )SI_UNIT( $, .STERADIAN. )SOLID_ANGLE_UNIT(  ) );
#36 = PRESENTATION_STYLE_ASSIGNMENT( ( #79 ) );
#37 = ADVANCED_FACE( '', ( #80, #81 ), #82, .F. );
#38 = PRESENTATION_STYLE_ASSIGNMENT( ( #83 ) );
#39 = ADVANCED_FACE( '', ( #84 ), #85, .F. );
#40 = PRESENTATION_STYLE_ASSIGNMENT( ( #86 ) );
#41 = ADVANCED_FACE( '', ( #87, #88 ), #89, .T. );
#42 = PRESENTATION_STYLE_ASSIGNMENT( ( #90 ) );
#43 = ADVANCED_FACE( '', ( #91, #92 ), #93, .F. );
#44 = PRESENTATION_STYLE_ASSIGNMENT( ( #94 ) );
#45 = ADVANCED_FACE( '', ( #95, #96 ), #97, .F. );
#46 = PRESENTATION_STYLE_ASSIGNMENT( ( #98 ) );
#47 = ADVANCED_FACE( '', ( #99, #100 ), #101, .F. );
#48 = PRESENTATION_STYLE_ASSIGNMENT( ( #102 ) );
#49 = ADVANCED_FACE( '', ( #103, #104 ), #105, .F. );
#50 = PRESENTATION_STYLE_ASSIGNMENT( ( #106 ) );
#51 = ADVANCED_FACE( '', ( #107, #108 ), #109, .T. );
#52 = PRESENTATION_STYLE_ASSIGNMENT( ( #110 ) );
#53 = ADVANCED_FACE( '', ( #111, #112 ), #113, .T. );
#54 = PRESENTATION_STYLE_ASSIGNMENT( ( #114 ) );
#55 = ADVANCED_FACE( '', ( #115 ), #116, .T. );
#56 = PRESENTATION_STYLE_ASSIGNMENT( ( #117 ) );
#57 = ADVANCED_FACE( '', ( #118, #119 ), #120, .T. );
#58 = PRESENTATION_STYLE_ASSIGNMENT( ( #121 ) );
#59 = ADVANCED_FACE( '', ( #122, #123 ), #124, .T. );
#60 = PRESENTATION_STYLE_ASSIGNMENT( ( #125 ) );
#61 = ADVANCED_FACE( '', ( #126, #127 ), #128, .T. );
#62 = PRODUCT( '1', '1', 'PART-1-DESC', ( #129 ) );
#63 = PRODUCT_DEFINITION( 'NONE', 'NONE', #130, #2 );
#64 = MANIFOLD_SOLID_BREP( '1', #131 );
#65 = AXIS2_PLACEMENT_3D( '', #132, #133, #134 );
#68 = LENGTH_MEASURE_WITH_UNIT( LENGTH_MEASURE( 1.00000000000000 ), #135 );
#71 = DIMENSIONAL_EXPONENTS( 1.00000000000000, 0.000000000000000, 0.000000000000000, 0.000000000000000, 0.000000000000000, 0.000000000000000, 0.000000000000000 );
#73 = DIMENSIONAL_EXPONENTS( 0.000000000000000, 0.000000000000000, 0.000000000000000, 0.000000000000000, 0.000000000000000, 0.000000000000000, 0.000000000000000 );
#79 = SURFACE_STYLE_USAGE( .BOTH., #136 );
#80 = FACE_OUTER_BOUND( '', #137, .T. );
#81 = FACE_BOUND( '', #138, .T. );
#82 = PLANE( '', #139 );
#83 = SURFACE_STYLE_USAGE( .BOTH., #140 );
#84 = FACE_OUTER_BOUND( '', #141, .T. );
#85 = PLANE( '', #142 );
#86 = SURFACE_STYLE_USAGE( .BOTH., #143 );
#87 = FACE_OUTER_BOUND( '', #144, .T. );
#88 = FACE_OUTER_BOUND( '', #145, .T. );
#89 = CYLINDRICAL_SURFACE( '', #146, 11.0000000000000 );
#90 = SURFACE_STYLE_USAGE( .BOTH., #147 );
#91 = FACE_OUTER_BOUND( '', #148, .T. );
#92 = FACE_OUTER_BOUND( '', #149, .T. );
#93 = CYLINDRICAL_SURFACE( '', #150, 9.00000000000000 );
#94 = SURFACE_STYLE_USAGE( .BOTH., #151 );
#95 = FACE_OUTER_BOUND( '', #152, .T. );
#96 = FACE_OUTER_BOUND( '', #153, .T. );
#97 = CYLINDRICAL_SURFACE( '', #154, 9.50000000000000 );
#98 = SURFACE_STYLE_USAGE( .BOTH., #155 );
#99 = FACE_OUTER_BOUND( '', #156, .T. );
#100 = FACE_BOUND( '', #157, .T. );
#101 = PLANE( '', #158 );
#102 = SURFACE_STYLE_USAGE( .BOTH., #159 );
#103 = FACE_OUTER_BOUND( '', #160, .T. );
#104 = FACE_OUTER_BOUND( '', #161, .T. );
#105 = TOROIDAL_SURFACE( '', #162, 7.00000000000000, 2.50000000000000 );
#106 = SURFACE_STYLE_USAGE( .BOTH., #163 );
#107 = FACE_OUTER_BOUND( '', #164, .T. );
#108 = FACE_BOUND( '', #165, .T. );
#109 = PLANE( '', #166 );
#110 = SURFACE_STYLE_USAGE( .BOTH., #167 );
#111 = FACE_OUTER_BOUND( '', #168, .T. );
#112 = FACE_OUTER_BOUND( '', #169, .T. );
#113 = CYLINDRICAL_SURFACE( '', #170, 11.5000000000000 );
#114 = SURFACE_STYLE_USAGE( .BOTH., #171 );
#115 = FACE_OUTER_BOUND( '', #172, .T. );
#116 = PLANE( '', #173 );
#117 = SURFACE_STYLE_USAGE( .BOTH., #174 );
#118 = FACE_OUTER_BOUND( '', #175, .T. );
#119 = FACE_OUTER_BOUND( '', #176, .T. );
#120 = CYLINDRICAL_SURFACE( '', #177, 9.75000000000000 );
#121 = SURFACE_STYLE_USAGE( .BOTH., #178 );
#122 = FACE_OUTER_BOUND( '', #179, .T. );
#123 = FACE_BOUND( '', #180, .T. );
#124 = CONICAL_SURFACE( '', #181, 10.5000000000000, 0.785398163397448 );
#125 = SURFACE_STYLE_USAGE( .BOTH., #182 );
#126 = FACE_OUTER_BOUND( '', #183, .T. );
#127 = FACE_OUTER_BOUND( '', #184, .T. );
#128 = TOROIDAL_SURFACE( '', #185, 7.00000000000000, 4.00000000000000 );
#129 = PRODUCT_CONTEXT( '', #23, 'mechanical' );
#130 = PRODUCT_DEFINITION_FORMATION_WITH_SPECIFIED_SOURCE( ' ', 'NONE', #62, .NOT_KNOWN. );
#131 = CLOSED_SHELL( '', ( #47, #37, #41, #61, #49, #57, #45, #51, #59, #53, #43, #55, #39 ) );
#132 = CARTESIAN_POINT( '', ( 0.000000000000000, 0.000000000000000, 0.000000000000000 ) );
#133 = DIRECTION( '', ( 0.000000000000000, 0.000000000000000, 1.00000000000000 ) );
#134 = DIRECTION( '', ( 1.00000000000000, 0.000000000000000, 0.000000000000000 ) );
#135 =  ( LENGTH_UNIT(  )NAMED_UNIT( #71 )SI_UNIT( .MILLI., .METRE. ) );
#136 = SURFACE_SIDE_STYLE( '', ( #187 ) );
#137 = EDGE_LOOP( '', ( #188 ) );
#138 = EDGE_LOOP( '', ( #189 ) );
#139 = AXIS2_PLACEMENT_3D( '', #190, #191, #192 );
#140 = SURFACE_SIDE_STYLE( '', ( #193 ) );
#141 = EDGE_LOOP( '', ( #194 ) );
#142 = AXIS2_PLACEMENT_3D( '', #195, #196, #197 );
#143 = SURFACE_SIDE_STYLE( '', ( #198 ) );
#144 = EDGE_LOOP( '', ( #199 ) );
#145 = EDGE_LOOP( '', ( #200 ) );
#146 = AXIS2_PLACEMENT_3D( '', #201, #202, #203 );
#147 = SURFACE_SIDE_STYLE( '', ( #204 ) );
#148 = EDGE_LOOP( '', ( #205 ) );
#149 = EDGE_LOOP( '', ( #206 ) );
#150 = AXIS2_PLACEMENT_3D( '', #207, #208, #209 );
#151 = SURFACE_SIDE_STYLE( '', ( #210 ) );
#152 = EDGE_LOOP( '', ( #211 ) );
#153 = EDGE_LOOP( '', ( #212 ) );
#154 = AXIS2_PLACEMENT_3D( '', #213, #214, #215 );
#155 = SURFACE_SIDE_STYLE( '', ( #216 ) );
#156 = EDGE_LOOP( '', ( #217 ) );
#157 = EDGE_LOOP( '', ( #218 ) );
#158 = AXIS2_PLACEMENT_3D( '', #219, #220, #221 );
#159 = SURFACE_SIDE_STYLE( '', ( #222 ) );
#160 = EDGE_LOOP( '', ( #223 ) );
#161 = EDGE_LOOP( '', ( #224 ) );
#162 = AXIS2_PLACEMENT_3D( '', #225, #226, #227 );
#163 = SURFACE_SIDE_STYLE( '', ( #228 ) );
#164 = EDGE_LOOP( '', ( #229 ) );
#165 = EDGE_LOOP( '', ( #230 ) );
#166 = AXIS2_PLACEMENT_3D( '', #231, #232, #233 );
#167 = SURFACE_SIDE_STYLE( '', ( #234 ) );
#168 = EDGE_LOOP( '', ( #235 ) );
#169 = EDGE_LOOP( '', ( #236 ) );
#170 = AXIS2_PLACEMENT_3D( '', #237, #238, #239 );
#171 = SURFACE_SIDE_STYLE( '', ( #240 ) );
#172 = EDGE_LOOP( '', ( #241 ) );
#173 = AXIS2_PLACEMENT_3D( '', #242, #243, #244 );
#174 = SURFACE_SIDE_STYLE( '', ( #245 ) );
#175 = EDGE_LOOP( '', ( #246 ) );
#176 = EDGE_LOOP( '', ( #247 ) );
#177 = AXIS2_PLACEMENT_3D( '', #248, #249, #250 );
#178 = SURFACE_SIDE_STYLE( '', ( #251 ) );
#179 = EDGE_LOOP( '', ( #252 ) );
#180 = EDGE_LOOP( '', ( #253 ) );
#181 = AXIS2_PLACEMENT_3D( '', #254, #255, #256 );
#182 = SURFACE_SIDE_STYLE( '', ( #257 ) );
#183 = EDGE_LOOP( '', ( #258 ) );
#184 = EDGE_LOOP( '', ( #259 ) );
#185 = AXIS2_PLACEMENT_3D( '', #260, #261, #262 );
#187 = SURFACE_STYLE_FILL_AREA( #263 );
#188 = ORIENTED_EDGE( '', *, *, #264, .T. );
#189 = ORIENTED_EDGE( '', *, *, #265, .T. );
#190 = CARTESIAN_POINT( '', ( 0.000000000000000, 0.000000000000000, -29.9138309340231 ) );
#191 = DIRECTION( '', ( 0.000000000000000, 0.000000000000000, 1.00000000000000 ) );
#192 = DIRECTION( '', ( 1.00000000000000, 0.000000000000000, 0.000000000000000 ) );
#193 = SURFACE_STYLE_FILL_AREA( #266 );
#194 = ORIENTED_EDGE( '', *, *, #267, .F. );
#195 = CARTESIAN_POINT( '', ( 0.000000000000000, 0.000000000000000, 10.1861690659768 ) );
#196 = DIRECTION( '', ( 0.000000000000000, 0.000000000000000, -1.00000000000000 ) );
#197 = DIRECTION( '', ( -1.00000000000000, 0.000000000000000, 0.000000000000000 ) );
#198 = SURFACE_STYLE_FILL_AREA( #268 );
#199 = ORIENTED_EDGE( '', *, *, #264, .F. );
#200 = ORIENTED_EDGE( '', *, *, #269, .T. );
#201 = CARTESIAN_POINT( '', ( 0.000000000000000, 0.000000000000000, -27.9138309340231 ) );
#202 = DIRECTION( '', ( -0.000000000000000, -0.000000000000000, -1.00000000000000 ) );
#203 = DIRECTION( '', ( 1.00000000000000, 0.000000000000000, 0.000000000000000 ) );
#204 = SURFACE_STYLE_FILL_AREA( #270 );
#205 = ORIENTED_EDGE( '', *, *, #267, .T. );
#206 = ORIENTED_EDGE( '', *, *, #271, .F. );
#207 = CARTESIAN_POINT( '', ( 0.000000000000000, 0.000000000000000, 10.1861690659768 ) );
#208 = DIRECTION( '', ( -0.000000000000000, -0.000000000000000, -1.00000000000000 ) );
#209 = DIRECTION( '', ( 1.00000000000000, 0.000000000000000, 0.000000000000000 ) );
#210 = SURFACE_STYLE_FILL_AREA( #272 );
#211 = ORIENTED_EDGE( '', *, *, #273, .T. );
#212 = ORIENTED_EDGE( '', *, *, #265, .F. );
#213 = CARTESIAN_POINT( '', ( 0.000000000000000, 0.000000000000000, -27.9138309340231 ) );
#214 = DIRECTION( '', ( -0.000000000000000, -0.000000000000000, -1.00000000000000 ) );
#215 = DIRECTION( '', ( 1.00000000000000, 0.000000000000000, 0.000000000000000 ) );
#216 = SURFACE_STYLE_FILL_AREA( #274 );
#217 = ORIENTED_EDGE( '', *, *, #275, .F. );
#218 = ORIENTED_EDGE( '', *, *, #271, .T. );
#219 = CARTESIAN_POINT( '', ( 0.000000000000000, 0.000000000000000, 30.1861690659768 ) );
#220 = DIRECTION( '', ( 0.000000000000000, 0.000000000000000, -1.00000000000000 ) );
#221 = DIRECTION( '', ( -1.00000000000000, 0.000000000000000, 0.000000000000000 ) );
#222 = SURFACE_STYLE_FILL_AREA( #276 );
#223 = ORIENTED_EDGE( '', *, *, #277, .T. );
#224 = ORIENTED_EDGE( '', *, *, #273, .F. );
#225 = CARTESIAN_POINT( '', ( 0.000000000000000, 0.000000000000000, 2.92110555651574 ) );
#226 = DIRECTION( '', ( 0.000000000000000, 0.000000000000000, 1.00000000000000 ) );
#227 = DIRECTION( '', ( 1.00000000000000, 0.000000000000000, 0.000000000000000 ) );
#228 = SURFACE_STYLE_FILL_AREA( #278 );
#229 = ORIENTED_EDGE( '', *, *, #279, .T. );
#230 = ORIENTED_EDGE( '', *, *, #280, .T. );
#231 = CARTESIAN_POINT( '', ( 0.000000000000000, 0.000000000000000, 7.58616906597683 ) );
#232 = DIRECTION( '', ( 0.000000000000000, 0.000000000000000, -1.00000000000000 ) );
#233 = DIRECTION( '', ( -1.00000000000000, 0.000000000000000, 0.000000000000000 ) );
#234 = SURFACE_STYLE_FILL_AREA( #281 );
#235 = ORIENTED_EDGE( '', *, *, #282, .T. );
#236 = ORIENTED_EDGE( '', *, *, #275, .T. );
#237 = CARTESIAN_POINT( '', ( 0.000000000000000, 0.000000000000000, 30.1861690659768 ) );
#238 = DIRECTION( '', ( -0.000000000000000, -0.000000000000000, 1.00000000000000 ) );
#239 = DIRECTION( '', ( -1.00000000000000, 0.000000000000000, 0.000000000000000 ) );
#240 = SURFACE_STYLE_FILL_AREA( #283 );
#241 = ORIENTED_EDGE( '', *, *, #277, .F. );
#242 = CARTESIAN_POINT( '', ( 0.000000000000000, 0.000000000000000, 4.73656650005084 ) );
#243 = DIRECTION( '', ( 0.000000000000000, 0.000000000000000, -1.00000000000000 ) );
#244 = DIRECTION( '', ( -1.00000000000000, 0.000000000000000, 0.000000000000000 ) );
#245 = SURFACE_STYLE_FILL_AREA( #284 );
#246 = ORIENTED_EDGE( '', *, *, #285, .F. );
#247 = ORIENTED_EDGE( '', *, *, #280, .F. );
#248 = CARTESIAN_POINT( '', ( 0.000000000000000, 0.000000000000000, -0.415344545493690 ) );
#249 = DIRECTION( '', ( -0.000000000000000, -0.000000000000000, -1.00000000000000 ) );
#250 = DIRECTION( '', ( 1.00000000000000, 0.000000000000000, 0.000000000000000 ) );
#251 = SURFACE_STYLE_FILL_AREA( #286 );
#252 = ORIENTED_EDGE( '', *, *, #282, .F. );
#253 = ORIENTED_EDGE( '', *, *, #279, .F. );
#254 = CARTESIAN_POINT( '', ( 0.000000000000000, 0.000000000000000, 7.58616906597683 ) );
#255 = DIRECTION( '', ( -0.000000000000000, -0.000000000000000, 1.00000000000000 ) );
#256 = DIRECTION( '', ( 1.00000000000000, 0.000000000000000, 0.000000000000000 ) );
#257 = SURFACE_STYLE_FILL_AREA( #287 );
#258 = ORIENTED_EDGE( '', *, *, #269, .F. );
#259 = ORIENTED_EDGE( '', *, *, #285, .T. );
#260 = CARTESIAN_POINT( '', ( 0.000000000000000, 0.000000000000000, 2.18143155632127 ) );
#261 = DIRECTION( '', ( 0.000000000000000, 0.000000000000000, 1.00000000000000 ) );
#262 = DIRECTION( '', ( 1.00000000000000, 0.000000000000000, 0.000000000000000 ) );
#263 = FILL_AREA_STYLE( '', ( #288 ) );
#264 = EDGE_CURVE( '', #289, #289, #290, .F. );
#265 = EDGE_CURVE( '', #291, #291, #292, .T. );
#266 = FILL_AREA_STYLE( '', ( #293 ) );
#267 = EDGE_CURVE( '', #294, #294, #295, .T. );
#268 = FILL_AREA_STYLE( '', ( #296 ) );
#269 = EDGE_CURVE( '', #297, #297, #298, .F. );
#270 = FILL_AREA_STYLE( '', ( #299 ) );
#271 = EDGE_CURVE( '', #300, #300, #301, .T. );
#272 = FILL_AREA_STYLE( '', ( #302 ) );
#273 = EDGE_CURVE( '', #303, #303, #304, .T. );
#274 = FILL_AREA_STYLE( '', ( #305 ) );
#275 = EDGE_CURVE( '', #306, #306, #307, .T. );
#276 = FILL_AREA_STYLE( '', ( #308 ) );
#277 = EDGE_CURVE( '', #309, #309, #310, .F. );
#278 = FILL_AREA_STYLE( '', ( #311 ) );
#279 = EDGE_CURVE( '', #312, #312, #313, .T. );
#280 = EDGE_CURVE( '', #314, #314, #315, .T. );
#281 = FILL_AREA_STYLE( '', ( #316 ) );
#282 = EDGE_CURVE( '', #317, #317, #318, .F. );
#283 = FILL_AREA_STYLE( '', ( #319 ) );
#284 = FILL_AREA_STYLE( '', ( #320 ) );
#285 = EDGE_CURVE( '', #321, #321, #322, .F. );
#286 = FILL_AREA_STYLE( '', ( #323 ) );
#287 = FILL_AREA_STYLE( '', ( #324 ) );
#288 = FILL_AREA_STYLE_COLOUR( '', #325 );
#289 = VERTEX_POINT( '', #326 );
#290 = CIRCLE( '', #327, 11.0000000000000 );
#291 = VERTEX_POINT( '', #328 );
#292 = CIRCLE( '', #329, 9.50000000000000 );
#293 = FILL_AREA_STYLE_COLOUR( '', #330 );
#294 = VERTEX_POINT( '', #331 );
#295 = CIRCLE( '', #332, 9.00000000000000 );
#296 = FILL_AREA_STYLE_COLOUR( '', #333 );
#297 = VERTEX_POINT( '', #334 );
#298 = CIRCLE( '', #335, 11.0000000000000 );
#299 = FILL_AREA_STYLE_COLOUR( '', #336 );
#300 = VERTEX_POINT( '', #337 );
#301 = CIRCLE( '', #338, 9.00000000000000 );
#302 = FILL_AREA_STYLE_COLOUR( '', #339 );
#303 = VERTEX_POINT( '', #340 );
#304 = CIRCLE( '', #341, 9.50000000000000 );
#305 = FILL_AREA_STYLE_COLOUR( '', #342 );
#306 = VERTEX_POINT( '', #343 );
#307 = CIRCLE( '', #344, 11.5000000000000 );
#308 = FILL_AREA_STYLE_COLOUR( '', #345 );
#309 = VERTEX_POINT( '', #346 );
#310 = CIRCLE( '', #347, 8.71874999999960 );
#311 = FILL_AREA_STYLE_COLOUR( '', #348 );
#312 = VERTEX_POINT( '', #349 );
#313 = CIRCLE( '', #350, 10.5000000000000 );
#314 = VERTEX_POINT( '', #351 );
#315 = CIRCLE( '', #352, 9.75000000000000 );
#316 = FILL_AREA_STYLE_COLOUR( '', #353 );
#317 = VERTEX_POINT( '', #354 );
#318 = CIRCLE( '', #355, 11.5000000000000 );
#319 = FILL_AREA_STYLE_COLOUR( '', #356 );
#320 = FILL_AREA_STYLE_COLOUR( '', #357 );
#321 = VERTEX_POINT( '', #358 );
#322 = CIRCLE( '', #359, 9.75000000000000 );
#323 = FILL_AREA_STYLE_COLOUR( '', #360 );
#324 = FILL_AREA_STYLE_COLOUR( '', #361 );
#325 = COLOUR_RGB( '', 0.576470613479614, 0.000000000000000, 0.827450990676880 );
#326 = CARTESIAN_POINT( '', ( 11.0000000000000, 0.000000000000000, -29.9138309340231 ) );
#327 = AXIS2_PLACEMENT_3D( '', #362, #363, #364 );
#328 = CARTESIAN_POINT( '', ( 9.50000000000000, 0.000000000000000, -29.9138309340231 ) );
#329 = AXIS2_PLACEMENT_3D( '', #365, #366, #367 );
#330 = COLOUR_RGB( '', 0.576470613479614, 0.000000000000000, 0.827450990676880 );
#331 = CARTESIAN_POINT( '', ( 9.00000000000000, 0.000000000000000, 10.1861690659768 ) );
#332 = AXIS2_PLACEMENT_3D( '', #368, #369, #370 );
#333 = COLOUR_RGB( '', 0.576470613479614, 0.000000000000000, 0.827450990676880 );
#334 = CARTESIAN_POINT( '', ( 11.0000000000000, 0.000000000000000, 2.18143155632127 ) );
#335 = AXIS2_PLACEMENT_3D( '', #371, #372, #373 );
#336 = COLOUR_RGB( '', 0.576470613479614, 0.000000000000000, 0.827450990676880 );
#337 = CARTESIAN_POINT( '', ( 9.00000000000000, 0.000000000000000, 30.1861690659768 ) );
#338 = AXIS2_PLACEMENT_3D( '', #374, #375, #376 );
#339 = COLOUR_RGB( '', 0.576470613479614, 0.000000000000000, 0.827450990676880 );
#340 = CARTESIAN_POINT( '', ( 9.50000000000000, 0.000000000000000, 2.92110555651574 ) );
#341 = AXIS2_PLACEMENT_3D( '', #377, #378, #379 );
#342 = COLOUR_RGB( '', 0.576470613479614, 0.000000000000000, 0.827450990676880 );
#343 = CARTESIAN_POINT( '', ( -11.5000000000000, 0.000000000000000, 30.1861690659768 ) );
#344 = AXIS2_PLACEMENT_3D( '', #380, #381, #382 );
#345 = COLOUR_RGB( '', 0.576470613479614, 0.000000000000000, 0.827450990676880 );
#346 = CARTESIAN_POINT( '', ( -8.71874999999960, 0.000000000000000, 4.73656650005084 ) );
#347 = AXIS2_PLACEMENT_3D( '', #383, #384, #385 );
#348 = COLOUR_RGB( '', 0.576470613479614, 0.000000000000000, 0.827450990676880 );
#349 = CARTESIAN_POINT( '', ( -10.5000000000000, 0.000000000000000, 7.58616906597683 ) );
#350 = AXIS2_PLACEMENT_3D( '', #386, #387, #388 );
#351 = CARTESIAN_POINT( '', ( 9.75000000000000, 0.000000000000000, 7.58616906597683 ) );
#352 = AXIS2_PLACEMENT_3D( '', #389, #390, #391 );
#353 = COLOUR_RGB( '', 0.576470613479614, 0.000000000000000, 0.827450990676880 );
#354 = CARTESIAN_POINT( '', ( -11.5000000000000, 0.000000000000000, 8.58616906597683 ) );
#355 = AXIS2_PLACEMENT_3D( '', #392, #393, #394 );
#356 = COLOUR_RGB( '', 0.576470613479614, 0.000000000000000, 0.827450990676880 );
#357 = COLOUR_RGB( '', 0.576470613479614, 0.000000000000000, 0.827450990676880 );
#358 = CARTESIAN_POINT( '', ( 9.75000000000000, 0.000000000000000, 5.08616906597683 ) );
#359 = AXIS2_PLACEMENT_3D( '', #395, #396, #397 );
#360 = COLOUR_RGB( '', 0.576470613479614, 0.000000000000000, 0.827450990676880 );
#361 = COLOUR_RGB( '', 0.576470613479614, 0.000000000000000, 0.827450990676880 );
#362 = CARTESIAN_POINT( '', ( 0.000000000000000, 0.000000000000000, -29.9138309340231 ) );
#363 = DIRECTION( '', ( 0.000000000000000, 0.000000000000000, 1.00000000000000 ) );
#364 = DIRECTION( '', ( 1.00000000000000, 0.000000000000000, 0.000000000000000 ) );
#365 = CARTESIAN_POINT( '', ( 0.000000000000000, 0.000000000000000, -29.9138309340231 ) );
#366 = DIRECTION( '', ( 0.000000000000000, 0.000000000000000, 1.00000000000000 ) );
#367 = DIRECTION( '', ( 1.00000000000000, 0.000000000000000, 0.000000000000000 ) );
#368 = CARTESIAN_POINT( '', ( 0.000000000000000, 0.000000000000000, 10.1861690659768 ) );
#369 = DIRECTION( '', ( 0.000000000000000, 0.000000000000000, -1.00000000000000 ) );
#370 = DIRECTION( '', ( 1.00000000000000, 0.000000000000000, 0.000000000000000 ) );
#371 = CARTESIAN_POINT( '', ( 0.000000000000000, 0.000000000000000, 2.18143155632127 ) );
#372 = DIRECTION( '', ( 0.000000000000000, 0.000000000000000, 1.00000000000000 ) );
#373 = DIRECTION( '', ( 1.00000000000000, 0.000000000000000, 0.000000000000000 ) );
#374 = CARTESIAN_POINT( '', ( 0.000000000000000, 0.000000000000000, 30.1861690659768 ) );
#375 = DIRECTION( '', ( 0.000000000000000, 0.000000000000000, -1.00000000000000 ) );
#376 = DIRECTION( '', ( 1.00000000000000, 0.000000000000000, 0.000000000000000 ) );
#377 = CARTESIAN_POINT( '', ( 0.000000000000000, 0.000000000000000, 2.92110555651574 ) );
#378 = DIRECTION( '', ( 0.000000000000000, 0.000000000000000, 1.00000000000000 ) );
#379 = DIRECTION( '', ( 1.00000000000000, 0.000000000000000, 0.000000000000000 ) );
#380 = CARTESIAN_POINT( '', ( 0.000000000000000, 0.000000000000000, 30.1861690659768 ) );
#381 = DIRECTION( '', ( 0.000000000000000, 0.000000000000000, -1.00000000000000 ) );
#382 = DIRECTION( '', ( -1.00000000000000, 0.000000000000000, 0.000000000000000 ) );
#383 = CARTESIAN_POINT( '', ( 0.000000000000000, 0.000000000000000, 4.73656650005084 ) );
#384 = DIRECTION( '', ( 0.000000000000000, 0.000000000000000, -1.00000000000000 ) );
#385 = DIRECTION( '', ( -1.00000000000000, 0.000000000000000, 0.000000000000000 ) );
#386 = CARTESIAN_POINT( '', ( 0.000000000000000, 0.000000000000000, 7.58616906597683 ) );
#387 = DIRECTION( '', ( 0.000000000000000, 0.000000000000000, -1.00000000000000 ) );
#388 = DIRECTION( '', ( -1.00000000000000, 0.000000000000000, 0.000000000000000 ) );
#389 = CARTESIAN_POINT( '', ( 0.000000000000000, 0.000000000000000, 7.58616906597683 ) );
#390 = DIRECTION( '', ( 0.000000000000000, 0.000000000000000, 1.00000000000000 ) );
#391 = DIRECTION( '', ( 1.00000000000000, 0.000000000000000, 0.000000000000000 ) );
#392 = CARTESIAN_POINT( '', ( 0.000000000000000, 0.000000000000000, 8.58616906597683 ) );
#393 = DIRECTION( '', ( 0.000000000000000, 0.000000000000000, -1.00000000000000 ) );
#394 = DIRECTION( '', ( -1.00000000000000, 0.000000000000000, 0.000000000000000 ) );
#395 = CARTESIAN_POINT( '', ( 0.000000000000000, 0.000000000000000, 5.08616906597683 ) );
#396 = DIRECTION( '', ( 0.000000000000000, 0.000000000000000, 1.00000000000000 ) );
#397 = DIRECTION( '', ( 1.00000000000000, 0.000000000000000, 0.000000000000000 ) );
ENDSEC;
END-ISO-10303-21;
