ISO-10303-21;
HEADER;
/* Generated by software containing ST-Developer
 * from STEP Tools, Inc. (www.steptools.com) 
 */
/* OPTION: strings as raw bytes, not using required /X/ escapes */

FILE_DESCRIPTION(
/* description */ ('Unknown'),
/* implementation_level */ '2;1');

FILE_NAME(
/* name */ 'F14DN22-28',
/* time_stamp */ '2016-07-07T13:07:27+02:00',
/* author */ ('Unknown'),
/* organization */ ('Unknown'),
/* preprocessor_version */ 'ST-DEVELOPER v16',
/* originating_system */ 'DEX',
/* authorisation */ $);

FILE_SCHEMA (('AUTOMOTIVE_DESIGN {1 0 10303 214 3 1 1}'));
ENDSEC;

DATA;
#10=PROPERTY_DEFINITION_REPRESENTATION(#14,#12);
#11=PROPERTY_DEFINITION_REPRESENTATION(#15,#13);
#12=REPRESENTATION('',(#16),#283);
#13=REPRESENTATION('',(#17),#283);
#14=PROPERTY_DEFINITION('pmi validation property','',#288);
#15=PROPERTY_DEFINITION('pmi validation property','',#288);
#16=VALUE_REPRESENTATION_ITEM('number of annotations',COUNT_MEASURE(0.));
#17=VALUE_REPRESENTATION_ITEM('number of views',COUNT_MEASURE(0.));
#18=SHAPE_REPRESENTATION_RELATIONSHIP('','',#165,#19);
#19=ADVANCED_BREP_SHAPE_REPRESENTATION('',(#163),#283);
#20=CONICAL_SURFACE('',#188,12.5,0.785398163397447);
#21=CYLINDRICAL_SURFACE('',#173,14.);
#22=CYLINDRICAL_SURFACE('',#181,12.5);
#23=CYLINDRICAL_SURFACE('',#182,12.5);
#24=CYLINDRICAL_SURFACE('',#186,13.5);
#25=CYLINDRICAL_SURFACE('',#189,11.);
#26=TOROIDAL_SURFACE('',#170,10.,4.);
#27=TOROIDAL_SURFACE('',#179,10.,2.5);
#28=ORIENTED_EDGE('',*,*,#52,.F.);
#29=ORIENTED_EDGE('',*,*,#53,.T.);
#30=ORIENTED_EDGE('',*,*,#54,.F.);
#31=ORIENTED_EDGE('',*,*,#55,.F.);
#32=ORIENTED_EDGE('',*,*,#56,.F.);
#33=ORIENTED_EDGE('',*,*,#54,.T.);
#34=ORIENTED_EDGE('',*,*,#57,.F.);
#35=ORIENTED_EDGE('',*,*,#56,.T.);
#36=ORIENTED_EDGE('',*,*,#58,.F.);
#37=ORIENTED_EDGE('',*,*,#58,.T.);
#38=ORIENTED_EDGE('',*,*,#59,.F.);
#39=ORIENTED_EDGE('',*,*,#59,.T.);
#40=ORIENTED_EDGE('',*,*,#57,.T.);
#41=ORIENTED_EDGE('',*,*,#60,.F.);
#42=ORIENTED_EDGE('',*,*,#61,.F.);
#43=ORIENTED_EDGE('',*,*,#55,.T.);
#44=ORIENTED_EDGE('',*,*,#61,.T.);
#45=ORIENTED_EDGE('',*,*,#62,.T.);
#46=ORIENTED_EDGE('',*,*,#52,.T.);
#47=ORIENTED_EDGE('',*,*,#62,.F.);
#48=ORIENTED_EDGE('',*,*,#60,.T.);
#49=ORIENTED_EDGE('',*,*,#63,.T.);
#50=ORIENTED_EDGE('',*,*,#53,.F.);
#51=ORIENTED_EDGE('',*,*,#63,.F.);
#52=EDGE_CURVE('',#64,#64,#76,.T.);
#53=EDGE_CURVE('',#65,#65,#77,.T.);
#54=EDGE_CURVE('',#66,#66,#78,.F.);
#55=EDGE_CURVE('',#67,#67,#79,.F.);
#56=EDGE_CURVE('',#68,#68,#80,.F.);
#57=EDGE_CURVE('',#69,#69,#81,.F.);
#58=EDGE_CURVE('',#70,#70,#82,.F.);
#59=EDGE_CURVE('',#71,#71,#83,.T.);
#60=EDGE_CURVE('',#72,#72,#84,.F.);
#61=EDGE_CURVE('',#73,#73,#85,.T.);
#62=EDGE_CURVE('',#74,#74,#86,.F.);
#63=EDGE_CURVE('',#75,#75,#87,.T.);
#64=VERTEX_POINT('',#247);
#65=VERTEX_POINT('',#249);
#66=VERTEX_POINT('',#252);
#67=VERTEX_POINT('',#254);
#68=VERTEX_POINT('',#257);
#69=VERTEX_POINT('',#260);
#70=VERTEX_POINT('',#263);
#71=VERTEX_POINT('',#266);
#72=VERTEX_POINT('',#270);
#73=VERTEX_POINT('',#272);
#74=VERTEX_POINT('',#276);
#75=VERTEX_POINT('',#280);
#76=CIRCLE('',#168,13.5);
#77=CIRCLE('',#169,11.);
#78=CIRCLE('',#171,14.);
#79=CIRCLE('',#172,12.25);
#80=CIRCLE('',#174,14.);
#81=CIRCLE('',#176,12.5);
#82=CIRCLE('',#178,11.40625);
#83=CIRCLE('',#180,12.5);
#84=CIRCLE('',#183,12.5);
#85=CIRCLE('',#184,12.5);
#86=CIRCLE('',#187,13.5);
#87=CIRCLE('',#190,11.);
#88=EDGE_LOOP('',(#28));
#89=EDGE_LOOP('',(#29));
#90=EDGE_LOOP('',(#30));
#91=EDGE_LOOP('',(#31));
#92=EDGE_LOOP('',(#32));
#93=EDGE_LOOP('',(#33));
#94=EDGE_LOOP('',(#34));
#95=EDGE_LOOP('',(#35));
#96=EDGE_LOOP('',(#36));
#97=EDGE_LOOP('',(#37));
#98=EDGE_LOOP('',(#38));
#99=EDGE_LOOP('',(#39));
#100=EDGE_LOOP('',(#40));
#101=EDGE_LOOP('',(#41));
#102=EDGE_LOOP('',(#42));
#103=EDGE_LOOP('',(#43));
#104=EDGE_LOOP('',(#44));
#105=EDGE_LOOP('',(#45));
#106=EDGE_LOOP('',(#46));
#107=EDGE_LOOP('',(#47));
#108=EDGE_LOOP('',(#48));
#109=EDGE_LOOP('',(#49));
#110=EDGE_LOOP('',(#50));
#111=EDGE_LOOP('',(#51));
#112=FACE_BOUND('',#88,.T.);
#113=FACE_BOUND('',#89,.T.);
#114=FACE_BOUND('',#90,.T.);
#115=FACE_BOUND('',#91,.T.);
#116=FACE_BOUND('',#92,.T.);
#117=FACE_BOUND('',#93,.T.);
#118=FACE_BOUND('',#94,.T.);
#119=FACE_BOUND('',#95,.T.);
#120=FACE_BOUND('',#96,.T.);
#121=FACE_BOUND('',#97,.T.);
#122=FACE_BOUND('',#98,.T.);
#123=FACE_BOUND('',#99,.T.);
#124=FACE_BOUND('',#100,.T.);
#125=FACE_BOUND('',#101,.T.);
#126=FACE_BOUND('',#102,.T.);
#127=FACE_BOUND('',#103,.T.);
#128=FACE_BOUND('',#104,.T.);
#129=FACE_BOUND('',#105,.T.);
#130=FACE_BOUND('',#106,.T.);
#131=FACE_BOUND('',#107,.T.);
#132=FACE_BOUND('',#108,.T.);
#133=FACE_BOUND('',#109,.T.);
#134=FACE_BOUND('',#110,.T.);
#135=FACE_BOUND('',#111,.T.);
#136=PLANE('',#167);
#137=PLANE('',#175);
#138=PLANE('',#177);
#139=PLANE('',#185);
#140=PLANE('',#191);
#141=ADVANCED_FACE('',(#112,#113),#136,.F.);
#142=ADVANCED_FACE('',(#114,#115),#26,.T.);
#143=ADVANCED_FACE('',(#116,#117),#21,.T.);
#144=ADVANCED_FACE('',(#118,#119),#137,.F.);
#145=ADVANCED_FACE('',(#120),#138,.T.);
#146=ADVANCED_FACE('',(#121,#122),#27,.F.);
#147=ADVANCED_FACE('',(#123,#124),#22,.F.);
#148=ADVANCED_FACE('',(#125,#126),#23,.T.);
#149=ADVANCED_FACE('',(#127,#128),#139,.T.);
#150=ADVANCED_FACE('',(#129,#130),#24,.T.);
#151=ADVANCED_FACE('',(#131,#132),#20,.T.);
#152=ADVANCED_FACE('',(#133,#134),#25,.F.);
#153=ADVANCED_FACE('',(#135),#140,.F.);
#154=CLOSED_SHELL('',(#141,#142,#143,#144,#145,#146,#147,#148,#149,#150,
#151,#152,#153));
#155=STYLED_ITEM('',(#156),#163);
#156=PRESENTATION_STYLE_ASSIGNMENT((#157));
#157=SURFACE_STYLE_USAGE(.BOTH.,#158);
#158=SURFACE_SIDE_STYLE('',(#159));
#159=SURFACE_STYLE_FILL_AREA(#160);
#160=FILL_AREA_STYLE('',(#161));
#161=FILL_AREA_STYLE_COLOUR('',#162);
#162=COLOUR_RGB('',0.119999997317791,0.75,0.119999997317791);
#163=MANIFOLD_SOLID_BREP('',#154);
#164=SHAPE_DEFINITION_REPRESENTATION(#288,#165);
#165=SHAPE_REPRESENTATION('F14DN22-28',(#166),#283);
#166=AXIS2_PLACEMENT_3D('',#244,#192,#193);
#167=AXIS2_PLACEMENT_3D('',#245,#194,#195);
#168=AXIS2_PLACEMENT_3D('',#246,#196,#197);
#169=AXIS2_PLACEMENT_3D('',#248,#198,#199);
#170=AXIS2_PLACEMENT_3D('',#250,#200,#201);
#171=AXIS2_PLACEMENT_3D('',#251,#202,#203);
#172=AXIS2_PLACEMENT_3D('',#253,#204,#205);
#173=AXIS2_PLACEMENT_3D('',#255,#206,#207);
#174=AXIS2_PLACEMENT_3D('',#256,#208,#209);
#175=AXIS2_PLACEMENT_3D('',#258,#210,#211);
#176=AXIS2_PLACEMENT_3D('',#259,#212,#213);
#177=AXIS2_PLACEMENT_3D('',#261,#214,#215);
#178=AXIS2_PLACEMENT_3D('',#262,#216,#217);
#179=AXIS2_PLACEMENT_3D('',#264,#218,#219);
#180=AXIS2_PLACEMENT_3D('',#265,#220,#221);
#181=AXIS2_PLACEMENT_3D('',#267,#222,#223);
#182=AXIS2_PLACEMENT_3D('',#268,#224,#225);
#183=AXIS2_PLACEMENT_3D('',#269,#226,#227);
#184=AXIS2_PLACEMENT_3D('',#271,#228,#229);
#185=AXIS2_PLACEMENT_3D('',#273,#230,#231);
#186=AXIS2_PLACEMENT_3D('',#274,#232,#233);
#187=AXIS2_PLACEMENT_3D('',#275,#234,#235);
#188=AXIS2_PLACEMENT_3D('',#277,#236,#237);
#189=AXIS2_PLACEMENT_3D('',#278,#238,#239);
#190=AXIS2_PLACEMENT_3D('',#279,#240,#241);
#191=AXIS2_PLACEMENT_3D('',#281,#242,#243);
#192=DIRECTION('',(0.,0.,1.));
#193=DIRECTION('',(1.,0.,0.));
#194=DIRECTION('',(0.,0.,-1.));
#195=DIRECTION('',(-1.,0.,0.));
#196=DIRECTION('',(0.,0.,-1.));
#197=DIRECTION('',(1.,0.,0.));
#198=DIRECTION('',(0.,0.,-1.));
#199=DIRECTION('',(1.,0.,0.));
#200=DIRECTION('',(0.,0.,1.));
#201=DIRECTION('',(1.,0.,0.));
#202=DIRECTION('',(0.,0.,1.));
#203=DIRECTION('',(1.,0.,0.));
#204=DIRECTION('',(0.,0.,-1.));
#205=DIRECTION('',(-1.,0.,0.));
#206=DIRECTION('',(0.,0.,1.));
#207=DIRECTION('',(1.,0.,0.));
#208=DIRECTION('',(0.,0.,1.));
#209=DIRECTION('',(1.,0.,0.));
#210=DIRECTION('',(0.,0.,1.));
#211=DIRECTION('',(1.,0.,0.));
#212=DIRECTION('',(0.,0.,1.));
#213=DIRECTION('',(1.,0.,0.));
#214=DIRECTION('',(0.,0.,-1.));
#215=DIRECTION('',(-1.,0.,0.));
#216=DIRECTION('',(0.,0.,-1.));
#217=DIRECTION('',(-1.,0.,0.));
#218=DIRECTION('',(0.,0.,1.));
#219=DIRECTION('',(1.,0.,0.));
#220=DIRECTION('',(0.,0.,1.));
#221=DIRECTION('',(1.,0.,0.));
#222=DIRECTION('',(0.,0.,-1.));
#223=DIRECTION('',(-1.,0.,0.));
#224=DIRECTION('',(0.,0.,-1.));
#225=DIRECTION('',(-1.,0.,0.));
#226=DIRECTION('',(0.,0.,-1.));
#227=DIRECTION('',(-1.,0.,0.));
#228=DIRECTION('',(0.,0.,-1.));
#229=DIRECTION('',(1.,0.,0.));
#230=DIRECTION('',(0.,0.,-1.));
#231=DIRECTION('',(-1.,0.,0.));
#232=DIRECTION('',(0.,0.,1.));
#233=DIRECTION('',(1.,0.,0.));
#234=DIRECTION('',(0.,0.,-1.));
#235=DIRECTION('',(-1.,0.,0.));
#236=DIRECTION('',(0.,0.,1.));
#237=DIRECTION('',(1.,0.,0.));
#238=DIRECTION('',(0.,0.,1.));
#239=DIRECTION('',(1.,0.,0.));
#240=DIRECTION('',(0.,0.,-1.));
#241=DIRECTION('',(1.,0.,0.));
#242=DIRECTION('',(0.,0.,-1.));
#243=DIRECTION('',(-1.,0.,0.));
#244=CARTESIAN_POINT('',(0.,0.,0.));
#245=CARTESIAN_POINT('',(0.,0.,35.5342370250701));
#246=CARTESIAN_POINT('',(0.,0.,35.5342370250701));
#247=CARTESIAN_POINT('',(13.5,0.,35.5342370250701));
#248=CARTESIAN_POINT('',(0.,0.,35.5342370250701));
#249=CARTESIAN_POINT('',(11.,0.,35.5342370250701));
#250=CARTESIAN_POINT('',(0.,0.,4.92704788623935));
#251=CARTESIAN_POINT('',(0.,0.,4.92704788623935));
#252=CARTESIAN_POINT('',(14.,0.,4.92704788623935));
#253=CARTESIAN_POINT('',(0.,0.,8.23423702507009));
#254=CARTESIAN_POINT('',(-12.25,0.,8.23423702507009));
#255=CARTESIAN_POINT('',(0.,0.,-25.2657629749299));
#256=CARTESIAN_POINT('',(0.,0.,-31.4657629749299));
#257=CARTESIAN_POINT('',(14.,0.,-31.4657629749299));
#258=CARTESIAN_POINT('',(0.,0.,-31.4657629749299));
#259=CARTESIAN_POINT('',(0.,0.,-31.4657629749299));
#260=CARTESIAN_POINT('',(12.5,0.,-31.4657629749299));
#261=CARTESIAN_POINT('',(0.,0.,7.10919309446624));
#262=CARTESIAN_POINT('',(0.,0.,7.10919309446624));
#263=CARTESIAN_POINT('',(-11.40625,0.,7.10919309446624));
#264=CARTESIAN_POINT('',(0.,0.,5.04219988269698));
#265=CARTESIAN_POINT('',(0.,0.,5.04219988269698));
#266=CARTESIAN_POINT('',(12.5,0.,5.04219988269698));
#267=CARTESIAN_POINT('',(0.,0.,4.92704788623935));
#268=CARTESIAN_POINT('',(0.,0.,33.5342370250701));
#269=CARTESIAN_POINT('',(0.,0.,12.2942370250701));
#270=CARTESIAN_POINT('',(-12.5,0.,12.2942370250701));
#271=CARTESIAN_POINT('',(0.,0.,8.23423702507009));
#272=CARTESIAN_POINT('',(12.5,0.,8.23423702507009));
#273=CARTESIAN_POINT('',(0.,0.,8.23423702507009));
#274=CARTESIAN_POINT('',(0.,0.,12.2942370250701));
#275=CARTESIAN_POINT('',(0.,0.,13.2942370250701));
#276=CARTESIAN_POINT('',(-13.5,0.,13.2942370250701));
#277=CARTESIAN_POINT('',(0.,0.,12.2942370250701));
#278=CARTESIAN_POINT('',(0.,0.,14.1342370250701));
#279=CARTESIAN_POINT('',(0.,0.,14.2842370250701));
#280=CARTESIAN_POINT('',(11.,0.,14.2842370250701));
#281=CARTESIAN_POINT('',(0.,0.,14.2842370250701));
#282=MECHANICAL_DESIGN_GEOMETRIC_PRESENTATION_REPRESENTATION('',(#155),
#283);
#283=(
GEOMETRIC_REPRESENTATION_CONTEXT(3)
GLOBAL_UNCERTAINTY_ASSIGNED_CONTEXT((#284))
GLOBAL_UNIT_ASSIGNED_CONTEXT((#287,#286,#285))
REPRESENTATION_CONTEXT('F14DN22-28','TOP_LEVEL_ASSEMBLY_PART')
);
#284=UNCERTAINTY_MEASURE_WITH_UNIT(LENGTH_MEASURE(0.005),#287,
'DISTANCE_ACCURACY_VALUE','Maximum Tolerance applied to model');
#285=(
NAMED_UNIT(*)
SI_UNIT($,.STERADIAN.)
SOLID_ANGLE_UNIT()
);
#286=(
NAMED_UNIT(*)
PLANE_ANGLE_UNIT()
SI_UNIT($,.RADIAN.)
);
#287=(
LENGTH_UNIT()
NAMED_UNIT(*)
SI_UNIT(.MILLI.,.METRE.)
);
#288=PRODUCT_DEFINITION_SHAPE('','',#289);
#289=PRODUCT_DEFINITION('','',#291,#290);
#290=PRODUCT_DEFINITION_CONTEXT('',#297,'design');
#291=PRODUCT_DEFINITION_FORMATION_WITH_SPECIFIED_SOURCE('','',#293,
 .NOT_KNOWN.);
#292=PRODUCT_RELATED_PRODUCT_CATEGORY('','',(#293));
#293=PRODUCT('F14DN22-28','F14DN22-28','F14DN22-28',(#295));
#294=PRODUCT_CATEGORY('','');
#295=PRODUCT_CONTEXT('',#297,'mechanical');
#296=APPLICATION_PROTOCOL_DEFINITION('international standard',
'automotive_design',2010,#297);
#297=APPLICATION_CONTEXT(
'core data for automotive mechanical design processes');
ENDSEC;
END-ISO-10303-21;
