ISO-10303-21;
HEADER;
FILE_DESCRIPTION( ( 'Unknown' ), '1' );
FILE_NAME( '//Server/ofimatica/alfredo/Alfredo2/ISOTUBI/PZAS3D/FICHATECNICA/NUMEPRESS/generico 3D/F14DN18-42.stp', 'Unknown', ( 'Unknown' ), ( 'Unknown' ), 'PSStep 14.0', 'Unknown', '  ' );
FILE_SCHEMA( ( 'AUTOMOTIVE_DESIGN { 1 0 10303 214 1 1 1 1 }' ) );
ENDSEC;
DATA;
#1 = MECHANICAL_DESIGN_GEOMETRIC_PRESENTATION_REPRESENTATION( ' ', ( #10, #11, #12, #13, #14, #15, #16, #17, #18, #19, #20, #21, #22, #23 ), #6 );
#2 = PRODUCT_DEFINITION_CONTEXT( '', #24, 'design' );
#3 = APPLICATION_PROTOCOL_DEFINITION( 'international standard', 'automotive_design', 2001, #24 );
#4 = PRODUCT_CATEGORY_RELATIONSHIP( 'NONE', 'NONE', #25, #26 );
#5 = SHAPE_DEFINITION_REPRESENTATION( #27, #28 );
#6 =  ( GEOMETRIC_REPRESENTATION_CONTEXT( 3 )GLOBAL_UNCERTAINTY_ASSIGNED_CONTEXT( ( #31 ) )GLOBAL_UNIT_ASSIGNED_CONTEXT( ( #33, #34, #35 ) )REPRESENTATION_CONTEXT( 'NONE', 'WORKSPACE' ) );
#10 = STYLED_ITEM( '', ( #37 ), #38 );
#11 = STYLED_ITEM( '', ( #39 ), #40 );
#12 = STYLED_ITEM( '', ( #41 ), #42 );
#13 = STYLED_ITEM( '', ( #43 ), #44 );
#14 = STYLED_ITEM( '', ( #45 ), #46 );
#15 = STYLED_ITEM( '', ( #47 ), #48 );
#16 = STYLED_ITEM( '', ( #49 ), #50 );
#17 = STYLED_ITEM( '', ( #51 ), #52 );
#18 = STYLED_ITEM( '', ( #53 ), #54 );
#19 = STYLED_ITEM( '', ( #55 ), #56 );
#20 = STYLED_ITEM( '', ( #57 ), #58 );
#21 = STYLED_ITEM( '', ( #59 ), #60 );
#22 = STYLED_ITEM( '', ( #61 ), #62 );
#23 = STYLED_ITEM( '', ( #63 ), #64 );
#24 = APPLICATION_CONTEXT( 'core data for automotive mechanical design processes' );
#25 = PRODUCT_CATEGORY( 'part', 'NONE' );
#26 = PRODUCT_RELATED_PRODUCT_CATEGORY( 'detail', ' ', ( #65 ) );
#27 = PRODUCT_DEFINITION_SHAPE( 'NONE', 'NONE', #66 );
#28 = ADVANCED_BREP_SHAPE_REPRESENTATION( '1', ( #67, #68 ), #6 );
#31 = UNCERTAINTY_MEASURE_WITH_UNIT( LENGTH_MEASURE( 0.00100000000000000 ), #33, '', '' );
#33 =  ( CONVERSION_BASED_UNIT( 'MILLIMETRE', #71 )LENGTH_UNIT(  )NAMED_UNIT( #74 ) );
#34 =  ( NAMED_UNIT( #76 )PLANE_ANGLE_UNIT(  )SI_UNIT( $, .RADIAN. ) );
#35 =  ( NAMED_UNIT( #76 )SI_UNIT( $, .STERADIAN. )SOLID_ANGLE_UNIT(  ) );
#37 = PRESENTATION_STYLE_ASSIGNMENT( ( #82 ) );
#38 = ADVANCED_FACE( '', ( #83, #84 ), #85, .T. );
#39 = PRESENTATION_STYLE_ASSIGNMENT( ( #86 ) );
#40 = ADVANCED_FACE( '', ( #87, #88 ), #89, .T. );
#41 = PRESENTATION_STYLE_ASSIGNMENT( ( #90 ) );
#42 = ADVANCED_FACE( '', ( #91, #92 ), #93, .T. );
#43 = PRESENTATION_STYLE_ASSIGNMENT( ( #94 ) );
#44 = ADVANCED_FACE( '', ( #95, #96 ), #97, .F. );
#45 = PRESENTATION_STYLE_ASSIGNMENT( ( #98 ) );
#46 = ADVANCED_FACE( '', ( #99 ), #100, .F. );
#47 = PRESENTATION_STYLE_ASSIGNMENT( ( #101 ) );
#48 = ADVANCED_FACE( '', ( #102, #103 ), #104, .T. );
#49 = PRESENTATION_STYLE_ASSIGNMENT( ( #105 ) );
#50 = ADVANCED_FACE( '', ( #106, #107 ), #108, .T. );
#51 = PRESENTATION_STYLE_ASSIGNMENT( ( #109 ) );
#52 = ADVANCED_FACE( '', ( #110, #111 ), #112, .F. );
#53 = PRESENTATION_STYLE_ASSIGNMENT( ( #113 ) );
#54 = ADVANCED_FACE( '', ( #114, #115 ), #116, .T. );
#55 = PRESENTATION_STYLE_ASSIGNMENT( ( #117 ) );
#56 = ADVANCED_FACE( '', ( #118, #119 ), #120, .T. );
#57 = PRESENTATION_STYLE_ASSIGNMENT( ( #121 ) );
#58 = ADVANCED_FACE( '', ( #122, #123 ), #124, .F. );
#59 = PRESENTATION_STYLE_ASSIGNMENT( ( #125 ) );
#60 = ADVANCED_FACE( '', ( #126, #127 ), #128, .T. );
#61 = PRESENTATION_STYLE_ASSIGNMENT( ( #129 ) );
#62 = ADVANCED_FACE( '', ( #130 ), #131, .F. );
#63 = PRESENTATION_STYLE_ASSIGNMENT( ( #132 ) );
#64 = ADVANCED_FACE( '', ( #133, #134 ), #135, .T. );
#65 = PRODUCT( '1', '1', 'PART-1-DESC', ( #136 ) );
#66 = PRODUCT_DEFINITION( 'NONE', 'NONE', #137, #2 );
#67 = MANIFOLD_SOLID_BREP( '1', #138 );
#68 = AXIS2_PLACEMENT_3D( '', #139, #140, #141 );
#71 = LENGTH_MEASURE_WITH_UNIT( LENGTH_MEASURE( 1.00000000000000 ), #142 );
#74 = DIMENSIONAL_EXPONENTS( 1.00000000000000, 0.000000000000000, 0.000000000000000, 0.000000000000000, 0.000000000000000, 0.000000000000000, 0.000000000000000 );
#76 = DIMENSIONAL_EXPONENTS( 0.000000000000000, 0.000000000000000, 0.000000000000000, 0.000000000000000, 0.000000000000000, 0.000000000000000, 0.000000000000000 );
#82 = SURFACE_STYLE_USAGE( .BOTH., #143 );
#83 = FACE_OUTER_BOUND( '', #144, .T. );
#84 = FACE_BOUND( '', #145, .T. );
#85 = PLANE( '', #146 );
#86 = SURFACE_STYLE_USAGE( .BOTH., #147 );
#87 = FACE_OUTER_BOUND( '', #148, .T. );
#88 = FACE_BOUND( '', #149, .T. );
#89 = CONICAL_SURFACE( '', #150, 10.5000000000000, 0.785398163397448 );
#90 = SURFACE_STYLE_USAGE( .BOTH., #151 );
#91 = FACE_OUTER_BOUND( '', #152, .T. );
#92 = FACE_OUTER_BOUND( '', #153, .T. );
#93 = CYLINDRICAL_SURFACE( '', #154, 11.5000000000000 );
#94 = SURFACE_STYLE_USAGE( .BOTH., #155 );
#95 = FACE_OUTER_BOUND( '', #156, .T. );
#96 = FACE_OUTER_BOUND( '', #157, .T. );
#97 = CYLINDRICAL_SURFACE( '', #158, 19.0000000000000 );
#98 = SURFACE_STYLE_USAGE( .BOTH., #159 );
#99 = FACE_OUTER_BOUND( '', #160, .T. );
#100 = PLANE( '', #161 );
#101 = SURFACE_STYLE_USAGE( .BOTH., #162 );
#102 = FACE_OUTER_BOUND( '', #163, .T. );
#103 = FACE_BOUND( '', #164, .T. );
#104 = PLANE( '', #165 );
#105 = SURFACE_STYLE_USAGE( .BOTH., #166 );
#106 = FACE_OUTER_BOUND( '', #167, .T. );
#107 = FACE_OUTER_BOUND( '', #168, .T. );
#108 = CYLINDRICAL_SURFACE( '', #169, 21.0000000000000 );
#109 = SURFACE_STYLE_USAGE( .BOTH., #170 );
#110 = FACE_OUTER_BOUND( '', #171, .T. );
#111 = FACE_OUTER_BOUND( '', #172, .T. );
#112 = TOROIDAL_SURFACE( '', #173, 14.8000000000000, 4.20000000000000 );
#113 = SURFACE_STYLE_USAGE( .BOTH., #174 );
#114 = FACE_OUTER_BOUND( '', #175, .T. );
#115 = FACE_OUTER_BOUND( '', #176, .T. );
#116 = CYLINDRICAL_SURFACE( '', #177, 10.0000000000000 );
#117 = SURFACE_STYLE_USAGE( .BOTH., #178 );
#118 = FACE_OUTER_BOUND( '', #179, .T. );
#119 = FACE_BOUND( '', #180, .T. );
#120 = PLANE( '', #181 );
#121 = SURFACE_STYLE_USAGE( .BOTH., #182 );
#122 = FACE_OUTER_BOUND( '', #183, .T. );
#123 = FACE_OUTER_BOUND( '', #184, .T. );
#124 = CYLINDRICAL_SURFACE( '', #185, 9.00000000000000 );
#125 = SURFACE_STYLE_USAGE( .BOTH., #186 );
#126 = FACE_OUTER_BOUND( '', #187, .T. );
#127 = FACE_OUTER_BOUND( '', #188, .T. );
#128 = TOROIDAL_SURFACE( '', #189, 16.8000000000000, 4.20000000000000 );
#129 = SURFACE_STYLE_USAGE( .BOTH., #190 );
#130 = FACE_OUTER_BOUND( '', #191, .T. );
#131 = SPHERICAL_SURFACE( '', #192, 52.0000000000000 );
#132 = SURFACE_STYLE_USAGE( .BOTH., #193 );
#133 = FACE_OUTER_BOUND( '', #194, .T. );
#134 = FACE_OUTER_BOUND( '', #195, .T. );
#135 = SPHERICAL_SURFACE( '', #196, 54.0000000000000 );
#136 = PRODUCT_CONTEXT( '', #24, 'mechanical' );
#137 = PRODUCT_DEFINITION_FORMATION_WITH_SPECIFIED_SOURCE( ' ', 'NONE', #65, .NOT_KNOWN. );
#138 = CLOSED_SHELL( '', ( #48, #40, #58, #46, #64, #62, #42, #54, #56, #52, #44, #50, #38, #60 ) );
#139 = CARTESIAN_POINT( '', ( 0.000000000000000, 0.000000000000000, 0.000000000000000 ) );
#140 = DIRECTION( '', ( 0.000000000000000, 0.000000000000000, 1.00000000000000 ) );
#141 = DIRECTION( '', ( 1.00000000000000, 0.000000000000000, 0.000000000000000 ) );
#142 =  ( LENGTH_UNIT(  )NAMED_UNIT( #74 )SI_UNIT( .MILLI., .METRE. ) );
#143 = SURFACE_SIDE_STYLE( '', ( #198 ) );
#144 = EDGE_LOOP( '', ( #199 ) );
#145 = EDGE_LOOP( '', ( #200 ) );
#146 = AXIS2_PLACEMENT_3D( '', #201, #202, #203 );
#147 = SURFACE_SIDE_STYLE( '', ( #204 ) );
#148 = EDGE_LOOP( '', ( #205 ) );
#149 = EDGE_LOOP( '', ( #206 ) );
#150 = AXIS2_PLACEMENT_3D( '', #207, #208, #209 );
#151 = SURFACE_SIDE_STYLE( '', ( #210 ) );
#152 = EDGE_LOOP( '', ( #211 ) );
#153 = EDGE_LOOP( '', ( #212 ) );
#154 = AXIS2_PLACEMENT_3D( '', #213, #214, #215 );
#155 = SURFACE_SIDE_STYLE( '', ( #216 ) );
#156 = EDGE_LOOP( '', ( #217 ) );
#157 = EDGE_LOOP( '', ( #218 ) );
#158 = AXIS2_PLACEMENT_3D( '', #219, #220, #221 );
#159 = SURFACE_SIDE_STYLE( '', ( #222 ) );
#160 = EDGE_LOOP( '', ( #223 ) );
#161 = AXIS2_PLACEMENT_3D( '', #224, #225, #226 );
#162 = SURFACE_SIDE_STYLE( '', ( #227 ) );
#163 = EDGE_LOOP( '', ( #228 ) );
#164 = EDGE_LOOP( '', ( #229 ) );
#165 = AXIS2_PLACEMENT_3D( '', #230, #231, #232 );
#166 = SURFACE_SIDE_STYLE( '', ( #233 ) );
#167 = EDGE_LOOP( '', ( #234 ) );
#168 = EDGE_LOOP( '', ( #235 ) );
#169 = AXIS2_PLACEMENT_3D( '', #236, #237, #238 );
#170 = SURFACE_SIDE_STYLE( '', ( #239 ) );
#171 = EDGE_LOOP( '', ( #240 ) );
#172 = EDGE_LOOP( '', ( #241 ) );
#173 = AXIS2_PLACEMENT_3D( '', #242, #243, #244 );
#174 = SURFACE_SIDE_STYLE( '', ( #245 ) );
#175 = EDGE_LOOP( '', ( #246 ) );
#176 = EDGE_LOOP( '', ( #247 ) );
#177 = AXIS2_PLACEMENT_3D( '', #248, #249, #250 );
#178 = SURFACE_SIDE_STYLE( '', ( #251 ) );
#179 = EDGE_LOOP( '', ( #252 ) );
#180 = EDGE_LOOP( '', ( #253 ) );
#181 = AXIS2_PLACEMENT_3D( '', #254, #255, #256 );
#182 = SURFACE_SIDE_STYLE( '', ( #257 ) );
#183 = EDGE_LOOP( '', ( #258 ) );
#184 = EDGE_LOOP( '', ( #259 ) );
#185 = AXIS2_PLACEMENT_3D( '', #260, #261, #262 );
#186 = SURFACE_SIDE_STYLE( '', ( #263 ) );
#187 = EDGE_LOOP( '', ( #264 ) );
#188 = EDGE_LOOP( '', ( #265 ) );
#189 = AXIS2_PLACEMENT_3D( '', #266, #267, #268 );
#190 = SURFACE_SIDE_STYLE( '', ( #269 ) );
#191 = EDGE_LOOP( '', ( #270 ) );
#192 = AXIS2_PLACEMENT_3D( '', #271, #272, #273 );
#193 = SURFACE_SIDE_STYLE( '', ( #274 ) );
#194 = EDGE_LOOP( '', ( #275 ) );
#195 = EDGE_LOOP( '', ( #276 ) );
#196 = AXIS2_PLACEMENT_3D( '', #277, #278, #279 );
#198 = SURFACE_STYLE_FILL_AREA( #280 );
#199 = ORIENTED_EDGE( '', *, *, #281, .F. );
#200 = ORIENTED_EDGE( '', *, *, #282, .T. );
#201 = CARTESIAN_POINT( '', ( -27.0000000000000, 0.000000000000000, 54.5759127613079 ) );
#202 = DIRECTION( '', ( 0.000000000000000, 0.000000000000000, 1.00000000000000 ) );
#203 = DIRECTION( '', ( 1.00000000000000, 0.000000000000000, 0.000000000000000 ) );
#204 = SURFACE_STYLE_FILL_AREA( #283 );
#205 = ORIENTED_EDGE( '', *, *, #284, .F. );
#206 = ORIENTED_EDGE( '', *, *, #285, .F. );
#207 = CARTESIAN_POINT( '', ( 0.000000000000000, 0.000000000000000, -10.3240872386921 ) );
#208 = DIRECTION( '', ( -0.000000000000000, 0.000000000000000, -1.00000000000000 ) );
#209 = DIRECTION( '', ( -1.00000000000000, 0.000000000000000, 0.000000000000000 ) );
#210 = SURFACE_STYLE_FILL_AREA( #286 );
#211 = ORIENTED_EDGE( '', *, *, #284, .T. );
#212 = ORIENTED_EDGE( '', *, *, #287, .T. );
#213 = CARTESIAN_POINT( '', ( 0.000000000000000, 0.000000000000000, -10.3240872386921 ) );
#214 = DIRECTION( '', ( -0.000000000000000, -0.000000000000000, 1.00000000000000 ) );
#215 = DIRECTION( '', ( -1.00000000000000, 0.000000000000000, 0.000000000000000 ) );
#216 = SURFACE_STYLE_FILL_AREA( #288 );
#217 = ORIENTED_EDGE( '', *, *, #289, .T. );
#218 = ORIENTED_EDGE( '', *, *, #282, .F. );
#219 = CARTESIAN_POINT( '', ( 0.000000000000000, 0.000000000000000, -2.52408723869210 ) );
#220 = DIRECTION( '', ( -0.000000000000000, -0.000000000000000, -1.00000000000000 ) );
#221 = DIRECTION( '', ( 1.00000000000000, 0.000000000000000, 0.000000000000000 ) );
#222 = SURFACE_STYLE_FILL_AREA( #290 );
#223 = ORIENTED_EDGE( '', *, *, #291, .F. );
#224 = CARTESIAN_POINT( '', ( 0.000000000000000, 0.000000000000000, -12.9240872386921 ) );
#225 = DIRECTION( '', ( 0.000000000000000, 0.000000000000000, 1.00000000000000 ) );
#226 = DIRECTION( '', ( 1.00000000000000, 0.000000000000000, 0.000000000000000 ) );
#227 = SURFACE_STYLE_FILL_AREA( #292 );
#228 = ORIENTED_EDGE( '', *, *, #287, .F. );
#229 = ORIENTED_EDGE( '', *, *, #293, .T. );
#230 = CARTESIAN_POINT( '', ( 0.000000000000000, 0.000000000000000, -32.9240872386921 ) );
#231 = DIRECTION( '', ( 0.000000000000000, 0.000000000000000, -1.00000000000000 ) );
#232 = DIRECTION( '', ( -1.00000000000000, 0.000000000000000, 0.000000000000000 ) );
#233 = SURFACE_STYLE_FILL_AREA( #294 );
#234 = ORIENTED_EDGE( '', *, *, #281, .T. );
#235 = ORIENTED_EDGE( '', *, *, #295, .F. );
#236 = CARTESIAN_POINT( '', ( 0.000000000000000, 0.000000000000000, -0.429660095944040 ) );
#237 = DIRECTION( '', ( -0.000000000000000, -0.000000000000000, 1.00000000000000 ) );
#238 = DIRECTION( '', ( -1.00000000000000, 0.000000000000000, 0.000000000000000 ) );
#239 = SURFACE_STYLE_FILL_AREA( #296 );
#240 = ORIENTED_EDGE( '', *, *, #297, .T. );
#241 = ORIENTED_EDGE( '', *, *, #289, .F. );
#242 = CARTESIAN_POINT( '', ( 0.000000000000000, 0.000000000000000, 1.23430092509300 ) );
#243 = DIRECTION( '', ( 0.000000000000000, 0.000000000000000, -1.00000000000000 ) );
#244 = DIRECTION( '', ( -1.00000000000000, 0.000000000000000, 0.000000000000000 ) );
#245 = SURFACE_STYLE_FILL_AREA( #298 );
#246 = ORIENTED_EDGE( '', *, *, #299, .T. );
#247 = ORIENTED_EDGE( '', *, *, #300, .F. );
#248 = CARTESIAN_POINT( '', ( 0.000000000000000, 0.000000000000000, -32.9240872386921 ) );
#249 = DIRECTION( '', ( -0.000000000000000, -0.000000000000000, -1.00000000000000 ) );
#250 = DIRECTION( '', ( 1.00000000000000, 0.000000000000000, 0.000000000000000 ) );
#251 = SURFACE_STYLE_FILL_AREA( #301 );
#252 = ORIENTED_EDGE( '', *, *, #285, .T. );
#253 = ORIENTED_EDGE( '', *, *, #299, .F. );
#254 = CARTESIAN_POINT( '', ( 0.000000000000000, 0.000000000000000, -10.3240872386921 ) );
#255 = DIRECTION( '', ( 0.000000000000000, 0.000000000000000, 1.00000000000000 ) );
#256 = DIRECTION( '', ( 1.00000000000000, 0.000000000000000, 0.000000000000000 ) );
#257 = SURFACE_STYLE_FILL_AREA( #302 );
#258 = ORIENTED_EDGE( '', *, *, #291, .T. );
#259 = ORIENTED_EDGE( '', *, *, #293, .F. );
#260 = CARTESIAN_POINT( '', ( 0.000000000000000, 0.000000000000000, -12.9240872386921 ) );
#261 = DIRECTION( '', ( -0.000000000000000, -0.000000000000000, 1.00000000000000 ) );
#262 = DIRECTION( '', ( -1.00000000000000, 0.000000000000000, 0.000000000000000 ) );
#263 = SURFACE_STYLE_FILL_AREA( #303 );
#264 = ORIENTED_EDGE( '', *, *, #295, .T. );
#265 = ORIENTED_EDGE( '', *, *, #304, .F. );
#266 = CARTESIAN_POINT( '', ( 0.000000000000000, 0.000000000000000, -0.150810230808769 ) );
#267 = DIRECTION( '', ( 0.000000000000000, 0.000000000000000, 1.00000000000000 ) );
#268 = DIRECTION( '', ( 1.00000000000000, 0.000000000000000, 0.000000000000000 ) );
#269 = SURFACE_STYLE_FILL_AREA( #305 );
#270 = ORIENTED_EDGE( '', *, *, #297, .F. );
#271 = CARTESIAN_POINT( '', ( 0.000000000000000, 0.000000000000000, 46.7298894226734 ) );
#272 = DIRECTION( '', ( 0.000000000000000, 0.000000000000000, -1.00000000000000 ) );
#273 = DIRECTION( '', ( -1.00000000000000, 0.000000000000000, 0.000000000000000 ) );
#274 = SURFACE_STYLE_FILL_AREA( #306 );
#275 = ORIENTED_EDGE( '', *, *, #304, .T. );
#276 = ORIENTED_EDGE( '', *, *, #300, .T. );
#277 = CARTESIAN_POINT( '', ( 0.000000000000000, 0.000000000000000, 46.7298894226734 ) );
#278 = DIRECTION( '', ( 0.000000000000000, 0.000000000000000, -1.00000000000000 ) );
#279 = DIRECTION( '', ( -1.00000000000000, 0.000000000000000, 0.000000000000000 ) );
#280 = FILL_AREA_STYLE( '', ( #307 ) );
#281 = EDGE_CURVE( '', #308, #308, #309, .F. );
#282 = EDGE_CURVE( '', #310, #310, #311, .T. );
#283 = FILL_AREA_STYLE( '', ( #312 ) );
#284 = EDGE_CURVE( '', #313, #313, #314, .F. );
#285 = EDGE_CURVE( '', #315, #315, #316, .T. );
#286 = FILL_AREA_STYLE( '', ( #317 ) );
#287 = EDGE_CURVE( '', #318, #318, #319, .T. );
#288 = FILL_AREA_STYLE( '', ( #320 ) );
#289 = EDGE_CURVE( '', #321, #321, #322, .T. );
#290 = FILL_AREA_STYLE( '', ( #323 ) );
#291 = EDGE_CURVE( '', #324, #324, #325, .T. );
#292 = FILL_AREA_STYLE( '', ( #326 ) );
#293 = EDGE_CURVE( '', #327, #327, #328, .T. );
#294 = FILL_AREA_STYLE( '', ( #329 ) );
#295 = EDGE_CURVE( '', #330, #330, #331, .F. );
#296 = FILL_AREA_STYLE( '', ( #332 ) );
#297 = EDGE_CURVE( '', #333, #333, #334, .T. );
#298 = FILL_AREA_STYLE( '', ( #335 ) );
#299 = EDGE_CURVE( '', #336, #336, #337, .T. );
#300 = EDGE_CURVE( '', #338, #338, #339, .T. );
#301 = FILL_AREA_STYLE( '', ( #340 ) );
#302 = FILL_AREA_STYLE( '', ( #341 ) );
#303 = FILL_AREA_STYLE( '', ( #342 ) );
#304 = EDGE_CURVE( '', #343, #343, #344, .F. );
#305 = FILL_AREA_STYLE( '', ( #345 ) );
#306 = FILL_AREA_STYLE( '', ( #346 ) );
#307 = FILL_AREA_STYLE_COLOUR( '', #347 );
#308 = VERTEX_POINT( '', #348 );
#309 = CIRCLE( '', #349, 21.0000000000000 );
#310 = VERTEX_POINT( '', #350 );
#311 = CIRCLE( '', #351, 19.0000000000000 );
#312 = FILL_AREA_STYLE_COLOUR( '', #352 );
#313 = VERTEX_POINT( '', #353 );
#314 = CIRCLE( '', #354, 11.5000000000000 );
#315 = VERTEX_POINT( '', #355 );
#316 = CIRCLE( '', #356, 10.5000000000000 );
#317 = FILL_AREA_STYLE_COLOUR( '', #357 );
#318 = VERTEX_POINT( '', #358 );
#319 = CIRCLE( '', #359, 11.5000000000000 );
#320 = FILL_AREA_STYLE_COLOUR( '', #360 );
#321 = VERTEX_POINT( '', #361 );
#322 = CIRCLE( '', #362, 19.0000000000000 );
#323 = FILL_AREA_STYLE_COLOUR( '', #363 );
#324 = VERTEX_POINT( '', #364 );
#325 = CIRCLE( '', #365, 9.00000000000000 );
#326 = FILL_AREA_STYLE_COLOUR( '', #366 );
#327 = VERTEX_POINT( '', #367 );
#328 = CIRCLE( '', #368, 9.00000000000000 );
#329 = FILL_AREA_STYLE_COLOUR( '', #369 );
#330 = VERTEX_POINT( '', #370 );
#331 = CIRCLE( '', #371, 21.0000000000000 );
#332 = FILL_AREA_STYLE_COLOUR( '', #372 );
#333 = VERTEX_POINT( '', #373 );
#334 = CIRCLE( '', #374, 16.6747048861941 );
#335 = FILL_AREA_STYLE_COLOUR( '', #375 );
#336 = VERTEX_POINT( '', #376 );
#337 = CIRCLE( '', #377, 10.0000000000000 );
#338 = VERTEX_POINT( '', #378 );
#339 = CIRCLE( '', #379, 10.0000000000000 );
#340 = FILL_AREA_STYLE_COLOUR( '', #380 );
#341 = FILL_AREA_STYLE_COLOUR( '', #381 );
#342 = FILL_AREA_STYLE_COLOUR( '', #382 );
#343 = VERTEX_POINT( '', #383 );
#344 = CIRCLE( '', #384, 18.2168674698795 );
#345 = FILL_AREA_STYLE_COLOUR( '', #385 );
#346 = FILL_AREA_STYLE_COLOUR( '', #386 );
#347 = COLOUR_RGB( '', 0.576470613479614, 0.000000000000000, 0.827450990676880 );
#348 = CARTESIAN_POINT( '', ( 21.0000000000000, 0.000000000000000, 54.5759127613079 ) );
#349 = AXIS2_PLACEMENT_3D( '', #387, #388, #389 );
#350 = CARTESIAN_POINT( '', ( 19.0000000000000, 0.000000000000000, 54.5759127613079 ) );
#351 = AXIS2_PLACEMENT_3D( '', #390, #391, #392 );
#352 = COLOUR_RGB( '', 0.576470613479614, 0.000000000000000, 0.827450990676880 );
#353 = CARTESIAN_POINT( '', ( 11.5000000000000, 0.000000000000000, -11.3240872386921 ) );
#354 = AXIS2_PLACEMENT_3D( '', #393, #394, #395 );
#355 = CARTESIAN_POINT( '', ( 10.5000000000000, 0.000000000000000, -10.3240872386921 ) );
#356 = AXIS2_PLACEMENT_3D( '', #396, #397, #398 );
#357 = COLOUR_RGB( '', 0.576470613479614, 0.000000000000000, 0.827450990676880 );
#358 = CARTESIAN_POINT( '', ( 11.5000000000000, 0.000000000000000, -32.9240872386921 ) );
#359 = AXIS2_PLACEMENT_3D( '', #399, #400, #401 );
#360 = COLOUR_RGB( '', 0.576470613479614, 0.000000000000000, 0.827450990676880 );
#361 = CARTESIAN_POINT( '', ( -19.0000000000000, 0.000000000000000, 1.23430092509300 ) );
#362 = AXIS2_PLACEMENT_3D( '', #402, #403, #404 );
#363 = COLOUR_RGB( '', 0.576470613479614, 0.000000000000000, 0.827450990676880 );
#364 = CARTESIAN_POINT( '', ( 9.00000000000000, 0.000000000000000, -12.9240872386921 ) );
#365 = AXIS2_PLACEMENT_3D( '', #405, #406, #407 );
#366 = COLOUR_RGB( '', 0.576470613479614, 0.000000000000000, 0.827450990676880 );
#367 = CARTESIAN_POINT( '', ( 9.00000000000000, 0.000000000000000, -32.9240872386921 ) );
#368 = AXIS2_PLACEMENT_3D( '', #408, #409, #410 );
#369 = COLOUR_RGB( '', 0.576470613479614, 0.000000000000000, 0.827450990676880 );
#370 = CARTESIAN_POINT( '', ( 21.0000000000000, 0.000000000000000, -0.150810230808769 ) );
#371 = AXIS2_PLACEMENT_3D( '', #411, #412, #413 );
#372 = COLOUR_RGB( '', 0.576470613479614, 0.000000000000000, 0.827450990676880 );
#373 = CARTESIAN_POINT( '', ( -16.6747048861941, 0.000000000000000, -2.52408723869210 ) );
#374 = AXIS2_PLACEMENT_3D( '', #414, #415, #416 );
#375 = COLOUR_RGB( '', 0.576470613479614, 0.000000000000000, 0.827450990676880 );
#376 = CARTESIAN_POINT( '', ( 10.0000000000000, 0.000000000000000, -10.3240872386921 ) );
#377 = AXIS2_PLACEMENT_3D( '', #417, #418, #419 );
#378 = CARTESIAN_POINT( '', ( 10.0000000000000, 0.000000000000000, -6.33610722301303 ) );
#379 = AXIS2_PLACEMENT_3D( '', #420, #421, #422 );
#380 = COLOUR_RGB( '', 0.576470613479614, 0.000000000000000, 0.827450990676880 );
#381 = COLOUR_RGB( '', 0.576470613479614, 0.000000000000000, 0.827450990676880 );
#382 = COLOUR_RGB( '', 0.576470613479614, 0.000000000000000, 0.827450990676880 );
#383 = CARTESIAN_POINT( '', ( 18.2168674698795, 0.000000000000000, -4.10460417748798 ) );
#384 = AXIS2_PLACEMENT_3D( '', #423, #424, #425 );
#385 = COLOUR_RGB( '', 0.576470613479614, 0.000000000000000, 0.827450990676880 );
#386 = COLOUR_RGB( '', 0.576470613479614, 0.000000000000000, 0.827450990676880 );
#387 = CARTESIAN_POINT( '', ( 0.000000000000000, 0.000000000000000, 54.5759127613079 ) );
#388 = DIRECTION( '', ( 0.000000000000000, 0.000000000000000, 1.00000000000000 ) );
#389 = DIRECTION( '', ( 1.00000000000000, 0.000000000000000, 0.000000000000000 ) );
#390 = CARTESIAN_POINT( '', ( 0.000000000000000, 0.000000000000000, 54.5759127613079 ) );
#391 = DIRECTION( '', ( 0.000000000000000, 0.000000000000000, -1.00000000000000 ) );
#392 = DIRECTION( '', ( 1.00000000000000, 0.000000000000000, 0.000000000000000 ) );
#393 = CARTESIAN_POINT( '', ( 0.000000000000000, 0.000000000000000, -11.3240872386921 ) );
#394 = DIRECTION( '', ( 0.000000000000000, 0.000000000000000, 1.00000000000000 ) );
#395 = DIRECTION( '', ( 1.00000000000000, 0.000000000000000, 0.000000000000000 ) );
#396 = CARTESIAN_POINT( '', ( 0.000000000000000, 0.000000000000000, -10.3240872386921 ) );
#397 = DIRECTION( '', ( 0.000000000000000, 0.000000000000000, 1.00000000000000 ) );
#398 = DIRECTION( '', ( 1.00000000000000, 0.000000000000000, 0.000000000000000 ) );
#399 = CARTESIAN_POINT( '', ( 0.000000000000000, 0.000000000000000, -32.9240872386921 ) );
#400 = DIRECTION( '', ( 0.000000000000000, 0.000000000000000, 1.00000000000000 ) );
#401 = DIRECTION( '', ( 1.00000000000000, 0.000000000000000, 0.000000000000000 ) );
#402 = CARTESIAN_POINT( '', ( 0.000000000000000, 0.000000000000000, 1.23430092509300 ) );
#403 = DIRECTION( '', ( 0.000000000000000, 0.000000000000000, -1.00000000000000 ) );
#404 = DIRECTION( '', ( -1.00000000000000, 0.000000000000000, 0.000000000000000 ) );
#405 = CARTESIAN_POINT( '', ( 0.000000000000000, 0.000000000000000, -12.9240872386921 ) );
#406 = DIRECTION( '', ( 0.000000000000000, 0.000000000000000, 1.00000000000000 ) );
#407 = DIRECTION( '', ( 1.00000000000000, 0.000000000000000, 0.000000000000000 ) );
#408 = CARTESIAN_POINT( '', ( 0.000000000000000, 0.000000000000000, -32.9240872386921 ) );
#409 = DIRECTION( '', ( 0.000000000000000, 0.000000000000000, 1.00000000000000 ) );
#410 = DIRECTION( '', ( 1.00000000000000, 0.000000000000000, 0.000000000000000 ) );
#411 = CARTESIAN_POINT( '', ( 0.000000000000000, 0.000000000000000, -0.150810230808769 ) );
#412 = DIRECTION( '', ( 0.000000000000000, 0.000000000000000, 1.00000000000000 ) );
#413 = DIRECTION( '', ( 1.00000000000000, 0.000000000000000, 0.000000000000000 ) );
#414 = CARTESIAN_POINT( '', ( 0.000000000000000, 0.000000000000000, -2.52408723869210 ) );
#415 = DIRECTION( '', ( 0.000000000000000, 0.000000000000000, -1.00000000000000 ) );
#416 = DIRECTION( '', ( -1.00000000000000, 0.000000000000000, 0.000000000000000 ) );
#417 = CARTESIAN_POINT( '', ( 0.000000000000000, 0.000000000000000, -10.3240872386921 ) );
#418 = DIRECTION( '', ( 0.000000000000000, 0.000000000000000, 1.00000000000000 ) );
#419 = DIRECTION( '', ( 1.00000000000000, 0.000000000000000, 0.000000000000000 ) );
#420 = CARTESIAN_POINT( '', ( 0.000000000000000, 0.000000000000000, -6.33610722301303 ) );
#421 = DIRECTION( '', ( 0.000000000000000, 0.000000000000000, 1.00000000000000 ) );
#422 = DIRECTION( '', ( 1.00000000000000, 0.000000000000000, 0.000000000000000 ) );
#423 = CARTESIAN_POINT( '', ( 0.000000000000000, 0.000000000000000, -4.10460417748798 ) );
#424 = DIRECTION( '', ( 0.000000000000000, 0.000000000000000, 1.00000000000000 ) );
#425 = DIRECTION( '', ( 1.00000000000000, 0.000000000000000, 0.000000000000000 ) );
ENDSEC;
END-ISO-10303-21;
