ISO-10303-21;
HEADER;
FILE_DESCRIPTION( ( 'Unknown' ), '1' );
FILE_NAME( '//Server/ofimatica/alfredo/Alfredo2/ISOTUBI/PZAS3D/FICHATECNICA/NUMEPRESS/generico 3D/F14DN15-54.stp', 'Unknown', ( 'Unknown' ), ( 'Unknown' ), 'PSStep 14.0', 'Unknown', '  ' );
FILE_SCHEMA( ( 'AUTOMOTIVE_DESIGN { 1 0 10303 214 1 1 1 1 }' ) );
ENDSEC;
DATA;
#1 = MECHANICAL_DESIGN_GEOMETRIC_PRESENTATION_REPRESENTATION( ' ', ( #10, #11, #12, #13, #14, #15, #16, #17, #18, #19, #20, #21, #22 ), #6 );
#2 = PRODUCT_DEFINITION_CONTEXT( '', #23, 'design' );
#3 = APPLICATION_PROTOCOL_DEFINITION( 'international standard', 'automotive_design', 2001, #23 );
#4 = PRODUCT_CATEGORY_RELATIONSHIP( 'NONE', 'NONE', #24, #25 );
#5 = SHAPE_DEFINITION_REPRESENTATION( #26, #27 );
#6 =  ( GEOMETRIC_REPRESENTATION_CONTEXT( 3 )GLOBAL_UNCERTAINTY_ASSIGNED_CONTEXT( ( #30 ) )GLOBAL_UNIT_ASSIGNED_CONTEXT( ( #32, #33, #34 ) )REPRESENTATION_CONTEXT( 'NONE', 'WORKSPACE' ) );
#10 = STYLED_ITEM( '', ( #36 ), #37 );
#11 = STYLED_ITEM( '', ( #38 ), #39 );
#12 = STYLED_ITEM( '', ( #40 ), #41 );
#13 = STYLED_ITEM( '', ( #42 ), #43 );
#14 = STYLED_ITEM( '', ( #44 ), #45 );
#15 = STYLED_ITEM( '', ( #46 ), #47 );
#16 = STYLED_ITEM( '', ( #48 ), #49 );
#17 = STYLED_ITEM( '', ( #50 ), #51 );
#18 = STYLED_ITEM( '', ( #52 ), #53 );
#19 = STYLED_ITEM( '', ( #54 ), #55 );
#20 = STYLED_ITEM( '', ( #56 ), #57 );
#21 = STYLED_ITEM( '', ( #58 ), #59 );
#22 = STYLED_ITEM( '', ( #60 ), #61 );
#23 = APPLICATION_CONTEXT( 'core data for automotive mechanical design processes' );
#24 = PRODUCT_CATEGORY( 'part', 'NONE' );
#25 = PRODUCT_RELATED_PRODUCT_CATEGORY( 'detail', ' ', ( #62 ) );
#26 = PRODUCT_DEFINITION_SHAPE( 'NONE', 'NONE', #63 );
#27 = ADVANCED_BREP_SHAPE_REPRESENTATION( '1', ( #64, #65 ), #6 );
#30 = UNCERTAINTY_MEASURE_WITH_UNIT( LENGTH_MEASURE( 0.00100000000000000 ), #32, '', '' );
#32 =  ( CONVERSION_BASED_UNIT( 'MILLIMETRE', #68 )LENGTH_UNIT(  )NAMED_UNIT( #71 ) );
#33 =  ( NAMED_UNIT( #73 )PLANE_ANGLE_UNIT(  )SI_UNIT( $, .RADIAN. ) );
#34 =  ( NAMED_UNIT( #73 )SI_UNIT( $, .STERADIAN. )SOLID_ANGLE_UNIT(  ) );
#36 = PRESENTATION_STYLE_ASSIGNMENT( ( #79 ) );
#37 = ADVANCED_FACE( '', ( #80, #81 ), #82, .T. );
#38 = PRESENTATION_STYLE_ASSIGNMENT( ( #83 ) );
#39 = ADVANCED_FACE( '', ( #84, #85 ), #86, .F. );
#40 = PRESENTATION_STYLE_ASSIGNMENT( ( #87 ) );
#41 = ADVANCED_FACE( '', ( #88, #89 ), #90, .T. );
#42 = PRESENTATION_STYLE_ASSIGNMENT( ( #91 ) );
#43 = ADVANCED_FACE( '', ( #92, #93 ), #94, .T. );
#44 = PRESENTATION_STYLE_ASSIGNMENT( ( #95 ) );
#45 = ADVANCED_FACE( '', ( #96, #97 ), #98, .T. );
#46 = PRESENTATION_STYLE_ASSIGNMENT( ( #99 ) );
#47 = ADVANCED_FACE( '', ( #100 ), #101, .F. );
#48 = PRESENTATION_STYLE_ASSIGNMENT( ( #102 ) );
#49 = ADVANCED_FACE( '', ( #103, #104 ), #105, .F. );
#50 = PRESENTATION_STYLE_ASSIGNMENT( ( #106 ) );
#51 = ADVANCED_FACE( '', ( #107, #108 ), #109, .T. );
#52 = PRESENTATION_STYLE_ASSIGNMENT( ( #110 ) );
#53 = ADVANCED_FACE( '', ( #111 ), #112, .F. );
#54 = PRESENTATION_STYLE_ASSIGNMENT( ( #113 ) );
#55 = ADVANCED_FACE( '', ( #114, #115 ), #116, .T. );
#56 = PRESENTATION_STYLE_ASSIGNMENT( ( #117 ) );
#57 = ADVANCED_FACE( '', ( #118, #119 ), #120, .F. );
#58 = PRESENTATION_STYLE_ASSIGNMENT( ( #121 ) );
#59 = ADVANCED_FACE( '', ( #122, #123 ), #124, .T. );
#60 = PRESENTATION_STYLE_ASSIGNMENT( ( #125 ) );
#61 = ADVANCED_FACE( '', ( #126, #127 ), #128, .T. );
#62 = PRODUCT( '1', '1', 'PART-1-DESC', ( #129 ) );
#63 = PRODUCT_DEFINITION( 'NONE', 'NONE', #130, #2 );
#64 = MANIFOLD_SOLID_BREP( '1', #131 );
#65 = AXIS2_PLACEMENT_3D( '', #132, #133, #134 );
#68 = LENGTH_MEASURE_WITH_UNIT( LENGTH_MEASURE( 1.00000000000000 ), #135 );
#71 = DIMENSIONAL_EXPONENTS( 1.00000000000000, 0.000000000000000, 0.000000000000000, 0.000000000000000, 0.000000000000000, 0.000000000000000, 0.000000000000000 );
#73 = DIMENSIONAL_EXPONENTS( 0.000000000000000, 0.000000000000000, 0.000000000000000, 0.000000000000000, 0.000000000000000, 0.000000000000000, 0.000000000000000 );
#79 = SURFACE_STYLE_USAGE( .BOTH., #136 );
#80 = FACE_OUTER_BOUND( '', #137, .T. );
#81 = FACE_BOUND( '', #138, .T. );
#82 = CONICAL_SURFACE( '', #139, 9.00000000000000, 0.785398163397448 );
#83 = SURFACE_STYLE_USAGE( .BOTH., #140 );
#84 = FACE_OUTER_BOUND( '', #141, .T. );
#85 = FACE_OUTER_BOUND( '', #142, .T. );
#86 = CYLINDRICAL_SURFACE( '', #143, 7.50000000000000 );
#87 = SURFACE_STYLE_USAGE( .BOTH., #144 );
#88 = FACE_BOUND( '', #145, .T. );
#89 = FACE_OUTER_BOUND( '', #146, .T. );
#90 = PLANE( '', #147 );
#91 = SURFACE_STYLE_USAGE( .BOTH., #148 );
#92 = FACE_OUTER_BOUND( '', #149, .T. );
#93 = FACE_BOUND( '', #150, .T. );
#94 = PLANE( '', #151 );
#95 = SURFACE_STYLE_USAGE( .BOTH., #152 );
#96 = FACE_OUTER_BOUND( '', #153, .T. );
#97 = FACE_OUTER_BOUND( '', #154, .T. );
#98 = SPHERICAL_SURFACE( '', #155, 54.0000000000000 );
#99 = SURFACE_STYLE_USAGE( .BOTH., #156 );
#100 = FACE_OUTER_BOUND( '', #157, .T. );
#101 = SPHERICAL_SURFACE( '', #158, 52.0000000000000 );
#102 = SURFACE_STYLE_USAGE( .BOTH., #159 );
#103 = FACE_OUTER_BOUND( '', #160, .T. );
#104 = FACE_OUTER_BOUND( '', #161, .T. );
#105 = CYLINDRICAL_SURFACE( '', #162, 25.0000000000000 );
#106 = SURFACE_STYLE_USAGE( .BOTH., #163 );
#107 = FACE_OUTER_BOUND( '', #164, .T. );
#108 = FACE_OUTER_BOUND( '', #165, .T. );
#109 = CYLINDRICAL_SURFACE( '', #166, 10.0000000000000 );
#110 = SURFACE_STYLE_USAGE( .BOTH., #167 );
#111 = FACE_OUTER_BOUND( '', #168, .T. );
#112 = PLANE( '', #169 );
#113 = SURFACE_STYLE_USAGE( .BOTH., #170 );
#114 = FACE_OUTER_BOUND( '', #171, .T. );
#115 = FACE_OUTER_BOUND( '', #172, .T. );
#116 = CYLINDRICAL_SURFACE( '', #173, 9.00000000000000 );
#117 = SURFACE_STYLE_USAGE( .BOTH., #174 );
#118 = FACE_OUTER_BOUND( '', #175, .T. );
#119 = FACE_OUTER_BOUND( '', #176, .T. );
#120 = TOROIDAL_SURFACE( '', #177, 21.6000000000000, 3.40000000000000 );
#121 = SURFACE_STYLE_USAGE( .BOTH., #178 );
#122 = FACE_OUTER_BOUND( '', #179, .T. );
#123 = FACE_OUTER_BOUND( '', #180, .T. );
#124 = CYLINDRICAL_SURFACE( '', #181, 27.0000000000000 );
#125 = SURFACE_STYLE_USAGE( .BOTH., #182 );
#126 = FACE_OUTER_BOUND( '', #183, .T. );
#127 = FACE_OUTER_BOUND( '', #184, .T. );
#128 = TOROIDAL_SURFACE( '', #185, 21.6000000000000, 5.40000000000000 );
#129 = PRODUCT_CONTEXT( '', #23, 'mechanical' );
#130 = PRODUCT_DEFINITION_FORMATION_WITH_SPECIFIED_SOURCE( ' ', 'NONE', #62, .NOT_KNOWN. );
#131 = CLOSED_SHELL( '', ( #43, #37, #49, #57, #55, #51, #41, #45, #47, #61, #59, #39, #53 ) );
#132 = CARTESIAN_POINT( '', ( 0.000000000000000, 0.000000000000000, 0.000000000000000 ) );
#133 = DIRECTION( '', ( 0.000000000000000, 0.000000000000000, 1.00000000000000 ) );
#134 = DIRECTION( '', ( 1.00000000000000, 0.000000000000000, 0.000000000000000 ) );
#135 =  ( LENGTH_UNIT(  )NAMED_UNIT( #71 )SI_UNIT( .MILLI., .METRE. ) );
#136 = SURFACE_SIDE_STYLE( '', ( #187 ) );
#137 = EDGE_LOOP( '', ( #188 ) );
#138 = EDGE_LOOP( '', ( #189 ) );
#139 = AXIS2_PLACEMENT_3D( '', #190, #191, #192 );
#140 = SURFACE_SIDE_STYLE( '', ( #193 ) );
#141 = EDGE_LOOP( '', ( #194 ) );
#142 = EDGE_LOOP( '', ( #195 ) );
#143 = AXIS2_PLACEMENT_3D( '', #196, #197, #198 );
#144 = SURFACE_SIDE_STYLE( '', ( #199 ) );
#145 = EDGE_LOOP( '', ( #200 ) );
#146 = EDGE_LOOP( '', ( #201 ) );
#147 = AXIS2_PLACEMENT_3D( '', #202, #203, #204 );
#148 = SURFACE_SIDE_STYLE( '', ( #205 ) );
#149 = EDGE_LOOP( '', ( #206 ) );
#150 = EDGE_LOOP( '', ( #207 ) );
#151 = AXIS2_PLACEMENT_3D( '', #208, #209, #210 );
#152 = SURFACE_SIDE_STYLE( '', ( #211 ) );
#153 = EDGE_LOOP( '', ( #212 ) );
#154 = EDGE_LOOP( '', ( #213 ) );
#155 = AXIS2_PLACEMENT_3D( '', #214, #215, #216 );
#156 = SURFACE_SIDE_STYLE( '', ( #217 ) );
#157 = EDGE_LOOP( '', ( #218 ) );
#158 = AXIS2_PLACEMENT_3D( '', #219, #220, #221 );
#159 = SURFACE_SIDE_STYLE( '', ( #222 ) );
#160 = EDGE_LOOP( '', ( #223 ) );
#161 = EDGE_LOOP( '', ( #224 ) );
#162 = AXIS2_PLACEMENT_3D( '', #225, #226, #227 );
#163 = SURFACE_SIDE_STYLE( '', ( #228 ) );
#164 = EDGE_LOOP( '', ( #229 ) );
#165 = EDGE_LOOP( '', ( #230 ) );
#166 = AXIS2_PLACEMENT_3D( '', #231, #232, #233 );
#167 = SURFACE_SIDE_STYLE( '', ( #234 ) );
#168 = EDGE_LOOP( '', ( #235 ) );
#169 = AXIS2_PLACEMENT_3D( '', #236, #237, #238 );
#170 = SURFACE_SIDE_STYLE( '', ( #239 ) );
#171 = EDGE_LOOP( '', ( #240 ) );
#172 = EDGE_LOOP( '', ( #241 ) );
#173 = AXIS2_PLACEMENT_3D( '', #242, #243, #244 );
#174 = SURFACE_SIDE_STYLE( '', ( #245 ) );
#175 = EDGE_LOOP( '', ( #246 ) );
#176 = EDGE_LOOP( '', ( #247 ) );
#177 = AXIS2_PLACEMENT_3D( '', #248, #249, #250 );
#178 = SURFACE_SIDE_STYLE( '', ( #251 ) );
#179 = EDGE_LOOP( '', ( #252 ) );
#180 = EDGE_LOOP( '', ( #253 ) );
#181 = AXIS2_PLACEMENT_3D( '', #254, #255, #256 );
#182 = SURFACE_SIDE_STYLE( '', ( #257 ) );
#183 = EDGE_LOOP( '', ( #258 ) );
#184 = EDGE_LOOP( '', ( #259 ) );
#185 = AXIS2_PLACEMENT_3D( '', #260, #261, #262 );
#187 = SURFACE_STYLE_FILL_AREA( #263 );
#188 = ORIENTED_EDGE( '', *, *, #264, .F. );
#189 = ORIENTED_EDGE( '', *, *, #265, .F. );
#190 = CARTESIAN_POINT( '', ( 0.000000000000000, 0.000000000000000, -10.7164831316674 ) );
#191 = DIRECTION( '', ( -0.000000000000000, 0.000000000000000, -1.00000000000000 ) );
#192 = DIRECTION( '', ( -1.00000000000000, 0.000000000000000, 0.000000000000000 ) );
#193 = SURFACE_STYLE_FILL_AREA( #266 );
#194 = ORIENTED_EDGE( '', *, *, #267, .T. );
#195 = ORIENTED_EDGE( '', *, *, #268, .F. );
#196 = CARTESIAN_POINT( '', ( 0.000000000000000, 0.000000000000000, -12.5564831316674 ) );
#197 = DIRECTION( '', ( -0.000000000000000, -0.000000000000000, 1.00000000000000 ) );
#198 = DIRECTION( '', ( -1.00000000000000, 0.000000000000000, 0.000000000000000 ) );
#199 = SURFACE_STYLE_FILL_AREA( #269 );
#200 = ORIENTED_EDGE( '', *, *, #270, .T. );
#201 = ORIENTED_EDGE( '', *, *, #271, .F. );
#202 = CARTESIAN_POINT( '', ( -27.0000000000000, 0.000000000000000, 59.4435168683326 ) );
#203 = DIRECTION( '', ( 0.000000000000000, 0.000000000000000, 1.00000000000000 ) );
#204 = DIRECTION( '', ( 1.00000000000000, 0.000000000000000, 0.000000000000000 ) );
#205 = SURFACE_STYLE_FILL_AREA( #272 );
#206 = ORIENTED_EDGE( '', *, *, #273, .F. );
#207 = ORIENTED_EDGE( '', *, *, #268, .T. );
#208 = CARTESIAN_POINT( '', ( 0.000000000000000, 0.000000000000000, -32.5564831316674 ) );
#209 = DIRECTION( '', ( 0.000000000000000, 0.000000000000000, -1.00000000000000 ) );
#210 = DIRECTION( '', ( -1.00000000000000, 0.000000000000000, 0.000000000000000 ) );
#211 = SURFACE_STYLE_FILL_AREA( #274 );
#212 = ORIENTED_EDGE( '', *, *, #275, .T. );
#213 = ORIENTED_EDGE( '', *, *, #276, .T. );
#214 = CARTESIAN_POINT( '', ( 0.000000000000000, 0.000000000000000, 46.7298894226734 ) );
#215 = DIRECTION( '', ( 0.000000000000000, 0.000000000000000, -1.00000000000000 ) );
#216 = DIRECTION( '', ( -1.00000000000000, 0.000000000000000, 0.000000000000000 ) );
#217 = SURFACE_STYLE_FILL_AREA( #277 );
#218 = ORIENTED_EDGE( '', *, *, #278, .F. );
#219 = CARTESIAN_POINT( '', ( 0.000000000000000, 0.000000000000000, 46.7298894226734 ) );
#220 = DIRECTION( '', ( 0.000000000000000, 0.000000000000000, -1.00000000000000 ) );
#221 = DIRECTION( '', ( -1.00000000000000, 0.000000000000000, 0.000000000000000 ) );
#222 = SURFACE_STYLE_FILL_AREA( #279 );
#223 = ORIENTED_EDGE( '', *, *, #280, .T. );
#224 = ORIENTED_EDGE( '', *, *, #270, .F. );
#225 = CARTESIAN_POINT( '', ( 0.000000000000000, 0.000000000000000, -0.429660095944040 ) );
#226 = DIRECTION( '', ( -0.000000000000000, -0.000000000000000, 1.00000000000000 ) );
#227 = DIRECTION( '', ( -1.00000000000000, 0.000000000000000, 0.000000000000000 ) );
#228 = SURFACE_STYLE_FILL_AREA( #281 );
#229 = ORIENTED_EDGE( '', *, *, #264, .T. );
#230 = ORIENTED_EDGE( '', *, *, #273, .T. );
#231 = CARTESIAN_POINT( '', ( 0.000000000000000, 0.000000000000000, -10.7164831316674 ) );
#232 = DIRECTION( '', ( -0.000000000000000, -0.000000000000000, 1.00000000000000 ) );
#233 = DIRECTION( '', ( -1.00000000000000, 0.000000000000000, 0.000000000000000 ) );
#234 = SURFACE_STYLE_FILL_AREA( #282 );
#235 = ORIENTED_EDGE( '', *, *, #267, .F. );
#236 = CARTESIAN_POINT( '', ( 0.000000000000000, 0.000000000000000, -12.5564831316674 ) );
#237 = DIRECTION( '', ( 0.000000000000000, 0.000000000000000, 1.00000000000000 ) );
#238 = DIRECTION( '', ( 1.00000000000000, 0.000000000000000, 0.000000000000000 ) );
#239 = SURFACE_STYLE_FILL_AREA( #283 );
#240 = ORIENTED_EDGE( '', *, *, #265, .T. );
#241 = ORIENTED_EDGE( '', *, *, #276, .F. );
#242 = CARTESIAN_POINT( '', ( 0.000000000000000, 0.000000000000000, -32.5564831316674 ) );
#243 = DIRECTION( '', ( -0.000000000000000, -0.000000000000000, -1.00000000000000 ) );
#244 = DIRECTION( '', ( 1.00000000000000, 0.000000000000000, 0.000000000000000 ) );
#245 = SURFACE_STYLE_FILL_AREA( #284 );
#246 = ORIENTED_EDGE( '', *, *, #278, .T. );
#247 = ORIENTED_EDGE( '', *, *, #280, .F. );
#248 = CARTESIAN_POINT( '', ( 0.000000000000000, 0.000000000000000, 3.19369758186120 ) );
#249 = DIRECTION( '', ( 0.000000000000000, 0.000000000000000, -1.00000000000000 ) );
#250 = DIRECTION( '', ( -1.00000000000000, 0.000000000000000, 0.000000000000000 ) );
#251 = SURFACE_STYLE_FILL_AREA( #285 );
#252 = ORIENTED_EDGE( '', *, *, #271, .T. );
#253 = ORIENTED_EDGE( '', *, *, #286, .F. );
#254 = CARTESIAN_POINT( '', ( 0.000000000000000, 0.000000000000000, -0.429660095944040 ) );
#255 = DIRECTION( '', ( -0.000000000000000, -0.000000000000000, 1.00000000000000 ) );
#256 = DIRECTION( '', ( -1.00000000000000, 0.000000000000000, 0.000000000000000 ) );
#257 = SURFACE_STYLE_FILL_AREA( #287 );
#258 = ORIENTED_EDGE( '', *, *, #286, .T. );
#259 = ORIENTED_EDGE( '', *, *, #275, .F. );
#260 = CARTESIAN_POINT( '', ( 0.000000000000000, 0.000000000000000, 3.19369758186120 ) );
#261 = DIRECTION( '', ( 0.000000000000000, 0.000000000000000, -1.00000000000000 ) );
#262 = DIRECTION( '', ( -1.00000000000000, 0.000000000000000, 0.000000000000000 ) );
#263 = FILL_AREA_STYLE( '', ( #288 ) );
#264 = EDGE_CURVE( '', #289, #289, #290, .F. );
#265 = EDGE_CURVE( '', #291, #291, #292, .T. );
#266 = FILL_AREA_STYLE( '', ( #293 ) );
#267 = EDGE_CURVE( '', #294, #294, #295, .T. );
#268 = EDGE_CURVE( '', #296, #296, #297, .T. );
#269 = FILL_AREA_STYLE( '', ( #298 ) );
#270 = EDGE_CURVE( '', #299, #299, #300, .T. );
#271 = EDGE_CURVE( '', #301, #301, #302, .T. );
#272 = FILL_AREA_STYLE( '', ( #303 ) );
#273 = EDGE_CURVE( '', #304, #304, #305, .T. );
#274 = FILL_AREA_STYLE( '', ( #306 ) );
#275 = EDGE_CURVE( '', #307, #307, #308, .T. );
#276 = EDGE_CURVE( '', #309, #309, #310, .T. );
#277 = FILL_AREA_STYLE( '', ( #311 ) );
#278 = EDGE_CURVE( '', #312, #312, #313, .T. );
#279 = FILL_AREA_STYLE( '', ( #314 ) );
#280 = EDGE_CURVE( '', #315, #315, #316, .T. );
#281 = FILL_AREA_STYLE( '', ( #317 ) );
#282 = FILL_AREA_STYLE( '', ( #318 ) );
#283 = FILL_AREA_STYLE( '', ( #319 ) );
#284 = FILL_AREA_STYLE( '', ( #320 ) );
#285 = FILL_AREA_STYLE( '', ( #321 ) );
#286 = EDGE_CURVE( '', #322, #322, #323, .T. );
#287 = FILL_AREA_STYLE( '', ( #324 ) );
#288 = FILL_AREA_STYLE_COLOUR( '', #325 );
#289 = VERTEX_POINT( '', #326 );
#290 = CIRCLE( '', #327, 10.0000000000000 );
#291 = VERTEX_POINT( '', #328 );
#292 = CIRCLE( '', #329, 9.00000000000000 );
#293 = FILL_AREA_STYLE_COLOUR( '', #330 );
#294 = VERTEX_POINT( '', #331 );
#295 = CIRCLE( '', #332, 7.50000000000000 );
#296 = VERTEX_POINT( '', #333 );
#297 = CIRCLE( '', #334, 7.50000000000000 );
#298 = FILL_AREA_STYLE_COLOUR( '', #335 );
#299 = VERTEX_POINT( '', #336 );
#300 = CIRCLE( '', #337, 25.0000000000000 );
#301 = VERTEX_POINT( '', #338 );
#302 = CIRCLE( '', #339, 27.0000000000000 );
#303 = FILL_AREA_STYLE_COLOUR( '', #340 );
#304 = VERTEX_POINT( '', #341 );
#305 = CIRCLE( '', #342, 10.0000000000000 );
#306 = FILL_AREA_STYLE_COLOUR( '', #343 );
#307 = VERTEX_POINT( '', #344 );
#308 = CIRCLE( '', #345, 24.0000000000000 );
#309 = VERTEX_POINT( '', #346 );
#310 = CIRCLE( '', #347, 9.00000000000000 );
#311 = FILL_AREA_STYLE_COLOUR( '', #348 );
#312 = VERTEX_POINT( '', #349 );
#313 = CIRCLE( '', #350, 23.1111111111112 );
#314 = FILL_AREA_STYLE_COLOUR( '', #351 );
#315 = VERTEX_POINT( '', #352 );
#316 = CIRCLE( '', #353, 25.0000000000000 );
#317 = FILL_AREA_STYLE_COLOUR( '', #354 );
#318 = FILL_AREA_STYLE_COLOUR( '', #355 );
#319 = FILL_AREA_STYLE_COLOUR( '', #356 );
#320 = FILL_AREA_STYLE_COLOUR( '', #357 );
#321 = FILL_AREA_STYLE_COLOUR( '', #358 );
#322 = VERTEX_POINT( '', #359 );
#323 = CIRCLE( '', #360, 27.0000000000000 );
#324 = FILL_AREA_STYLE_COLOUR( '', #361 );
#325 = COLOUR_RGB( '', 0.752941191196442, 0.752941191196442, 0.752941191196442 );
#326 = CARTESIAN_POINT( '', ( 10.0000000000000, 0.000000000000000, -11.7164831316674 ) );
#327 = AXIS2_PLACEMENT_3D( '', #362, #363, #364 );
#328 = CARTESIAN_POINT( '', ( 9.00000000000000, 0.000000000000000, -10.7164831316674 ) );
#329 = AXIS2_PLACEMENT_3D( '', #365, #366, #367 );
#330 = COLOUR_RGB( '', 0.752941191196442, 0.752941191196442, 0.752941191196442 );
#331 = CARTESIAN_POINT( '', ( 7.50000000000000, 0.000000000000000, -12.5564831316674 ) );
#332 = AXIS2_PLACEMENT_3D( '', #368, #369, #370 );
#333 = CARTESIAN_POINT( '', ( 7.50000000000000, 0.000000000000000, -32.5564831316674 ) );
#334 = AXIS2_PLACEMENT_3D( '', #371, #372, #373 );
#335 = COLOUR_RGB( '', 0.752941191196442, 0.752941191196442, 0.752941191196442 );
#336 = CARTESIAN_POINT( '', ( -25.0000000000000, 0.000000000000000, 59.4435168683326 ) );
#337 = AXIS2_PLACEMENT_3D( '', #374, #375, #376 );
#338 = CARTESIAN_POINT( '', ( -27.0000000000000, 0.000000000000000, 59.4435168683326 ) );
#339 = AXIS2_PLACEMENT_3D( '', #377, #378, #379 );
#340 = COLOUR_RGB( '', 0.752941191196442, 0.752941191196442, 0.752941191196442 );
#341 = CARTESIAN_POINT( '', ( 10.0000000000000, 0.000000000000000, -32.5564831316674 ) );
#342 = AXIS2_PLACEMENT_3D( '', #380, #381, #382 );
#343 = COLOUR_RGB( '', 0.752941191196442, 0.752941191196442, 0.752941191196442 );
#344 = CARTESIAN_POINT( '', ( -24.0000000000000, 0.000000000000000, -1.64365706711792 ) );
#345 = AXIS2_PLACEMENT_3D( '', #383, #384, #385 );
#346 = CARTESIAN_POINT( '', ( 9.00000000000000, 0.000000000000000, -6.51482862522317 ) );
#347 = AXIS2_PLACEMENT_3D( '', #386, #387, #388 );
#348 = COLOUR_RGB( '', 0.752941191196442, 0.752941191196442, 0.752941191196442 );
#349 = CARTESIAN_POINT( '', ( -23.1111111111112, 0.000000000000000, 0.147955765837310 ) );
#350 = AXIS2_PLACEMENT_3D( '', #389, #390, #391 );
#351 = COLOUR_RGB( '', 0.752941191196442, 0.752941191196442, 0.752941191196442 );
#352 = CARTESIAN_POINT( '', ( -25.0000000000000, 0.000000000000000, 3.19369758186120 ) );
#353 = AXIS2_PLACEMENT_3D( '', #392, #393, #394 );
#354 = COLOUR_RGB( '', 0.752941191196442, 0.752941191196442, 0.752941191196442 );
#355 = COLOUR_RGB( '', 0.752941191196442, 0.752941191196442, 0.752941191196442 );
#356 = COLOUR_RGB( '', 0.752941191196442, 0.752941191196442, 0.752941191196442 );
#357 = COLOUR_RGB( '', 0.752941191196442, 0.752941191196442, 0.752941191196442 );
#358 = COLOUR_RGB( '', 0.752941191196442, 0.752941191196442, 0.752941191196442 );
#359 = CARTESIAN_POINT( '', ( -27.0000000000000, 0.000000000000000, 3.19369758186120 ) );
#360 = AXIS2_PLACEMENT_3D( '', #395, #396, #397 );
#361 = COLOUR_RGB( '', 0.752941191196442, 0.752941191196442, 0.752941191196442 );
#362 = CARTESIAN_POINT( '', ( 0.000000000000000, 0.000000000000000, -11.7164831316674 ) );
#363 = DIRECTION( '', ( 0.000000000000000, 0.000000000000000, 1.00000000000000 ) );
#364 = DIRECTION( '', ( 1.00000000000000, 0.000000000000000, 0.000000000000000 ) );
#365 = CARTESIAN_POINT( '', ( 0.000000000000000, 0.000000000000000, -10.7164831316674 ) );
#366 = DIRECTION( '', ( 0.000000000000000, 0.000000000000000, 1.00000000000000 ) );
#367 = DIRECTION( '', ( 1.00000000000000, 0.000000000000000, 0.000000000000000 ) );
#368 = CARTESIAN_POINT( '', ( 0.000000000000000, 0.000000000000000, -12.5564831316674 ) );
#369 = DIRECTION( '', ( 0.000000000000000, 0.000000000000000, 1.00000000000000 ) );
#370 = DIRECTION( '', ( 1.00000000000000, 0.000000000000000, 0.000000000000000 ) );
#371 = CARTESIAN_POINT( '', ( 0.000000000000000, 0.000000000000000, -32.5564831316674 ) );
#372 = DIRECTION( '', ( 0.000000000000000, 0.000000000000000, 1.00000000000000 ) );
#373 = DIRECTION( '', ( 1.00000000000000, 0.000000000000000, 0.000000000000000 ) );
#374 = CARTESIAN_POINT( '', ( 0.000000000000000, 0.000000000000000, 59.4435168683326 ) );
#375 = DIRECTION( '', ( 0.000000000000000, 0.000000000000000, -1.00000000000000 ) );
#376 = DIRECTION( '', ( -1.00000000000000, 0.000000000000000, 0.000000000000000 ) );
#377 = CARTESIAN_POINT( '', ( 0.000000000000000, 0.000000000000000, 59.4435168683326 ) );
#378 = DIRECTION( '', ( 0.000000000000000, 0.000000000000000, -1.00000000000000 ) );
#379 = DIRECTION( '', ( -1.00000000000000, 0.000000000000000, 0.000000000000000 ) );
#380 = CARTESIAN_POINT( '', ( 0.000000000000000, 0.000000000000000, -32.5564831316674 ) );
#381 = DIRECTION( '', ( 0.000000000000000, 0.000000000000000, 1.00000000000000 ) );
#382 = DIRECTION( '', ( 1.00000000000000, 0.000000000000000, 0.000000000000000 ) );
#383 = CARTESIAN_POINT( '', ( 0.000000000000000, 0.000000000000000, -1.64365706711792 ) );
#384 = DIRECTION( '', ( 0.000000000000000, 0.000000000000000, -1.00000000000000 ) );
#385 = DIRECTION( '', ( -1.00000000000000, 0.000000000000000, 0.000000000000000 ) );
#386 = CARTESIAN_POINT( '', ( 0.000000000000000, 0.000000000000000, -6.51482862522317 ) );
#387 = DIRECTION( '', ( 0.000000000000000, 0.000000000000000, 1.00000000000000 ) );
#388 = DIRECTION( '', ( 1.00000000000000, 0.000000000000000, 0.000000000000000 ) );
#389 = CARTESIAN_POINT( '', ( 0.000000000000000, 0.000000000000000, 0.147955765837310 ) );
#390 = DIRECTION( '', ( 0.000000000000000, 0.000000000000000, -1.00000000000000 ) );
#391 = DIRECTION( '', ( -1.00000000000000, 0.000000000000000, 0.000000000000000 ) );
#392 = CARTESIAN_POINT( '', ( 0.000000000000000, 0.000000000000000, 3.19369758186120 ) );
#393 = DIRECTION( '', ( 0.000000000000000, 0.000000000000000, -1.00000000000000 ) );
#394 = DIRECTION( '', ( -1.00000000000000, 0.000000000000000, 0.000000000000000 ) );
#395 = CARTESIAN_POINT( '', ( 0.000000000000000, 0.000000000000000, 3.19369758186120 ) );
#396 = DIRECTION( '', ( 0.000000000000000, 0.000000000000000, -1.00000000000000 ) );
#397 = DIRECTION( '', ( -1.00000000000000, 0.000000000000000, 0.000000000000000 ) );
ENDSEC;
END-ISO-10303-21;
