ISO-10303-21;
HEADER;
FILE_DESCRIPTION( ( 'Unknown' ), '1' );
FILE_NAME( '//Server/ofimatica/alfredo/Alfredo2/ISOTUBI/PZAS3D/FICHATECNICA/NUMEPRESS/generico 3D/F14DN35-54.stp', 'Unknown', ( 'Unknown' ), ( 'Unknown' ), 'PSStep 14.0', 'Unknown', '  ' );
FILE_SCHEMA( ( 'AUTOMOTIVE_DESIGN { 1 0 10303 214 1 1 1 1 }' ) );
ENDSEC;
DATA;
#1 = MECHANICAL_DESIGN_GEOMETRIC_PRESENTATION_REPRESENTATION( ' ', ( #10, #11, #12, #13, #14, #15, #16, #17, #18, #19, #20, #21, #22 ), #6 );
#2 = PRODUCT_DEFINITION_CONTEXT( '', #23, 'design' );
#3 = APPLICATION_PROTOCOL_DEFINITION( 'international standard', 'automotive_design', 2001, #23 );
#4 = PRODUCT_CATEGORY_RELATIONSHIP( 'NONE', 'NONE', #24, #25 );
#5 = SHAPE_DEFINITION_REPRESENTATION( #26, #27 );
#6 =  ( GEOMETRIC_REPRESENTATION_CONTEXT( 3 )GLOBAL_UNCERTAINTY_ASSIGNED_CONTEXT( ( #30 ) )GLOBAL_UNIT_ASSIGNED_CONTEXT( ( #32, #33, #34 ) )REPRESENTATION_CONTEXT( 'NONE', 'WORKSPACE' ) );
#10 = STYLED_ITEM( '', ( #36 ), #37 );
#11 = STYLED_ITEM( '', ( #38 ), #39 );
#12 = STYLED_ITEM( '', ( #40 ), #41 );
#13 = STYLED_ITEM( '', ( #42 ), #43 );
#14 = STYLED_ITEM( '', ( #44 ), #45 );
#15 = STYLED_ITEM( '', ( #46 ), #47 );
#16 = STYLED_ITEM( '', ( #48 ), #49 );
#17 = STYLED_ITEM( '', ( #50 ), #51 );
#18 = STYLED_ITEM( '', ( #52 ), #53 );
#19 = STYLED_ITEM( '', ( #54 ), #55 );
#20 = STYLED_ITEM( '', ( #56 ), #57 );
#21 = STYLED_ITEM( '', ( #58 ), #59 );
#22 = STYLED_ITEM( '', ( #60 ), #61 );
#23 = APPLICATION_CONTEXT( 'core data for automotive mechanical design processes' );
#24 = PRODUCT_CATEGORY( 'part', 'NONE' );
#25 = PRODUCT_RELATED_PRODUCT_CATEGORY( 'detail', ' ', ( #62 ) );
#26 = PRODUCT_DEFINITION_SHAPE( 'NONE', 'NONE', #63 );
#27 = ADVANCED_BREP_SHAPE_REPRESENTATION( '1', ( #64, #65 ), #6 );
#30 = UNCERTAINTY_MEASURE_WITH_UNIT( LENGTH_MEASURE( 0.00100000000000000 ), #32, '', '' );
#32 =  ( CONVERSION_BASED_UNIT( 'MILLIMETRE', #68 )LENGTH_UNIT(  )NAMED_UNIT( #71 ) );
#33 =  ( NAMED_UNIT( #73 )PLANE_ANGLE_UNIT(  )SI_UNIT( $, .RADIAN. ) );
#34 =  ( NAMED_UNIT( #73 )SI_UNIT( $, .STERADIAN. )SOLID_ANGLE_UNIT(  ) );
#36 = PRESENTATION_STYLE_ASSIGNMENT( ( #79 ) );
#37 = ADVANCED_FACE( '', ( #80, #81 ), #82, .T. );
#38 = PRESENTATION_STYLE_ASSIGNMENT( ( #83 ) );
#39 = ADVANCED_FACE( '', ( #84, #85 ), #86, .T. );
#40 = PRESENTATION_STYLE_ASSIGNMENT( ( #87 ) );
#41 = ADVANCED_FACE( '', ( #88, #89 ), #90, .F. );
#42 = PRESENTATION_STYLE_ASSIGNMENT( ( #91 ) );
#43 = ADVANCED_FACE( '', ( #92, #93 ), #94, .T. );
#44 = PRESENTATION_STYLE_ASSIGNMENT( ( #95 ) );
#45 = ADVANCED_FACE( '', ( #96, #97 ), #98, .F. );
#46 = PRESENTATION_STYLE_ASSIGNMENT( ( #99 ) );
#47 = ADVANCED_FACE( '', ( #100, #101 ), #102, .T. );
#48 = PRESENTATION_STYLE_ASSIGNMENT( ( #103 ) );
#49 = ADVANCED_FACE( '', ( #104, #105 ), #106, .T. );
#50 = PRESENTATION_STYLE_ASSIGNMENT( ( #107 ) );
#51 = ADVANCED_FACE( '', ( #108 ), #109, .F. );
#52 = PRESENTATION_STYLE_ASSIGNMENT( ( #110 ) );
#53 = ADVANCED_FACE( '', ( #111, #112 ), #113, .T. );
#54 = PRESENTATION_STYLE_ASSIGNMENT( ( #114 ) );
#55 = ADVANCED_FACE( '', ( #115 ), #116, .T. );
#56 = PRESENTATION_STYLE_ASSIGNMENT( ( #117 ) );
#57 = ADVANCED_FACE( '', ( #118, #119 ), #120, .T. );
#58 = PRESENTATION_STYLE_ASSIGNMENT( ( #121 ) );
#59 = ADVANCED_FACE( '', ( #122, #123 ), #124, .T. );
#60 = PRESENTATION_STYLE_ASSIGNMENT( ( #125 ) );
#61 = ADVANCED_FACE( '', ( #126, #127 ), #128, .F. );
#62 = PRODUCT( '1', '1', 'PART-1-DESC', ( #129 ) );
#63 = PRODUCT_DEFINITION( 'NONE', 'NONE', #130, #2 );
#64 = MANIFOLD_SOLID_BREP( '1', #131 );
#65 = AXIS2_PLACEMENT_3D( '', #132, #133, #134 );
#68 = LENGTH_MEASURE_WITH_UNIT( LENGTH_MEASURE( 1.00000000000000 ), #135 );
#71 = DIMENSIONAL_EXPONENTS( 1.00000000000000, 0.000000000000000, 0.000000000000000, 0.000000000000000, 0.000000000000000, 0.000000000000000, 0.000000000000000 );
#73 = DIMENSIONAL_EXPONENTS( 0.000000000000000, 0.000000000000000, 0.000000000000000, 0.000000000000000, 0.000000000000000, 0.000000000000000, 0.000000000000000 );
#79 = SURFACE_STYLE_USAGE( .BOTH., #136 );
#80 = FACE_OUTER_BOUND( '', #137, .T. );
#81 = FACE_OUTER_BOUND( '', #138, .T. );
#82 = CYLINDRICAL_SURFACE( '', #139, 20.0000000000000 );
#83 = SURFACE_STYLE_USAGE( .BOTH., #140 );
#84 = FACE_OUTER_BOUND( '', #141, .T. );
#85 = FACE_OUTER_BOUND( '', #142, .T. );
#86 = ( BOUNDED_SURFACE(  )B_SPLINE_SURFACE( 3, 3, ( ( #145, #146, #147, #148, #149, #150, #151 ), ( #152, #153, #154, #155, #156, #157, #158 ), ( #159, #160, #161, #162, #163, #164, #165 ), ( #166, #167, #168, #169, #170, #171, #172 ) ), .UNSPECIFIED., .F., .T., .F. )B_SPLINE_SURFACE_WITH_KNOTS( ( 4, 4 ), ( 4, 3, 4 ), ( 0.000000000000000, 6.28318530717959 ), ( -0.404420707129983, -0.202210353564991, 0.000000000000000 ), .UNSPECIFIED. )GEOMETRIC_REPRESENTATION_ITEM(  )RATIONAL_B_SPLINE_SURFACE( ( ( 1.00000000000000, 0.333333333333333, 0.333333333333333, 1.00000000000000, 0.333333333333333, 0.333333333333333, 1.00000000000000 ), ( 0.986416703065841, 0.328805567688614, 0.328805567688614, 0.986416703065841, 0.328805567688614, 0.328805567688614, 0.986416703065841 ), ( 0.986416703065841, 0.328805567688614, 0.328805567688614, 0.986416703065841, 0.328805567688614, 0.328805567688614, 0.986416703065841 ), ( 1.00000000000000, 0.333333333333333, 0.333333333333333, 1.00000000000000, 0.333333333333333, 0.333333333333333, 1.00000000000000 ) ) )REPRESENTATION_ITEM( '' )SURFACE(  ) );
#87 = SURFACE_STYLE_USAGE( .BOTH., #178 );
#88 = FACE_OUTER_BOUND( '', #179, .T. );
#89 = FACE_OUTER_BOUND( '', #180, .T. );
#90 = CYLINDRICAL_SURFACE( '', #181, 17.5000000000000 );
#91 = SURFACE_STYLE_USAGE( .BOTH., #182 );
#92 = FACE_OUTER_BOUND( '', #183, .T. );
#93 = FACE_OUTER_BOUND( '', #184, .T. );
#94 = ( BOUNDED_SURFACE(  )B_SPLINE_SURFACE( 3, 3, ( ( #187, #188, #189, #190, #191, #192, #193 ), ( #194, #195, #196, #197, #198, #199, #200 ), ( #201, #202, #203, #204, #205, #206, #207 ), ( #208, #209, #210, #211, #212, #213, #214 ) ), .UNSPECIFIED., .F., .T., .F. )B_SPLINE_SURFACE_WITH_KNOTS( ( 4, 4 ), ( 4, 3, 4 ), ( 0.000000000000000, 6.28318530717959 ), ( -0.630205645569921, -0.517313176349959, -0.404420707129997 ), .UNSPECIFIED. )GEOMETRIC_REPRESENTATION_ITEM(  )RATIONAL_B_SPLINE_SURFACE( ( ( 1.00000000000000, 0.333333333333333, 0.333333333333333, 1.00000000000000, 0.333333333333333, 0.333333333333333, 1.00000000000000 ), ( 0.995756273426572, 0.331918757808857, 0.331918757808857, 0.995756273426572, 0.331918757808857, 0.331918757808857, 0.995756273426572 ), ( 0.995756273426572, 0.331918757808857, 0.331918757808857, 0.995756273426572, 0.331918757808857, 0.331918757808857, 0.995756273426572 ), ( 1.00000000000000, 0.333333333333333, 0.333333333333333, 1.00000000000000, 0.333333333333333, 0.333333333333333, 1.00000000000000 ) ) )REPRESENTATION_ITEM( '' )SURFACE(  ) );
#95 = SURFACE_STYLE_USAGE( .BOTH., #220 );
#96 = FACE_OUTER_BOUND( '', #221, .T. );
#97 = FACE_BOUND( '', #222, .T. );
#98 = PLANE( '', #223 );
#99 = SURFACE_STYLE_USAGE( .BOTH., #224 );
#100 = FACE_OUTER_BOUND( '', #225, .T. );
#101 = FACE_BOUND( '', #226, .T. );
#102 = PLANE( '', #227 );
#103 = SURFACE_STYLE_USAGE( .BOTH., #228 );
#104 = FACE_OUTER_BOUND( '', #229, .T. );
#105 = FACE_OUTER_BOUND( '', #230, .T. );
#106 = CYLINDRICAL_SURFACE( '', #231, 27.0000000000000 );
#107 = SURFACE_STYLE_USAGE( .BOTH., #232 );
#108 = FACE_OUTER_BOUND( '', #233, .T. );
#109 = PLANE( '', #234 );
#110 = SURFACE_STYLE_USAGE( .BOTH., #235 );
#111 = FACE_OUTER_BOUND( '', #236, .T. );
#112 = FACE_BOUND( '', #237, .T. );
#113 = PLANE( '', #238 );
#114 = SURFACE_STYLE_USAGE( .BOTH., #239 );
#115 = FACE_OUTER_BOUND( '', #240, .T. );
#116 = PLANE( '', #241 );
#117 = SURFACE_STYLE_USAGE( .BOTH., #242 );
#118 = FACE_OUTER_BOUND( '', #243, .T. );
#119 = FACE_BOUND( '', #244, .T. );
#120 = CONICAL_SURFACE( '', #245, 18.5000000000000, 0.785398163397448 );
#121 = SURFACE_STYLE_USAGE( .BOTH., #246 );
#122 = FACE_OUTER_BOUND( '', #247, .T. );
#123 = FACE_OUTER_BOUND( '', #248, .T. );
#124 = CYLINDRICAL_SURFACE( '', #249, 17.5000000000000 );
#125 = SURFACE_STYLE_USAGE( .BOTH., #250 );
#126 = FACE_OUTER_BOUND( '', #251, .T. );
#127 = FACE_OUTER_BOUND( '', #252, .T. );
#128 = CYLINDRICAL_SURFACE( '', #253, 25.5000000000000 );
#129 = PRODUCT_CONTEXT( '', #23, 'mechanical' );
#130 = PRODUCT_DEFINITION_FORMATION_WITH_SPECIFIED_SOURCE( ' ', 'NONE', #62, .NOT_KNOWN. );
#131 = CLOSED_SHELL( '', ( #55, #57, #59, #43, #61, #39, #47, #49, #37, #45, #51, #41, #53 ) );
#132 = CARTESIAN_POINT( '', ( 0.000000000000000, 0.000000000000000, 0.000000000000000 ) );
#133 = DIRECTION( '', ( 0.000000000000000, 0.000000000000000, 1.00000000000000 ) );
#134 = DIRECTION( '', ( 1.00000000000000, 0.000000000000000, 0.000000000000000 ) );
#135 =  ( LENGTH_UNIT(  )NAMED_UNIT( #71 )SI_UNIT( .MILLI., .METRE. ) );
#136 = SURFACE_SIDE_STYLE( '', ( #255 ) );
#137 = EDGE_LOOP( '', ( #256 ) );
#138 = EDGE_LOOP( '', ( #257 ) );
#139 = AXIS2_PLACEMENT_3D( '', #258, #259, #260 );
#140 = SURFACE_SIDE_STYLE( '', ( #261 ) );
#141 = EDGE_LOOP( '', ( #262 ) );
#142 = EDGE_LOOP( '', ( #263 ) );
#145 = CARTESIAN_POINT( '', ( -27.0000000000000, 0.000000000000000, 45.0067099274442 ) );
#146 = CARTESIAN_POINT( '', ( -27.0000000000000, 54.0000000000000, 45.0067099274442 ) );
#147 = CARTESIAN_POINT( '', ( 27.0000000000000, 54.0000000000000, 45.0067099274442 ) );
#148 = CARTESIAN_POINT( '', ( 27.0000000000000, 0.000000000000000, 45.0067099274442 ) );
#149 = CARTESIAN_POINT( '', ( 27.0000000000000, -54.0000000000000, 45.0067099274442 ) );
#150 = CARTESIAN_POINT( '', ( -27.0000000000000, -54.0000000000000, 45.0067099274442 ) );
#151 = CARTESIAN_POINT( '', ( -27.0000000000000, 0.000000000000000, 45.0067099274442 ) );
#152 = CARTESIAN_POINT( '', ( -27.0000000000000, 0.000000000000000, 47.0427169896286 ) );
#153 = CARTESIAN_POINT( '', ( -27.0000000000000, 54.0000000000000, 47.0427169896286 ) );
#154 = CARTESIAN_POINT( '', ( 27.0000000000000, 54.0000000000000, 47.0427169896286 ) );
#155 = CARTESIAN_POINT( '', ( 27.0000000000000, 0.000000000000000, 47.0427169896286 ) );
#156 = CARTESIAN_POINT( '', ( 27.0000000000000, -54.0000000000000, 47.0427169896286 ) );
#157 = CARTESIAN_POINT( '', ( -27.0000000000000, -54.0000000000000, 47.0427169896286 ) );
#158 = CARTESIAN_POINT( '', ( -27.0000000000000, 0.000000000000000, 47.0427169896286 ) );
#159 = CARTESIAN_POINT( '', ( -26.5910982419802, 0.000000000000000, 49.0372405190844 ) );
#160 = CARTESIAN_POINT( '', ( -26.5910982419802, 53.1821964839604, 49.0372405190844 ) );
#161 = CARTESIAN_POINT( '', ( 26.5910982419802, 53.1821964839604, 49.0372405190844 ) );
#162 = CARTESIAN_POINT( '', ( 26.5910982419802, 0.000000000000000, 49.0372405190844 ) );
#163 = CARTESIAN_POINT( '', ( 26.5910982419802, -53.1821964839604, 49.0372405190844 ) );
#164 = CARTESIAN_POINT( '', ( -26.5910982419802, -53.1821964839604, 49.0372405190844 ) );
#165 = CARTESIAN_POINT( '', ( -26.5910982419802, 0.000000000000000, 49.0372405190844 ) );
#166 = CARTESIAN_POINT( '', ( -25.7899574279288, 0.000000000000000, 50.9090038997834 ) );
#167 = CARTESIAN_POINT( '', ( -25.7899574279288, 51.5799148558576, 50.9090038997834 ) );
#168 = CARTESIAN_POINT( '', ( 25.7899574279288, 51.5799148558576, 50.9090038997834 ) );
#169 = CARTESIAN_POINT( '', ( 25.7899574279288, 0.000000000000000, 50.9090038997834 ) );
#170 = CARTESIAN_POINT( '', ( 25.7899574279288, -51.5799148558576, 50.9090038997834 ) );
#171 = CARTESIAN_POINT( '', ( -25.7899574279288, -51.5799148558576, 50.9090038997834 ) );
#172 = CARTESIAN_POINT( '', ( -25.7899574279288, 0.000000000000000, 50.9090038997834 ) );
#178 = SURFACE_SIDE_STYLE( '', ( #264 ) );
#179 = EDGE_LOOP( '', ( #265 ) );
#180 = EDGE_LOOP( '', ( #266 ) );
#181 = AXIS2_PLACEMENT_3D( '', #267, #268, #269 );
#182 = SURFACE_SIDE_STYLE( '', ( #270 ) );
#183 = EDGE_LOOP( '', ( #271 ) );
#184 = EDGE_LOOP( '', ( #272 ) );
#187 = CARTESIAN_POINT( '', ( -25.7899574279288, 0.000000000000000, 50.9090038997834 ) );
#188 = CARTESIAN_POINT( '', ( -25.7899574279287, 51.5799148558575, 50.9090038997834 ) );
#189 = CARTESIAN_POINT( '', ( 25.7899574279287, 51.5799148558575, 50.9090038997834 ) );
#190 = CARTESIAN_POINT( '', ( 25.7899574279288, 0.000000000000000, 50.9090038997834 ) );
#191 = CARTESIAN_POINT( '', ( 25.7899574279287, -51.5799148558575, 50.9090038997834 ) );
#192 = CARTESIAN_POINT( '', ( -25.7899574279287, -51.5799148558575, 50.9090038997834 ) );
#193 = CARTESIAN_POINT( '', ( -25.7899574279288, 0.000000000000000, 50.9090038997834 ) );
#194 = CARTESIAN_POINT( '', ( -23.5819512220230, 0.000000000000000, 56.0677289180112 ) );
#195 = CARTESIAN_POINT( '', ( -23.5819512220230, 47.1639024440460, 56.0677289180112 ) );
#196 = CARTESIAN_POINT( '', ( 23.5819512220230, 47.1639024440460, 56.0677289180112 ) );
#197 = CARTESIAN_POINT( '', ( 23.5819512220230, 0.000000000000000, 56.0677289180112 ) );
#198 = CARTESIAN_POINT( '', ( 23.5819512220230, -47.1639024440460, 56.0677289180112 ) );
#199 = CARTESIAN_POINT( '', ( -23.5819512220230, -47.1639024440460, 56.0677289180112 ) );
#200 = CARTESIAN_POINT( '', ( -23.5819512220230, 0.000000000000000, 56.0677289180112 ) );
#201 = CARTESIAN_POINT( '', ( -20.8068553312044, 0.000000000000000, 60.9448774718047 ) );
#202 = CARTESIAN_POINT( '', ( -20.8068553312044, 41.6137106624088, 60.9448774718047 ) );
#203 = CARTESIAN_POINT( '', ( 20.8068553312044, 41.6137106624088, 60.9448774718047 ) );
#204 = CARTESIAN_POINT( '', ( 20.8068553312044, 0.000000000000000, 60.9448774718047 ) );
#205 = CARTESIAN_POINT( '', ( 20.8068553312044, -41.6137106624088, 60.9448774718047 ) );
#206 = CARTESIAN_POINT( '', ( -20.8068553312044, -41.6137106624088, 60.9448774718047 ) );
#207 = CARTESIAN_POINT( '', ( -20.8068553312044, 0.000000000000000, 60.9448774718047 ) );
#208 = CARTESIAN_POINT( '', ( -17.5000000000000, 0.000000000000000, 65.4783577064029 ) );
#209 = CARTESIAN_POINT( '', ( -17.5000000000000, 35.0000000000001, 65.4783577064030 ) );
#210 = CARTESIAN_POINT( '', ( 17.5000000000000, 35.0000000000001, 65.4783577064030 ) );
#211 = CARTESIAN_POINT( '', ( 17.5000000000000, 0.000000000000000, 65.4783577064029 ) );
#212 = CARTESIAN_POINT( '', ( 17.5000000000000, -35.0000000000001, 65.4783577064030 ) );
#213 = CARTESIAN_POINT( '', ( -17.5000000000000, -35.0000000000001, 65.4783577064030 ) );
#214 = CARTESIAN_POINT( '', ( -17.5000000000000, 0.000000000000000, 65.4783577064029 ) );
#220 = SURFACE_SIDE_STYLE( '', ( #273 ) );
#221 = EDGE_LOOP( '', ( #274 ) );
#222 = EDGE_LOOP( '', ( #275 ) );
#223 = AXIS2_PLACEMENT_3D( '', #276, #277, #278 );
#224 = SURFACE_SIDE_STYLE( '', ( #279 ) );
#225 = EDGE_LOOP( '', ( #280 ) );
#226 = EDGE_LOOP( '', ( #281 ) );
#227 = AXIS2_PLACEMENT_3D( '', #282, #283, #284 );
#228 = SURFACE_SIDE_STYLE( '', ( #285 ) );
#229 = EDGE_LOOP( '', ( #286 ) );
#230 = EDGE_LOOP( '', ( #287 ) );
#231 = AXIS2_PLACEMENT_3D( '', #288, #289, #290 );
#232 = SURFACE_SIDE_STYLE( '', ( #291 ) );
#233 = EDGE_LOOP( '', ( #292 ) );
#234 = AXIS2_PLACEMENT_3D( '', #293, #294, #295 );
#235 = SURFACE_SIDE_STYLE( '', ( #296 ) );
#236 = EDGE_LOOP( '', ( #297 ) );
#237 = EDGE_LOOP( '', ( #298 ) );
#238 = AXIS2_PLACEMENT_3D( '', #299, #300, #301 );
#239 = SURFACE_SIDE_STYLE( '', ( #302 ) );
#240 = EDGE_LOOP( '', ( #303 ) );
#241 = AXIS2_PLACEMENT_3D( '', #304, #305, #306 );
#242 = SURFACE_SIDE_STYLE( '', ( #307 ) );
#243 = EDGE_LOOP( '', ( #308 ) );
#244 = EDGE_LOOP( '', ( #309 ) );
#245 = AXIS2_PLACEMENT_3D( '', #310, #311, #312 );
#246 = SURFACE_SIDE_STYLE( '', ( #313 ) );
#247 = EDGE_LOOP( '', ( #314 ) );
#248 = EDGE_LOOP( '', ( #315 ) );
#249 = AXIS2_PLACEMENT_3D( '', #316, #317, #318 );
#250 = SURFACE_SIDE_STYLE( '', ( #319 ) );
#251 = EDGE_LOOP( '', ( #320 ) );
#252 = EDGE_LOOP( '', ( #321 ) );
#253 = AXIS2_PLACEMENT_3D( '', #322, #323, #324 );
#255 = SURFACE_STYLE_FILL_AREA( #325 );
#256 = ORIENTED_EDGE( '', *, *, #326, .T. );
#257 = ORIENTED_EDGE( '', *, *, #327, .T. );
#258 = CARTESIAN_POINT( '', ( 0.000000000000000, 0.000000000000000, 71.7000000000000 ) );
#259 = DIRECTION( '', ( -0.000000000000000, -0.000000000000000, -1.00000000000000 ) );
#260 = DIRECTION( '', ( 1.00000000000000, 0.000000000000000, 0.000000000000000 ) );
#261 = SURFACE_STYLE_FILL_AREA( #328 );
#262 = ORIENTED_EDGE( '', *, *, #329, .T. );
#263 = ORIENTED_EDGE( '', *, *, #330, .F. );
#264 = SURFACE_STYLE_FILL_AREA( #331 );
#265 = ORIENTED_EDGE( '', *, *, #332, .T. );
#266 = ORIENTED_EDGE( '', *, *, #333, .F. );
#267 = CARTESIAN_POINT( '', ( 0.000000000000000, 0.000000000000000, 75.0000000000000 ) );
#268 = DIRECTION( '', ( -0.000000000000000, -0.000000000000000, -1.00000000000000 ) );
#269 = DIRECTION( '', ( 1.00000000000000, 0.000000000000000, 0.000000000000000 ) );
#270 = SURFACE_STYLE_FILL_AREA( #334 );
#271 = ORIENTED_EDGE( '', *, *, #335, .F. );
#272 = ORIENTED_EDGE( '', *, *, #329, .F. );
#273 = SURFACE_STYLE_FILL_AREA( #336 );
#274 = ORIENTED_EDGE( '', *, *, #327, .F. );
#275 = ORIENTED_EDGE( '', *, *, #333, .T. );
#276 = CARTESIAN_POINT( '', ( 0.000000000000000, 0.000000000000000, 99.4783577064030 ) );
#277 = DIRECTION( '', ( 0.000000000000000, 0.000000000000000, -1.00000000000000 ) );
#278 = DIRECTION( '', ( -1.00000000000000, 0.000000000000000, 0.000000000000000 ) );
#279 = SURFACE_STYLE_FILL_AREA( #337 );
#280 = ORIENTED_EDGE( '', *, *, #338, .T. );
#281 = ORIENTED_EDGE( '', *, *, #339, .T. );
#282 = CARTESIAN_POINT( '', ( -27.0000000000000, 0.000000000000000, -1.52164229359697 ) );
#283 = DIRECTION( '', ( 0.000000000000000, 0.000000000000000, -1.00000000000000 ) );
#284 = DIRECTION( '', ( -1.00000000000000, 0.000000000000000, 0.000000000000000 ) );
#285 = SURFACE_STYLE_FILL_AREA( #340 );
#286 = ORIENTED_EDGE( '', *, *, #338, .F. );
#287 = ORIENTED_EDGE( '', *, *, #330, .T. );
#288 = CARTESIAN_POINT( '', ( 0.000000000000000, 0.000000000000000, -0.776355450782385 ) );
#289 = DIRECTION( '', ( -0.000000000000000, -0.000000000000000, 1.00000000000000 ) );
#290 = DIRECTION( '', ( -1.00000000000000, 0.000000000000000, 0.000000000000000 ) );
#291 = SURFACE_STYLE_FILL_AREA( #341 );
#292 = ORIENTED_EDGE( '', *, *, #332, .F. );
#293 = CARTESIAN_POINT( '', ( 0.000000000000000, 0.000000000000000, 73.4783577064030 ) );
#294 = DIRECTION( '', ( 0.000000000000000, 0.000000000000000, -1.00000000000000 ) );
#295 = DIRECTION( '', ( -1.00000000000000, 0.000000000000000, 0.000000000000000 ) );
#296 = SURFACE_STYLE_FILL_AREA( #342 );
#297 = ORIENTED_EDGE( '', *, *, #343, .T. );
#298 = ORIENTED_EDGE( '', *, *, #344, .T. );
#299 = CARTESIAN_POINT( '', ( 0.000000000000000, 0.000000000000000, 70.1783577064030 ) );
#300 = DIRECTION( '', ( 0.000000000000000, 0.000000000000000, -1.00000000000000 ) );
#301 = DIRECTION( '', ( -1.00000000000000, 0.000000000000000, 0.000000000000000 ) );
#302 = SURFACE_STYLE_FILL_AREA( #345 );
#303 = ORIENTED_EDGE( '', *, *, #346, .T. );
#304 = CARTESIAN_POINT( '', ( 0.000000000000000, 0.000000000000000, 45.0067099274442 ) );
#305 = DIRECTION( '', ( 0.000000000000000, 0.000000000000000, -1.00000000000000 ) );
#306 = DIRECTION( '', ( -1.00000000000000, 0.000000000000000, 0.000000000000000 ) );
#307 = SURFACE_STYLE_FILL_AREA( #347 );
#308 = ORIENTED_EDGE( '', *, *, #326, .F. );
#309 = ORIENTED_EDGE( '', *, *, #343, .F. );
#310 = CARTESIAN_POINT( '', ( 0.000000000000000, 0.000000000000000, 70.1783577064030 ) );
#311 = DIRECTION( '', ( -0.000000000000000, -0.000000000000000, 1.00000000000000 ) );
#312 = DIRECTION( '', ( 1.00000000000000, 0.000000000000000, 0.000000000000000 ) );
#313 = SURFACE_STYLE_FILL_AREA( #348 );
#314 = ORIENTED_EDGE( '', *, *, #344, .F. );
#315 = ORIENTED_EDGE( '', *, *, #335, .T. );
#316 = CARTESIAN_POINT( '', ( 0.000000000000000, 0.000000000000000, 95.0893419081201 ) );
#317 = DIRECTION( '', ( -0.000000000000000, -0.000000000000000, 1.00000000000000 ) );
#318 = DIRECTION( '', ( -1.00000000000000, 0.000000000000000, 0.000000000000000 ) );
#319 = SURFACE_STYLE_FILL_AREA( #349 );
#320 = ORIENTED_EDGE( '', *, *, #346, .F. );
#321 = ORIENTED_EDGE( '', *, *, #339, .F. );
#322 = CARTESIAN_POINT( '', ( 0.000000000000000, 0.000000000000000, -0.776355450782385 ) );
#323 = DIRECTION( '', ( -0.000000000000000, -0.000000000000000, 1.00000000000000 ) );
#324 = DIRECTION( '', ( -1.00000000000000, 0.000000000000000, 0.000000000000000 ) );
#325 = FILL_AREA_STYLE( '', ( #350 ) );
#326 = EDGE_CURVE( '', #351, #351, #352, .T. );
#327 = EDGE_CURVE( '', #353, #353, #354, .T. );
#328 = FILL_AREA_STYLE( '', ( #355 ) );
#329 = EDGE_CURVE( '', #356, #356, #357, .T. );
#330 = EDGE_CURVE( '', #358, #358, #359, .T. );
#331 = FILL_AREA_STYLE( '', ( #360 ) );
#332 = EDGE_CURVE( '', #361, #361, #362, .T. );
#333 = EDGE_CURVE( '', #363, #363, #364, .T. );
#334 = FILL_AREA_STYLE( '', ( #365 ) );
#335 = EDGE_CURVE( '', #366, #366, #367, .T. );
#336 = FILL_AREA_STYLE( '', ( #368 ) );
#337 = FILL_AREA_STYLE( '', ( #369 ) );
#338 = EDGE_CURVE( '', #370, #370, #371, .T. );
#339 = EDGE_CURVE( '', #372, #372, #373, .F. );
#340 = FILL_AREA_STYLE( '', ( #374 ) );
#341 = FILL_AREA_STYLE( '', ( #375 ) );
#342 = FILL_AREA_STYLE( '', ( #376 ) );
#343 = EDGE_CURVE( '', #377, #377, #378, .T. );
#344 = EDGE_CURVE( '', #379, #379, #380, .F. );
#345 = FILL_AREA_STYLE( '', ( #381 ) );
#346 = EDGE_CURVE( '', #382, #382, #383, .T. );
#347 = FILL_AREA_STYLE( '', ( #384 ) );
#348 = FILL_AREA_STYLE( '', ( #385 ) );
#349 = FILL_AREA_STYLE( '', ( #386 ) );
#350 = FILL_AREA_STYLE_COLOUR( '', #387 );
#351 = VERTEX_POINT( '', #388 );
#352 = CIRCLE( '', #389, 20.0000000000000 );
#353 = VERTEX_POINT( '', #390 );
#354 = CIRCLE( '', #391, 20.0000000000000 );
#355 = FILL_AREA_STYLE_COLOUR( '', #392 );
#356 = VERTEX_POINT( '', #393 );
#357 = CIRCLE( '', #394, 25.7899574279288 );
#358 = VERTEX_POINT( '', #395 );
#359 = CIRCLE( '', #396, 27.0000000000000 );
#360 = FILL_AREA_STYLE_COLOUR( '', #397 );
#361 = VERTEX_POINT( '', #398 );
#362 = CIRCLE( '', #399, 17.5000000000000 );
#363 = VERTEX_POINT( '', #400 );
#364 = CIRCLE( '', #401, 17.5000000000000 );
#365 = FILL_AREA_STYLE_COLOUR( '', #402 );
#366 = VERTEX_POINT( '', #403 );
#367 = CIRCLE( '', #404, 17.5000000000000 );
#368 = FILL_AREA_STYLE_COLOUR( '', #405 );
#369 = FILL_AREA_STYLE_COLOUR( '', #406 );
#370 = VERTEX_POINT( '', #407 );
#371 = CIRCLE( '', #408, 27.0000000000000 );
#372 = VERTEX_POINT( '', #409 );
#373 = CIRCLE( '', #410, 25.5000000000000 );
#374 = FILL_AREA_STYLE_COLOUR( '', #411 );
#375 = FILL_AREA_STYLE_COLOUR( '', #412 );
#376 = FILL_AREA_STYLE_COLOUR( '', #413 );
#377 = VERTEX_POINT( '', #414 );
#378 = CIRCLE( '', #415, 18.5000000000000 );
#379 = VERTEX_POINT( '', #416 );
#380 = CIRCLE( '', #417, 17.5000000000000 );
#381 = FILL_AREA_STYLE_COLOUR( '', #418 );
#382 = VERTEX_POINT( '', #419 );
#383 = CIRCLE( '', #420, 25.5000000000000 );
#384 = FILL_AREA_STYLE_COLOUR( '', #421 );
#385 = FILL_AREA_STYLE_COLOUR( '', #422 );
#386 = FILL_AREA_STYLE_COLOUR( '', #423 );
#387 = COLOUR_RGB( '', 0.898039221763611, 0.450980395078659, 0.000000000000000 );
#388 = CARTESIAN_POINT( '', ( 20.0000000000000, 0.000000000000000, 71.6783577064031 ) );
#389 = AXIS2_PLACEMENT_3D( '', #424, #425, #426 );
#390 = CARTESIAN_POINT( '', ( 20.0000000000000, 0.000000000000000, 99.4783577064030 ) );
#391 = AXIS2_PLACEMENT_3D( '', #427, #428, #429 );
#392 = COLOUR_RGB( '', 0.898039221763611, 0.450980395078659, 0.000000000000000 );
#393 = CARTESIAN_POINT( '', ( -25.7899574279288, 0.000000000000000, 50.9090038997834 ) );
#394 = AXIS2_PLACEMENT_3D( '', #430, #431, #432 );
#395 = CARTESIAN_POINT( '', ( -27.0000000000000, 0.000000000000000, 45.0067099274442 ) );
#396 = AXIS2_PLACEMENT_3D( '', #433, #434, #435 );
#397 = COLOUR_RGB( '', 0.898039221763611, 0.450980395078659, 0.000000000000000 );
#398 = CARTESIAN_POINT( '', ( 17.5000000000000, 0.000000000000000, 73.4783577064030 ) );
#399 = AXIS2_PLACEMENT_3D( '', #436, #437, #438 );
#400 = CARTESIAN_POINT( '', ( 17.5000000000000, 0.000000000000000, 99.4783577064030 ) );
#401 = AXIS2_PLACEMENT_3D( '', #439, #440, #441 );
#402 = COLOUR_RGB( '', 0.898039221763611, 0.450980395078659, 0.000000000000000 );
#403 = CARTESIAN_POINT( '', ( 17.5000000000000, 0.000000000000000, 65.4783577064029 ) );
#404 = AXIS2_PLACEMENT_3D( '', #442, #443, #444 );
#405 = COLOUR_RGB( '', 0.898039221763611, 0.450980395078659, 0.000000000000000 );
#406 = COLOUR_RGB( '', 0.898039221763611, 0.450980395078659, 0.000000000000000 );
#407 = CARTESIAN_POINT( '', ( -27.0000000000000, 0.000000000000000, -1.52164229359697 ) );
#408 = AXIS2_PLACEMENT_3D( '', #445, #446, #447 );
#409 = CARTESIAN_POINT( '', ( -25.5000000000000, 0.000000000000000, -1.52164229359697 ) );
#410 = AXIS2_PLACEMENT_3D( '', #448, #449, #450 );
#411 = COLOUR_RGB( '', 0.898039221763611, 0.450980395078659, 0.000000000000000 );
#412 = COLOUR_RGB( '', 0.898039221763611, 0.450980395078659, 0.000000000000000 );
#413 = COLOUR_RGB( '', 0.898039221763611, 0.450980395078659, 0.000000000000000 );
#414 = CARTESIAN_POINT( '', ( -18.5000000000000, 0.000000000000000, 70.1783577064030 ) );
#415 = AXIS2_PLACEMENT_3D( '', #451, #452, #453 );
#416 = CARTESIAN_POINT( '', ( -17.5000000000000, 0.000000000000000, 70.1783577064030 ) );
#417 = AXIS2_PLACEMENT_3D( '', #454, #455, #456 );
#418 = COLOUR_RGB( '', 0.898039221763611, 0.450980395078659, 0.000000000000000 );
#419 = CARTESIAN_POINT( '', ( -25.5000000000000, 0.000000000000000, 45.0067099274442 ) );
#420 = AXIS2_PLACEMENT_3D( '', #457, #458, #459 );
#421 = COLOUR_RGB( '', 0.898039221763611, 0.450980395078659, 0.000000000000000 );
#422 = COLOUR_RGB( '', 0.898039221763611, 0.450980395078659, 0.000000000000000 );
#423 = COLOUR_RGB( '', 0.898039221763611, 0.450980395078659, 0.000000000000000 );
#424 = CARTESIAN_POINT( '', ( 0.000000000000000, 0.000000000000000, 71.6783577064031 ) );
#425 = DIRECTION( '', ( 0.000000000000000, 0.000000000000000, 1.00000000000000 ) );
#426 = DIRECTION( '', ( 1.00000000000000, 0.000000000000000, 0.000000000000000 ) );
#427 = CARTESIAN_POINT( '', ( 0.000000000000000, 0.000000000000000, 99.4783577064030 ) );
#428 = DIRECTION( '', ( 0.000000000000000, 0.000000000000000, -1.00000000000000 ) );
#429 = DIRECTION( '', ( 1.00000000000000, 0.000000000000000, 0.000000000000000 ) );
#430 = CARTESIAN_POINT( '', ( 0.000000000000000, 0.000000000000000, 50.9090038997834 ) );
#431 = DIRECTION( '', ( 0.000000000000000, 0.000000000000000, -1.00000000000000 ) );
#432 = DIRECTION( '', ( -1.00000000000000, 0.000000000000000, 0.000000000000000 ) );
#433 = CARTESIAN_POINT( '', ( 0.000000000000000, 0.000000000000000, 45.0067099274442 ) );
#434 = DIRECTION( '', ( 0.000000000000000, 0.000000000000000, -1.00000000000000 ) );
#435 = DIRECTION( '', ( -1.00000000000000, 0.000000000000000, 0.000000000000000 ) );
#436 = CARTESIAN_POINT( '', ( 0.000000000000000, 0.000000000000000, 73.4783577064030 ) );
#437 = DIRECTION( '', ( 0.000000000000000, 0.000000000000000, -1.00000000000000 ) );
#438 = DIRECTION( '', ( 1.00000000000000, 0.000000000000000, 0.000000000000000 ) );
#439 = CARTESIAN_POINT( '', ( 0.000000000000000, 0.000000000000000, 99.4783577064030 ) );
#440 = DIRECTION( '', ( 0.000000000000000, 0.000000000000000, -1.00000000000000 ) );
#441 = DIRECTION( '', ( 1.00000000000000, 0.000000000000000, 0.000000000000000 ) );
#442 = CARTESIAN_POINT( '', ( 0.000000000000000, 0.000000000000000, 65.4783577064029 ) );
#443 = DIRECTION( '', ( 0.000000000000000, 0.000000000000000, 1.00000000000000 ) );
#444 = DIRECTION( '', ( 1.00000000000000, 0.000000000000000, 0.000000000000000 ) );
#445 = CARTESIAN_POINT( '', ( 0.000000000000000, 0.000000000000000, -1.52164229359697 ) );
#446 = DIRECTION( '', ( 0.000000000000000, 0.000000000000000, -1.00000000000000 ) );
#447 = DIRECTION( '', ( -1.00000000000000, 0.000000000000000, 0.000000000000000 ) );
#448 = CARTESIAN_POINT( '', ( 0.000000000000000, 0.000000000000000, -1.52164229359697 ) );
#449 = DIRECTION( '', ( 0.000000000000000, 0.000000000000000, -1.00000000000000 ) );
#450 = DIRECTION( '', ( -1.00000000000000, 0.000000000000000, 0.000000000000000 ) );
#451 = CARTESIAN_POINT( '', ( 0.000000000000000, 0.000000000000000, 70.1783577064030 ) );
#452 = DIRECTION( '', ( 0.000000000000000, 0.000000000000000, -1.00000000000000 ) );
#453 = DIRECTION( '', ( -1.00000000000000, 0.000000000000000, 0.000000000000000 ) );
#454 = CARTESIAN_POINT( '', ( 0.000000000000000, 0.000000000000000, 70.1783577064030 ) );
#455 = DIRECTION( '', ( 0.000000000000000, 0.000000000000000, -1.00000000000000 ) );
#456 = DIRECTION( '', ( -1.00000000000000, 0.000000000000000, 0.000000000000000 ) );
#457 = CARTESIAN_POINT( '', ( 0.000000000000000, 0.000000000000000, 45.0067099274442 ) );
#458 = DIRECTION( '', ( 0.000000000000000, 0.000000000000000, -1.00000000000000 ) );
#459 = DIRECTION( '', ( -1.00000000000000, 0.000000000000000, 0.000000000000000 ) );
ENDSEC;
END-ISO-10303-21;
