ISO-10303-21;
HEADER;
FILE_DESCRIPTION( ( 'Unknown' ), '1' );
FILE_NAME( '//Server/ofimatica/alfredo/Alfredo2/ISOTUBI/PZAS3D/FICHATECNICA/NUMEPRESS/generico 3D/F14DN42-54.stp', 'Unknown', ( 'Unknown' ), ( 'Unknown' ), 'PSStep 14.0', 'Unknown', '  ' );
FILE_SCHEMA( ( 'AUTOMOTIVE_DESIGN { 1 0 10303 214 1 1 1 1 }' ) );
ENDSEC;
DATA;
#1 = MECHANICAL_DESIGN_GEOMETRIC_PRESENTATION_REPRESENTATION( ' ', ( #10, #11, #12, #13, #14, #15, #16, #17, #18, #19, #20, #21, #22 ), #6 );
#2 = PRODUCT_DEFINITION_CONTEXT( '', #23, 'design' );
#3 = APPLICATION_PROTOCOL_DEFINITION( 'international standard', 'automotive_design', 2001, #23 );
#4 = PRODUCT_CATEGORY_RELATIONSHIP( 'NONE', 'NONE', #24, #25 );
#5 = SHAPE_DEFINITION_REPRESENTATION( #26, #27 );
#6 =  ( GEOMETRIC_REPRESENTATION_CONTEXT( 3 )GLOBAL_UNCERTAINTY_ASSIGNED_CONTEXT( ( #30 ) )GLOBAL_UNIT_ASSIGNED_CONTEXT( ( #32, #33, #34 ) )REPRESENTATION_CONTEXT( 'NONE', 'WORKSPACE' ) );
#10 = STYLED_ITEM( '', ( #36 ), #37 );
#11 = STYLED_ITEM( '', ( #38 ), #39 );
#12 = STYLED_ITEM( '', ( #40 ), #41 );
#13 = STYLED_ITEM( '', ( #42 ), #43 );
#14 = STYLED_ITEM( '', ( #44 ), #45 );
#15 = STYLED_ITEM( '', ( #46 ), #47 );
#16 = STYLED_ITEM( '', ( #48 ), #49 );
#17 = STYLED_ITEM( '', ( #50 ), #51 );
#18 = STYLED_ITEM( '', ( #52 ), #53 );
#19 = STYLED_ITEM( '', ( #54 ), #55 );
#20 = STYLED_ITEM( '', ( #56 ), #57 );
#21 = STYLED_ITEM( '', ( #58 ), #59 );
#22 = STYLED_ITEM( '', ( #60 ), #61 );
#23 = APPLICATION_CONTEXT( 'core data for automotive mechanical design processes' );
#24 = PRODUCT_CATEGORY( 'part', 'NONE' );
#25 = PRODUCT_RELATED_PRODUCT_CATEGORY( 'detail', ' ', ( #62 ) );
#26 = PRODUCT_DEFINITION_SHAPE( 'NONE', 'NONE', #63 );
#27 = ADVANCED_BREP_SHAPE_REPRESENTATION( '1', ( #64, #65 ), #6 );
#30 = UNCERTAINTY_MEASURE_WITH_UNIT( LENGTH_MEASURE( 0.00100000000000000 ), #32, '', '' );
#32 =  ( CONVERSION_BASED_UNIT( 'MILLIMETRE', #68 )LENGTH_UNIT(  )NAMED_UNIT( #71 ) );
#33 =  ( NAMED_UNIT( #73 )PLANE_ANGLE_UNIT(  )SI_UNIT( $, .RADIAN. ) );
#34 =  ( NAMED_UNIT( #73 )SI_UNIT( $, .STERADIAN. )SOLID_ANGLE_UNIT(  ) );
#36 = PRESENTATION_STYLE_ASSIGNMENT( ( #79 ) );
#37 = ADVANCED_FACE( '', ( #80, #81 ), #82, .T. );
#38 = PRESENTATION_STYLE_ASSIGNMENT( ( #83 ) );
#39 = ADVANCED_FACE( '', ( #84, #85 ), #86, .T. );
#40 = PRESENTATION_STYLE_ASSIGNMENT( ( #87 ) );
#41 = ADVANCED_FACE( '', ( #88 ), #89, .F. );
#42 = PRESENTATION_STYLE_ASSIGNMENT( ( #90 ) );
#43 = ADVANCED_FACE( '', ( #91, #92 ), #93, .T. );
#44 = PRESENTATION_STYLE_ASSIGNMENT( ( #94 ) );
#45 = ADVANCED_FACE( '', ( #95, #96 ), #97, .T. );
#46 = PRESENTATION_STYLE_ASSIGNMENT( ( #98 ) );
#47 = ADVANCED_FACE( '', ( #99, #100 ), #101, .T. );
#48 = PRESENTATION_STYLE_ASSIGNMENT( ( #102 ) );
#49 = ADVANCED_FACE( '', ( #103, #104 ), #105, .F. );
#50 = PRESENTATION_STYLE_ASSIGNMENT( ( #106 ) );
#51 = ADVANCED_FACE( '', ( #107 ), #108, .T. );
#52 = PRESENTATION_STYLE_ASSIGNMENT( ( #109 ) );
#53 = ADVANCED_FACE( '', ( #110, #111 ), #112, .T. );
#54 = PRESENTATION_STYLE_ASSIGNMENT( ( #113 ) );
#55 = ADVANCED_FACE( '', ( #114, #115 ), #116, .F. );
#56 = PRESENTATION_STYLE_ASSIGNMENT( ( #117 ) );
#57 = ADVANCED_FACE( '', ( #118, #119 ), #120, .F. );
#58 = PRESENTATION_STYLE_ASSIGNMENT( ( #121 ) );
#59 = ADVANCED_FACE( '', ( #122, #123 ), #124, .T. );
#60 = PRESENTATION_STYLE_ASSIGNMENT( ( #125 ) );
#61 = ADVANCED_FACE( '', ( #126, #127 ), #128, .T. );
#62 = PRODUCT( '1', '1', 'PART-1-DESC', ( #129 ) );
#63 = PRODUCT_DEFINITION( 'NONE', 'NONE', #130, #2 );
#64 = MANIFOLD_SOLID_BREP( '1', #131 );
#65 = AXIS2_PLACEMENT_3D( '', #132, #133, #134 );
#68 = LENGTH_MEASURE_WITH_UNIT( LENGTH_MEASURE( 1.00000000000000 ), #135 );
#71 = DIMENSIONAL_EXPONENTS( 1.00000000000000, 0.000000000000000, 0.000000000000000, 0.000000000000000, 0.000000000000000, 0.000000000000000, 0.000000000000000 );
#73 = DIMENSIONAL_EXPONENTS( 0.000000000000000, 0.000000000000000, 0.000000000000000, 0.000000000000000, 0.000000000000000, 0.000000000000000, 0.000000000000000 );
#79 = SURFACE_STYLE_USAGE( .BOTH., #136 );
#80 = FACE_OUTER_BOUND( '', #137, .T. );
#81 = FACE_BOUND( '', #138, .T. );
#82 = PLANE( '', #139 );
#83 = SURFACE_STYLE_USAGE( .BOTH., #140 );
#84 = FACE_OUTER_BOUND( '', #141, .T. );
#85 = FACE_OUTER_BOUND( '', #142, .T. );
#86 = ( BOUNDED_SURFACE(  )B_SPLINE_SURFACE( 3, 3, ( ( #145, #146, #147, #148, #149, #150, #151 ), ( #152, #153, #154, #155, #156, #157, #158 ), ( #159, #160, #161, #162, #163, #164, #165 ), ( #166, #167, #168, #169, #170, #171, #172 ) ), .UNSPECIFIED., .F., .T., .F. )B_SPLINE_SURFACE_WITH_KNOTS( ( 4, 4 ), ( 4, 3, 4 ), ( 0.000000000000000, 6.28318530717959 ), ( -0.418361671552827, -0.209180835776414, 0.000000000000000 ), .UNSPECIFIED. )GEOMETRIC_REPRESENTATION_ITEM(  )RATIONAL_B_SPLINE_SURFACE( ( ( 1.00000000000000, 0.333333333333333, 0.333333333333333, 1.00000000000000, 0.333333333333333, 0.333333333333333, 1.00000000000000 ), ( 0.985467566302014, 0.328489188767338, 0.328489188767338, 0.985467566302014, 0.328489188767338, 0.328489188767338, 0.985467566302014 ), ( 0.985467566302014, 0.328489188767338, 0.328489188767338, 0.985467566302014, 0.328489188767338, 0.328489188767338, 0.985467566302014 ), ( 1.00000000000000, 0.333333333333333, 0.333333333333333, 1.00000000000000, 0.333333333333333, 0.333333333333333, 1.00000000000000 ) ) )REPRESENTATION_ITEM( '' )SURFACE(  ) );
#87 = SURFACE_STYLE_USAGE( .BOTH., #178 );
#88 = FACE_OUTER_BOUND( '', #179, .T. );
#89 = PLANE( '', #180 );
#90 = SURFACE_STYLE_USAGE( .BOTH., #181 );
#91 = FACE_OUTER_BOUND( '', #182, .T. );
#92 = FACE_OUTER_BOUND( '', #183, .T. );
#93 = CYLINDRICAL_SURFACE( '', #184, 23.5000000000000 );
#94 = SURFACE_STYLE_USAGE( .BOTH., #185 );
#95 = FACE_OUTER_BOUND( '', #186, .T. );
#96 = FACE_BOUND( '', #187, .T. );
#97 = PLANE( '', #188 );
#98 = SURFACE_STYLE_USAGE( .BOTH., #189 );
#99 = FACE_OUTER_BOUND( '', #190, .T. );
#100 = FACE_BOUND( '', #191, .T. );
#101 = CONICAL_SURFACE( '', #192, 22.0000000000000, 0.785398163397448 );
#102 = SURFACE_STYLE_USAGE( .BOTH., #193 );
#103 = FACE_BOUND( '', #194, .T. );
#104 = FACE_OUTER_BOUND( '', #195, .T. );
#105 = PLANE( '', #196 );
#106 = SURFACE_STYLE_USAGE( .BOTH., #197 );
#107 = FACE_OUTER_BOUND( '', #198, .T. );
#108 = PLANE( '', #199 );
#109 = SURFACE_STYLE_USAGE( .BOTH., #200 );
#110 = FACE_OUTER_BOUND( '', #201, .T. );
#111 = FACE_OUTER_BOUND( '', #202, .T. );
#112 = CYLINDRICAL_SURFACE( '', #203, 21.0000000000000 );
#113 = SURFACE_STYLE_USAGE( .BOTH., #204 );
#114 = FACE_OUTER_BOUND( '', #205, .T. );
#115 = FACE_OUTER_BOUND( '', #206, .T. );
#116 = CYLINDRICAL_SURFACE( '', #207, 25.5000000000000 );
#117 = SURFACE_STYLE_USAGE( .BOTH., #208 );
#118 = FACE_OUTER_BOUND( '', #209, .T. );
#119 = FACE_OUTER_BOUND( '', #210, .T. );
#120 = CYLINDRICAL_SURFACE( '', #211, 21.0000000000000 );
#121 = SURFACE_STYLE_USAGE( .BOTH., #212 );
#122 = FACE_OUTER_BOUND( '', #213, .T. );
#123 = FACE_OUTER_BOUND( '', #214, .T. );
#124 = ( BOUNDED_SURFACE(  )B_SPLINE_SURFACE( 3, 3, ( ( #217, #218, #219, #220, #221, #222, #223 ), ( #224, #225, #226, #227, #228, #229, #230 ), ( #231, #232, #233, #234, #235, #236, #237 ), ( #238, #239, #240, #241, #242, #243, #244 ) ), .UNSPECIFIED., .F., .T., .F. )B_SPLINE_SURFACE_WITH_KNOTS( ( 4, 4 ), ( 4, 3, 4 ), ( 0.000000000000000, 6.28318530717959 ), ( -0.553891388650625, -0.486126530101726, -0.418361671552827 ), .UNSPECIFIED. )GEOMETRIC_REPRESENTATION_ITEM(  )RATIONAL_B_SPLINE_SURFACE( ( ( 1.00000000000000, 0.333333333333333, 0.333333333333333, 1.00000000000000, 0.333333333333333, 0.333333333333333, 1.00000000000000 ), ( 0.998469893646809, 0.332823297882270, 0.332823297882270, 0.998469893646809, 0.332823297882270, 0.332823297882270, 0.998469893646809 ), ( 0.998469893646809, 0.332823297882270, 0.332823297882270, 0.998469893646809, 0.332823297882270, 0.332823297882270, 0.998469893646809 ), ( 1.00000000000000, 0.333333333333333, 0.333333333333333, 1.00000000000000, 0.333333333333333, 0.333333333333333, 1.00000000000000 ) ) )REPRESENTATION_ITEM( '' )SURFACE(  ) );
#125 = SURFACE_STYLE_USAGE( .BOTH., #250 );
#126 = FACE_OUTER_BOUND( '', #251, .T. );
#127 = FACE_OUTER_BOUND( '', #252, .T. );
#128 = CYLINDRICAL_SURFACE( '', #253, 27.0000000000000 );
#129 = PRODUCT_CONTEXT( '', #23, 'mechanical' );
#130 = PRODUCT_DEFINITION_FORMATION_WITH_SPECIFIED_SOURCE( ' ', 'NONE', #62, .NOT_KNOWN. );
#131 = CLOSED_SHELL( '', ( #51, #57, #41, #47, #43, #37, #49, #55, #53, #61, #59, #39, #45 ) );
#132 = CARTESIAN_POINT( '', ( 0.000000000000000, 0.000000000000000, 0.000000000000000 ) );
#133 = DIRECTION( '', ( 0.000000000000000, 0.000000000000000, 1.00000000000000 ) );
#134 = DIRECTION( '', ( 1.00000000000000, 0.000000000000000, 0.000000000000000 ) );
#135 =  ( LENGTH_UNIT(  )NAMED_UNIT( #71 )SI_UNIT( .MILLI., .METRE. ) );
#136 = SURFACE_SIDE_STYLE( '', ( #255 ) );
#137 = EDGE_LOOP( '', ( #256 ) );
#138 = EDGE_LOOP( '', ( #257 ) );
#139 = AXIS2_PLACEMENT_3D( '', #258, #259, #260 );
#140 = SURFACE_SIDE_STYLE( '', ( #261 ) );
#141 = EDGE_LOOP( '', ( #262 ) );
#142 = EDGE_LOOP( '', ( #263 ) );
#145 = CARTESIAN_POINT( '', ( -27.0000000000000, 0.000000000000000, 70.1389563555545 ) );
#146 = CARTESIAN_POINT( '', ( -27.0000000000000, 54.0000000000000, 70.1389563555545 ) );
#147 = CARTESIAN_POINT( '', ( 27.0000000000000, 54.0000000000000, 70.1389563555545 ) );
#148 = CARTESIAN_POINT( '', ( 27.0000000000000, 0.000000000000000, 70.1389563555545 ) );
#149 = CARTESIAN_POINT( '', ( 27.0000000000000, -54.0000000000000, 70.1389563555545 ) );
#150 = CARTESIAN_POINT( '', ( -27.0000000000000, -54.0000000000000, 70.1389563555545 ) );
#151 = CARTESIAN_POINT( '', ( -27.0000000000000, 0.000000000000000, 70.1389563555545 ) );
#152 = CARTESIAN_POINT( '', ( -27.0000000000000, 0.000000000000000, 72.2461658585381 ) );
#153 = CARTESIAN_POINT( '', ( -27.0000000000000, 54.0000000000000, 72.2461658585381 ) );
#154 = CARTESIAN_POINT( '', ( 27.0000000000000, 54.0000000000000, 72.2461658585381 ) );
#155 = CARTESIAN_POINT( '', ( 27.0000000000000, 0.000000000000000, 72.2461658585381 ) );
#156 = CARTESIAN_POINT( '', ( 27.0000000000000, -54.0000000000000, 72.2461658585381 ) );
#157 = CARTESIAN_POINT( '', ( -27.0000000000000, -54.0000000000000, 72.2461658585381 ) );
#158 = CARTESIAN_POINT( '', ( -27.0000000000000, 0.000000000000000, 72.2461658585381 ) );
#159 = CARTESIAN_POINT( '', ( -26.5624196939316, 0.000000000000000, 74.3074410379370 ) );
#160 = CARTESIAN_POINT( '', ( -26.5624196939316, 53.1248393878632, 74.3074410379369 ) );
#161 = CARTESIAN_POINT( '', ( 26.5624196939316, 53.1248393878632, 74.3074410379369 ) );
#162 = CARTESIAN_POINT( '', ( 26.5624196939316, 0.000000000000000, 74.3074410379370 ) );
#163 = CARTESIAN_POINT( '', ( 26.5624196939316, -53.1248393878632, 74.3074410379369 ) );
#164 = CARTESIAN_POINT( '', ( -26.5624196939316, -53.1248393878632, 74.3074410379369 ) );
#165 = CARTESIAN_POINT( '', ( -26.5624196939316, 0.000000000000000, 74.3074410379370 ) );
#166 = CARTESIAN_POINT( '', ( -25.7063364021513, 0.000000000000000, 76.2329158591172 ) );
#167 = CARTESIAN_POINT( '', ( -25.7063364021513, 51.4126728043026, 76.2329158591172 ) );
#168 = CARTESIAN_POINT( '', ( 25.7063364021513, 51.4126728043026, 76.2329158591172 ) );
#169 = CARTESIAN_POINT( '', ( 25.7063364021513, 0.000000000000000, 76.2329158591172 ) );
#170 = CARTESIAN_POINT( '', ( 25.7063364021513, -51.4126728043026, 76.2329158591172 ) );
#171 = CARTESIAN_POINT( '', ( -25.7063364021513, -51.4126728043026, 76.2329158591172 ) );
#172 = CARTESIAN_POINT( '', ( -25.7063364021513, 0.000000000000000, 76.2329158591172 ) );
#178 = SURFACE_SIDE_STYLE( '', ( #264 ) );
#179 = EDGE_LOOP( '', ( #265 ) );
#180 = AXIS2_PLACEMENT_3D( '', #266, #267, #268 );
#181 = SURFACE_SIDE_STYLE( '', ( #269 ) );
#182 = EDGE_LOOP( '', ( #270 ) );
#183 = EDGE_LOOP( '', ( #271 ) );
#184 = AXIS2_PLACEMENT_3D( '', #272, #273, #274 );
#185 = SURFACE_SIDE_STYLE( '', ( #275 ) );
#186 = EDGE_LOOP( '', ( #276 ) );
#187 = EDGE_LOOP( '', ( #277 ) );
#188 = AXIS2_PLACEMENT_3D( '', #278, #279, #280 );
#189 = SURFACE_SIDE_STYLE( '', ( #281 ) );
#190 = EDGE_LOOP( '', ( #282 ) );
#191 = EDGE_LOOP( '', ( #283 ) );
#192 = AXIS2_PLACEMENT_3D( '', #284, #285, #286 );
#193 = SURFACE_SIDE_STYLE( '', ( #287 ) );
#194 = EDGE_LOOP( '', ( #288 ) );
#195 = EDGE_LOOP( '', ( #289 ) );
#196 = AXIS2_PLACEMENT_3D( '', #290, #291, #292 );
#197 = SURFACE_SIDE_STYLE( '', ( #293 ) );
#198 = EDGE_LOOP( '', ( #294 ) );
#199 = AXIS2_PLACEMENT_3D( '', #295, #296, #297 );
#200 = SURFACE_SIDE_STYLE( '', ( #298 ) );
#201 = EDGE_LOOP( '', ( #299 ) );
#202 = EDGE_LOOP( '', ( #300 ) );
#203 = AXIS2_PLACEMENT_3D( '', #301, #302, #303 );
#204 = SURFACE_SIDE_STYLE( '', ( #304 ) );
#205 = EDGE_LOOP( '', ( #305 ) );
#206 = EDGE_LOOP( '', ( #306 ) );
#207 = AXIS2_PLACEMENT_3D( '', #307, #308, #309 );
#208 = SURFACE_SIDE_STYLE( '', ( #310 ) );
#209 = EDGE_LOOP( '', ( #311 ) );
#210 = EDGE_LOOP( '', ( #312 ) );
#211 = AXIS2_PLACEMENT_3D( '', #313, #314, #315 );
#212 = SURFACE_SIDE_STYLE( '', ( #316 ) );
#213 = EDGE_LOOP( '', ( #317 ) );
#214 = EDGE_LOOP( '', ( #318 ) );
#217 = CARTESIAN_POINT( '', ( -25.7063364021512, 0.000000000000000, 76.2329158591172 ) );
#218 = CARTESIAN_POINT( '', ( -25.7063364021512, 51.4126728043025, 76.2329158591172 ) );
#219 = CARTESIAN_POINT( '', ( 25.7063364021512, 51.4126728043025, 76.2329158591172 ) );
#220 = CARTESIAN_POINT( '', ( 25.7063364021512, 0.000000000000000, 76.2329158591172 ) );
#221 = CARTESIAN_POINT( '', ( 25.7063364021512, -51.4126728043025, 76.2329158591172 ) );
#222 = CARTESIAN_POINT( '', ( -25.7063364021512, -51.4126728043025, 76.2329158591172 ) );
#223 = CARTESIAN_POINT( '', ( -25.7063364021512, 0.000000000000000, 76.2329158591172 ) );
#224 = CARTESIAN_POINT( '', ( -24.3400936805468, 0.000000000000000, 79.3058247516613 ) );
#225 = CARTESIAN_POINT( '', ( -24.3400936805468, 48.6801873610935, 79.3058247516613 ) );
#226 = CARTESIAN_POINT( '', ( 24.3400936805468, 48.6801873610935, 79.3058247516613 ) );
#227 = CARTESIAN_POINT( '', ( 24.3400936805468, 0.000000000000000, 79.3058247516613 ) );
#228 = CARTESIAN_POINT( '', ( 24.3400936805468, -48.6801873610935, 79.3058247516613 ) );
#229 = CARTESIAN_POINT( '', ( -24.3400936805468, -48.6801873610935, 79.3058247516613 ) );
#230 = CARTESIAN_POINT( '', ( -24.3400936805468, 0.000000000000000, 79.3058247516613 ) );
#231 = CARTESIAN_POINT( '', ( -22.7689108029266, 0.000000000000000, 82.2791684252529 ) );
#232 = CARTESIAN_POINT( '', ( -22.7689108029266, 45.5378216058532, 82.2791684252529 ) );
#233 = CARTESIAN_POINT( '', ( 22.7689108029266, 45.5378216058532, 82.2791684252529 ) );
#234 = CARTESIAN_POINT( '', ( 22.7689108029266, 0.000000000000000, 82.2791684252529 ) );
#235 = CARTESIAN_POINT( '', ( 22.7689108029266, -45.5378216058532, 82.2791684252529 ) );
#236 = CARTESIAN_POINT( '', ( -22.7689108029266, -45.5378216058532, 82.2791684252529 ) );
#237 = CARTESIAN_POINT( '', ( -22.7689108029266, 0.000000000000000, 82.2791684252529 ) );
#238 = CARTESIAN_POINT( '', ( -21.0000000000000, 0.000000000000000, 85.1392982837565 ) );
#239 = CARTESIAN_POINT( '', ( -21.0000000000000, 41.9999999999999, 85.1392982837565 ) );
#240 = CARTESIAN_POINT( '', ( 21.0000000000000, 41.9999999999999, 85.1392982837565 ) );
#241 = CARTESIAN_POINT( '', ( 21.0000000000000, 0.000000000000000, 85.1392982837565 ) );
#242 = CARTESIAN_POINT( '', ( 21.0000000000000, -41.9999999999999, 85.1392982837565 ) );
#243 = CARTESIAN_POINT( '', ( -21.0000000000000, -41.9999999999999, 85.1392982837565 ) );
#244 = CARTESIAN_POINT( '', ( -21.0000000000000, 0.000000000000000, 85.1392982837565 ) );
#250 = SURFACE_SIDE_STYLE( '', ( #319 ) );
#251 = EDGE_LOOP( '', ( #320 ) );
#252 = EDGE_LOOP( '', ( #321 ) );
#253 = AXIS2_PLACEMENT_3D( '', #322, #323, #324 );
#255 = SURFACE_STYLE_FILL_AREA( #325 );
#256 = ORIENTED_EDGE( '', *, *, #326, .F. );
#257 = ORIENTED_EDGE( '', *, *, #327, .T. );
#258 = CARTESIAN_POINT( '', ( 0.000000000000000, 0.000000000000000, 123.139298283756 ) );
#259 = DIRECTION( '', ( 0.000000000000000, 0.000000000000000, 1.00000000000000 ) );
#260 = DIRECTION( '', ( 1.00000000000000, 0.000000000000000, 0.000000000000000 ) );
#261 = SURFACE_STYLE_FILL_AREA( #328 );
#262 = ORIENTED_EDGE( '', *, *, #329, .F. );
#263 = ORIENTED_EDGE( '', *, *, #330, .T. );
#264 = SURFACE_STYLE_FILL_AREA( #331 );
#265 = ORIENTED_EDGE( '', *, *, #332, .F. );
#266 = CARTESIAN_POINT( '', ( 0.000000000000000, 0.000000000000000, 93.1392982837565 ) );
#267 = DIRECTION( '', ( 0.000000000000000, 0.000000000000000, -1.00000000000000 ) );
#268 = DIRECTION( '', ( -1.00000000000000, 0.000000000000000, 0.000000000000000 ) );
#269 = SURFACE_STYLE_FILL_AREA( #333 );
#270 = ORIENTED_EDGE( '', *, *, #334, .T. );
#271 = ORIENTED_EDGE( '', *, *, #326, .T. );
#272 = CARTESIAN_POINT( '', ( 0.000000000000000, 0.000000000000000, 89.8392982837565 ) );
#273 = DIRECTION( '', ( -0.000000000000000, -0.000000000000000, -1.00000000000000 ) );
#274 = DIRECTION( '', ( 1.00000000000000, 0.000000000000000, 0.000000000000000 ) );
#275 = SURFACE_STYLE_FILL_AREA( #335 );
#276 = ORIENTED_EDGE( '', *, *, #336, .T. );
#277 = ORIENTED_EDGE( '', *, *, #337, .F. );
#278 = CARTESIAN_POINT( '', ( 0.000000000000000, 0.000000000000000, 89.8392982837565 ) );
#279 = DIRECTION( '', ( 0.000000000000000, 0.000000000000000, -1.00000000000000 ) );
#280 = DIRECTION( '', ( -1.00000000000000, 0.000000000000000, 0.000000000000000 ) );
#281 = SURFACE_STYLE_FILL_AREA( #338 );
#282 = ORIENTED_EDGE( '', *, *, #334, .F. );
#283 = ORIENTED_EDGE( '', *, *, #336, .F. );
#284 = CARTESIAN_POINT( '', ( 0.000000000000000, 0.000000000000000, 89.8392982837565 ) );
#285 = DIRECTION( '', ( -0.000000000000000, -0.000000000000000, 1.00000000000000 ) );
#286 = DIRECTION( '', ( 1.00000000000000, 0.000000000000000, 0.000000000000000 ) );
#287 = SURFACE_STYLE_FILL_AREA( #339 );
#288 = ORIENTED_EDGE( '', *, *, #340, .T. );
#289 = ORIENTED_EDGE( '', *, *, #341, .T. );
#290 = CARTESIAN_POINT( '', ( -25.5000000000000, 0.000000000000000, 22.1392982837565 ) );
#291 = DIRECTION( '', ( 0.000000000000000, 0.000000000000000, 1.00000000000000 ) );
#292 = DIRECTION( '', ( 1.00000000000000, 0.000000000000000, 0.000000000000000 ) );
#293 = SURFACE_STYLE_FILL_AREA( #342 );
#294 = ORIENTED_EDGE( '', *, *, #343, .T. );
#295 = CARTESIAN_POINT( '', ( 0.000000000000000, 0.000000000000000, 70.1389563555545 ) );
#296 = DIRECTION( '', ( 0.000000000000000, 0.000000000000000, -1.00000000000000 ) );
#297 = DIRECTION( '', ( -1.00000000000000, 0.000000000000000, 0.000000000000000 ) );
#298 = SURFACE_STYLE_FILL_AREA( #344 );
#299 = ORIENTED_EDGE( '', *, *, #337, .T. );
#300 = ORIENTED_EDGE( '', *, *, #345, .T. );
#301 = CARTESIAN_POINT( '', ( 0.000000000000000, 0.000000000000000, 123.139298283756 ) );
#302 = DIRECTION( '', ( -0.000000000000000, -0.000000000000000, 1.00000000000000 ) );
#303 = DIRECTION( '', ( -1.00000000000000, 0.000000000000000, 0.000000000000000 ) );
#304 = SURFACE_STYLE_FILL_AREA( #346 );
#305 = ORIENTED_EDGE( '', *, *, #343, .F. );
#306 = ORIENTED_EDGE( '', *, *, #340, .F. );
#307 = CARTESIAN_POINT( '', ( 0.000000000000000, 0.000000000000000, -1.38403783118263 ) );
#308 = DIRECTION( '', ( -0.000000000000000, -0.000000000000000, 1.00000000000000 ) );
#309 = DIRECTION( '', ( -1.00000000000000, 0.000000000000000, 0.000000000000000 ) );
#310 = SURFACE_STYLE_FILL_AREA( #347 );
#311 = ORIENTED_EDGE( '', *, *, #332, .T. );
#312 = ORIENTED_EDGE( '', *, *, #327, .F. );
#313 = CARTESIAN_POINT( '', ( 0.000000000000000, 0.000000000000000, 93.1392982837565 ) );
#314 = DIRECTION( '', ( -0.000000000000000, -0.000000000000000, -1.00000000000000 ) );
#315 = DIRECTION( '', ( 1.00000000000000, 0.000000000000000, 0.000000000000000 ) );
#316 = SURFACE_STYLE_FILL_AREA( #348 );
#317 = ORIENTED_EDGE( '', *, *, #330, .F. );
#318 = ORIENTED_EDGE( '', *, *, #345, .F. );
#319 = SURFACE_STYLE_FILL_AREA( #349 );
#320 = ORIENTED_EDGE( '', *, *, #341, .F. );
#321 = ORIENTED_EDGE( '', *, *, #329, .T. );
#322 = CARTESIAN_POINT( '', ( 0.000000000000000, 0.000000000000000, -1.38403783118263 ) );
#323 = DIRECTION( '', ( -0.000000000000000, -0.000000000000000, 1.00000000000000 ) );
#324 = DIRECTION( '', ( -1.00000000000000, 0.000000000000000, 0.000000000000000 ) );
#325 = FILL_AREA_STYLE( '', ( #350 ) );
#326 = EDGE_CURVE( '', #351, #351, #352, .T. );
#327 = EDGE_CURVE( '', #353, #353, #354, .T. );
#328 = FILL_AREA_STYLE( '', ( #355 ) );
#329 = EDGE_CURVE( '', #356, #356, #357, .T. );
#330 = EDGE_CURVE( '', #358, #358, #359, .T. );
#331 = FILL_AREA_STYLE( '', ( #360 ) );
#332 = EDGE_CURVE( '', #361, #361, #362, .T. );
#333 = FILL_AREA_STYLE( '', ( #363 ) );
#334 = EDGE_CURVE( '', #364, #364, #365, .F. );
#335 = FILL_AREA_STYLE( '', ( #366 ) );
#336 = EDGE_CURVE( '', #367, #367, #368, .T. );
#337 = EDGE_CURVE( '', #369, #369, #370, .T. );
#338 = FILL_AREA_STYLE( '', ( #371 ) );
#339 = FILL_AREA_STYLE( '', ( #372 ) );
#340 = EDGE_CURVE( '', #373, #373, #374, .T. );
#341 = EDGE_CURVE( '', #375, #375, #376, .F. );
#342 = FILL_AREA_STYLE( '', ( #377 ) );
#343 = EDGE_CURVE( '', #378, #378, #379, .T. );
#344 = FILL_AREA_STYLE( '', ( #380 ) );
#345 = EDGE_CURVE( '', #381, #381, #382, .F. );
#346 = FILL_AREA_STYLE( '', ( #383 ) );
#347 = FILL_AREA_STYLE( '', ( #384 ) );
#348 = FILL_AREA_STYLE( '', ( #385 ) );
#349 = FILL_AREA_STYLE( '', ( #386 ) );
#350 = FILL_AREA_STYLE_COLOUR( '', #387 );
#351 = VERTEX_POINT( '', #388 );
#352 = CIRCLE( '', #389, 23.5000000000000 );
#353 = VERTEX_POINT( '', #390 );
#354 = CIRCLE( '', #391, 21.0000000000000 );
#355 = FILL_AREA_STYLE_COLOUR( '', #392 );
#356 = VERTEX_POINT( '', #393 );
#357 = CIRCLE( '', #394, 27.0000000000000 );
#358 = VERTEX_POINT( '', #395 );
#359 = CIRCLE( '', #396, 25.7063364021513 );
#360 = FILL_AREA_STYLE_COLOUR( '', #397 );
#361 = VERTEX_POINT( '', #398 );
#362 = CIRCLE( '', #399, 21.0000000000000 );
#363 = FILL_AREA_STYLE_COLOUR( '', #400 );
#364 = VERTEX_POINT( '', #401 );
#365 = CIRCLE( '', #402, 23.5000000000000 );
#366 = FILL_AREA_STYLE_COLOUR( '', #403 );
#367 = VERTEX_POINT( '', #404 );
#368 = CIRCLE( '', #405, 22.0000000000000 );
#369 = VERTEX_POINT( '', #406 );
#370 = CIRCLE( '', #407, 21.0000000000000 );
#371 = FILL_AREA_STYLE_COLOUR( '', #408 );
#372 = FILL_AREA_STYLE_COLOUR( '', #409 );
#373 = VERTEX_POINT( '', #410 );
#374 = CIRCLE( '', #411, 25.5000000000000 );
#375 = VERTEX_POINT( '', #412 );
#376 = CIRCLE( '', #413, 27.0000000000000 );
#377 = FILL_AREA_STYLE_COLOUR( '', #414 );
#378 = VERTEX_POINT( '', #415 );
#379 = CIRCLE( '', #416, 25.5000000000000 );
#380 = FILL_AREA_STYLE_COLOUR( '', #417 );
#381 = VERTEX_POINT( '', #418 );
#382 = CIRCLE( '', #419, 21.0000000000000 );
#383 = FILL_AREA_STYLE_COLOUR( '', #420 );
#384 = FILL_AREA_STYLE_COLOUR( '', #421 );
#385 = FILL_AREA_STYLE_COLOUR( '', #422 );
#386 = FILL_AREA_STYLE_COLOUR( '', #423 );
#387 = COLOUR_RGB( '', 0.000000000000000, 0.517647087574005, 0.898039221763611 );
#388 = CARTESIAN_POINT( '', ( 23.5000000000000, 0.000000000000000, 123.139298283756 ) );
#389 = AXIS2_PLACEMENT_3D( '', #424, #425, #426 );
#390 = CARTESIAN_POINT( '', ( 21.0000000000000, 0.000000000000000, 123.139298283756 ) );
#391 = AXIS2_PLACEMENT_3D( '', #427, #428, #429 );
#392 = COLOUR_RGB( '', 0.000000000000000, 0.517647087574005, 0.898039221763611 );
#393 = CARTESIAN_POINT( '', ( -27.0000000000000, 0.000000000000000, 70.1389563555545 ) );
#394 = AXIS2_PLACEMENT_3D( '', #430, #431, #432 );
#395 = CARTESIAN_POINT( '', ( -25.7063364021513, 0.000000000000000, 76.2329158591172 ) );
#396 = AXIS2_PLACEMENT_3D( '', #433, #434, #435 );
#397 = COLOUR_RGB( '', 0.000000000000000, 0.517647087574005, 0.898039221763611 );
#398 = CARTESIAN_POINT( '', ( 21.0000000000000, 0.000000000000000, 93.1392982837565 ) );
#399 = AXIS2_PLACEMENT_3D( '', #436, #437, #438 );
#400 = COLOUR_RGB( '', 0.000000000000000, 0.517647087574005, 0.898039221763611 );
#401 = CARTESIAN_POINT( '', ( -23.5000000000000, 0.000000000000000, 91.3392982837565 ) );
#402 = AXIS2_PLACEMENT_3D( '', #439, #440, #441 );
#403 = COLOUR_RGB( '', 0.000000000000000, 0.517647087574005, 0.898039221763611 );
#404 = CARTESIAN_POINT( '', ( -22.0000000000000, 0.000000000000000, 89.8392982837565 ) );
#405 = AXIS2_PLACEMENT_3D( '', #442, #443, #444 );
#406 = CARTESIAN_POINT( '', ( -21.0000000000000, 0.000000000000000, 89.8392982837565 ) );
#407 = AXIS2_PLACEMENT_3D( '', #445, #446, #447 );
#408 = COLOUR_RGB( '', 0.000000000000000, 0.517647087574005, 0.898039221763611 );
#409 = COLOUR_RGB( '', 0.000000000000000, 0.517647087574005, 0.898039221763611 );
#410 = CARTESIAN_POINT( '', ( 25.5000000000000, 0.000000000000000, 22.1392982837565 ) );
#411 = AXIS2_PLACEMENT_3D( '', #448, #449, #450 );
#412 = CARTESIAN_POINT( '', ( 27.0000000000000, 0.000000000000000, 22.1392982837565 ) );
#413 = AXIS2_PLACEMENT_3D( '', #451, #452, #453 );
#414 = COLOUR_RGB( '', 0.000000000000000, 0.517647087574005, 0.898039221763611 );
#415 = CARTESIAN_POINT( '', ( -25.5000000000000, 0.000000000000000, 70.1389563555545 ) );
#416 = AXIS2_PLACEMENT_3D( '', #454, #455, #456 );
#417 = COLOUR_RGB( '', 0.000000000000000, 0.517647087574005, 0.898039221763611 );
#418 = CARTESIAN_POINT( '', ( -21.0000000000000, 0.000000000000000, 85.1392982837565 ) );
#419 = AXIS2_PLACEMENT_3D( '', #457, #458, #459 );
#420 = COLOUR_RGB( '', 0.000000000000000, 0.517647087574005, 0.898039221763611 );
#421 = COLOUR_RGB( '', 0.000000000000000, 0.517647087574005, 0.898039221763611 );
#422 = COLOUR_RGB( '', 0.000000000000000, 0.517647087574005, 0.898039221763611 );
#423 = COLOUR_RGB( '', 0.000000000000000, 0.517647087574005, 0.898039221763611 );
#424 = CARTESIAN_POINT( '', ( 0.000000000000000, 0.000000000000000, 123.139298283756 ) );
#425 = DIRECTION( '', ( 0.000000000000000, 0.000000000000000, -1.00000000000000 ) );
#426 = DIRECTION( '', ( 1.00000000000000, 0.000000000000000, 0.000000000000000 ) );
#427 = CARTESIAN_POINT( '', ( 0.000000000000000, 0.000000000000000, 123.139298283756 ) );
#428 = DIRECTION( '', ( 0.000000000000000, 0.000000000000000, -1.00000000000000 ) );
#429 = DIRECTION( '', ( 1.00000000000000, 0.000000000000000, 0.000000000000000 ) );
#430 = CARTESIAN_POINT( '', ( 0.000000000000000, 0.000000000000000, 70.1389563555545 ) );
#431 = DIRECTION( '', ( 0.000000000000000, 0.000000000000000, -1.00000000000000 ) );
#432 = DIRECTION( '', ( -1.00000000000000, 0.000000000000000, 0.000000000000000 ) );
#433 = CARTESIAN_POINT( '', ( 0.000000000000000, 0.000000000000000, 76.2329158591172 ) );
#434 = DIRECTION( '', ( 0.000000000000000, 0.000000000000000, -1.00000000000000 ) );
#435 = DIRECTION( '', ( -1.00000000000000, 0.000000000000000, 0.000000000000000 ) );
#436 = CARTESIAN_POINT( '', ( 0.000000000000000, 0.000000000000000, 93.1392982837565 ) );
#437 = DIRECTION( '', ( 0.000000000000000, 0.000000000000000, -1.00000000000000 ) );
#438 = DIRECTION( '', ( 1.00000000000000, 0.000000000000000, 0.000000000000000 ) );
#439 = CARTESIAN_POINT( '', ( 0.000000000000000, 0.000000000000000, 91.3392982837565 ) );
#440 = DIRECTION( '', ( 0.000000000000000, 0.000000000000000, -1.00000000000000 ) );
#441 = DIRECTION( '', ( -1.00000000000000, 0.000000000000000, 0.000000000000000 ) );
#442 = CARTESIAN_POINT( '', ( 0.000000000000000, 0.000000000000000, 89.8392982837565 ) );
#443 = DIRECTION( '', ( 0.000000000000000, 0.000000000000000, -1.00000000000000 ) );
#444 = DIRECTION( '', ( -1.00000000000000, 0.000000000000000, 0.000000000000000 ) );
#445 = CARTESIAN_POINT( '', ( 0.000000000000000, 0.000000000000000, 89.8392982837565 ) );
#446 = DIRECTION( '', ( 0.000000000000000, 0.000000000000000, -1.00000000000000 ) );
#447 = DIRECTION( '', ( -1.00000000000000, 0.000000000000000, 0.000000000000000 ) );
#448 = CARTESIAN_POINT( '', ( 0.000000000000000, 0.000000000000000, 22.1392982837565 ) );
#449 = DIRECTION( '', ( 0.000000000000000, 0.000000000000000, 1.00000000000000 ) );
#450 = DIRECTION( '', ( 1.00000000000000, 0.000000000000000, 0.000000000000000 ) );
#451 = CARTESIAN_POINT( '', ( 0.000000000000000, 0.000000000000000, 22.1392982837565 ) );
#452 = DIRECTION( '', ( 0.000000000000000, 0.000000000000000, 1.00000000000000 ) );
#453 = DIRECTION( '', ( 1.00000000000000, 0.000000000000000, 0.000000000000000 ) );
#454 = CARTESIAN_POINT( '', ( 0.000000000000000, 0.000000000000000, 70.1389563555545 ) );
#455 = DIRECTION( '', ( 0.000000000000000, 0.000000000000000, -1.00000000000000 ) );
#456 = DIRECTION( '', ( -1.00000000000000, 0.000000000000000, 0.000000000000000 ) );
#457 = CARTESIAN_POINT( '', ( 0.000000000000000, 0.000000000000000, 85.1392982837565 ) );
#458 = DIRECTION( '', ( 0.000000000000000, 0.000000000000000, -1.00000000000000 ) );
#459 = DIRECTION( '', ( -1.00000000000000, 0.000000000000000, 0.000000000000000 ) );
ENDSEC;
END-ISO-10303-21;
