ISO-10303-21;
HEADER;
FILE_DESCRIPTION( ( 'Unknown' ), '1' );
FILE_NAME( '//Server/ofimatica/alfredo/Alfredo2/ISOTUBI/PZAS3D/FICHATECNICA/NUMEPRESS/generico 3D/F14DN54-76,1.stp', 'Unknown', ( 'Unknown' ), ( 'Unknown' ), 'PSStep 14.0', 'Unknown', '  ' );
FILE_SCHEMA( ( 'AUTOMOTIVE_DESIGN { 1 0 10303 214 1 1 1 1 }' ) );
ENDSEC;
DATA;
#1 = MECHANICAL_DESIGN_GEOMETRIC_PRESENTATION_REPRESENTATION( ' ', ( #10, #11, #12, #13, #14, #15, #16, #17, #18, #19, #20, #21, #22, #23 ), #6 );
#2 = PRODUCT_DEFINITION_CONTEXT( '', #24, 'design' );
#3 = APPLICATION_PROTOCOL_DEFINITION( 'international standard', 'automotive_design', 2001, #24 );
#4 = PRODUCT_CATEGORY_RELATIONSHIP( 'NONE', 'NONE', #25, #26 );
#5 = SHAPE_DEFINITION_REPRESENTATION( #27, #28 );
#6 =  ( GEOMETRIC_REPRESENTATION_CONTEXT( 3 )GLOBAL_UNCERTAINTY_ASSIGNED_CONTEXT( ( #31 ) )GLOBAL_UNIT_ASSIGNED_CONTEXT( ( #33, #34, #35 ) )REPRESENTATION_CONTEXT( 'NONE', 'WORKSPACE' ) );
#10 = STYLED_ITEM( '', ( #37 ), #38 );
#11 = STYLED_ITEM( '', ( #39 ), #40 );
#12 = STYLED_ITEM( '', ( #41 ), #42 );
#13 = STYLED_ITEM( '', ( #43 ), #44 );
#14 = STYLED_ITEM( '', ( #45 ), #46 );
#15 = STYLED_ITEM( '', ( #47 ), #48 );
#16 = STYLED_ITEM( '', ( #49 ), #50 );
#17 = STYLED_ITEM( '', ( #51 ), #52 );
#18 = STYLED_ITEM( '', ( #53 ), #54 );
#19 = STYLED_ITEM( '', ( #55 ), #56 );
#20 = STYLED_ITEM( '', ( #57 ), #58 );
#21 = STYLED_ITEM( '', ( #59 ), #60 );
#22 = STYLED_ITEM( '', ( #61 ), #62 );
#23 = STYLED_ITEM( '', ( #63 ), #64 );
#24 = APPLICATION_CONTEXT( 'core data for automotive mechanical design processes' );
#25 = PRODUCT_CATEGORY( 'part', 'NONE' );
#26 = PRODUCT_RELATED_PRODUCT_CATEGORY( 'detail', ' ', ( #65 ) );
#27 = PRODUCT_DEFINITION_SHAPE( 'NONE', 'NONE', #66 );
#28 = ADVANCED_BREP_SHAPE_REPRESENTATION( '1', ( #67, #68 ), #6 );
#31 = UNCERTAINTY_MEASURE_WITH_UNIT( LENGTH_MEASURE( 0.00100000000000000 ), #33, '', '' );
#33 =  ( CONVERSION_BASED_UNIT( 'MILLIMETRE', #71 )LENGTH_UNIT(  )NAMED_UNIT( #74 ) );
#34 =  ( NAMED_UNIT( #76 )PLANE_ANGLE_UNIT(  )SI_UNIT( $, .RADIAN. ) );
#35 =  ( NAMED_UNIT( #76 )SI_UNIT( $, .STERADIAN. )SOLID_ANGLE_UNIT(  ) );
#37 = PRESENTATION_STYLE_ASSIGNMENT( ( #82 ) );
#38 = ADVANCED_FACE( '', ( #83, #84 ), #85, .T. );
#39 = PRESENTATION_STYLE_ASSIGNMENT( ( #86 ) );
#40 = ADVANCED_FACE( '', ( #87, #88 ), #89, .T. );
#41 = PRESENTATION_STYLE_ASSIGNMENT( ( #90 ) );
#42 = ADVANCED_FACE( '', ( #91 ), #92, .F. );
#43 = PRESENTATION_STYLE_ASSIGNMENT( ( #93 ) );
#44 = ADVANCED_FACE( '', ( #94, #95 ), #96, .T. );
#45 = PRESENTATION_STYLE_ASSIGNMENT( ( #97 ) );
#46 = ADVANCED_FACE( '', ( #98, #99 ), #100, .F. );
#47 = PRESENTATION_STYLE_ASSIGNMENT( ( #101 ) );
#48 = ADVANCED_FACE( '', ( #102 ), #103, .F. );
#49 = PRESENTATION_STYLE_ASSIGNMENT( ( #104 ) );
#50 = ADVANCED_FACE( '', ( #105, #106 ), #107, .F. );
#51 = PRESENTATION_STYLE_ASSIGNMENT( ( #108 ) );
#52 = ADVANCED_FACE( '', ( #109, #110 ), #111, .T. );
#53 = PRESENTATION_STYLE_ASSIGNMENT( ( #112 ) );
#54 = ADVANCED_FACE( '', ( #113, #114 ), #115, .F. );
#55 = PRESENTATION_STYLE_ASSIGNMENT( ( #116 ) );
#56 = ADVANCED_FACE( '', ( #117, #118 ), #119, .T. );
#57 = PRESENTATION_STYLE_ASSIGNMENT( ( #120 ) );
#58 = ADVANCED_FACE( '', ( #121, #122 ), #123, .T. );
#59 = PRESENTATION_STYLE_ASSIGNMENT( ( #124 ) );
#60 = ADVANCED_FACE( '', ( #125, #126 ), #127, .T. );
#61 = PRESENTATION_STYLE_ASSIGNMENT( ( #128 ) );
#62 = ADVANCED_FACE( '', ( #129, #130 ), #131, .F. );
#63 = PRESENTATION_STYLE_ASSIGNMENT( ( #132 ) );
#64 = ADVANCED_FACE( '', ( #133, #134 ), #135, .T. );
#65 = PRODUCT( '1', '1', 'PART-1-DESC', ( #136 ) );
#66 = PRODUCT_DEFINITION( 'NONE', 'NONE', #137, #2 );
#67 = MANIFOLD_SOLID_BREP( '1', #138 );
#68 = AXIS2_PLACEMENT_3D( '', #139, #140, #141 );
#71 = LENGTH_MEASURE_WITH_UNIT( LENGTH_MEASURE( 1.00000000000000 ), #142 );
#74 = DIMENSIONAL_EXPONENTS( 1.00000000000000, 0.000000000000000, 0.000000000000000, 0.000000000000000, 0.000000000000000, 0.000000000000000, 0.000000000000000 );
#76 = DIMENSIONAL_EXPONENTS( 0.000000000000000, 0.000000000000000, 0.000000000000000, 0.000000000000000, 0.000000000000000, 0.000000000000000, 0.000000000000000 );
#82 = SURFACE_STYLE_USAGE( .BOTH., #143 );
#83 = FACE_OUTER_BOUND( '', #144, .T. );
#84 = FACE_OUTER_BOUND( '', #145, .T. );
#85 = CYLINDRICAL_SURFACE( '', #146, 27.0000000000000 );
#86 = SURFACE_STYLE_USAGE( .BOTH., #147 );
#87 = FACE_OUTER_BOUND( '', #148, .T. );
#88 = FACE_BOUND( '', #149, .T. );
#89 = CONICAL_SURFACE( '', #150, 28.0000000000000, 0.785398163397448 );
#90 = SURFACE_STYLE_USAGE( .BOTH., #151 );
#91 = FACE_OUTER_BOUND( '', #152, .T. );
#92 = SPHERICAL_SURFACE( '', #153, 74.0000000000000 );
#93 = SURFACE_STYLE_USAGE( .BOTH., #154 );
#94 = FACE_OUTER_BOUND( '', #155, .T. );
#95 = FACE_OUTER_BOUND( '', #156, .T. );
#96 = CYLINDRICAL_SURFACE( '', #157, 29.5000000000000 );
#97 = SURFACE_STYLE_USAGE( .BOTH., #158 );
#98 = FACE_BOUND( '', #159, .T. );
#99 = FACE_OUTER_BOUND( '', #160, .T. );
#100 = PLANE( '', #161 );
#101 = SURFACE_STYLE_USAGE( .BOTH., #162 );
#102 = FACE_OUTER_BOUND( '', #163, .T. );
#103 = PLANE( '', #164 );
#104 = SURFACE_STYLE_USAGE( .BOTH., #165 );
#105 = FACE_OUTER_BOUND( '', #166, .T. );
#106 = FACE_OUTER_BOUND( '', #167, .T. );
#107 = CYLINDRICAL_SURFACE( '', #168, 36.0500000000000 );
#108 = SURFACE_STYLE_USAGE( .BOTH., #169 );
#109 = FACE_OUTER_BOUND( '', #170, .T. );
#110 = FACE_BOUND( '', #171, .T. );
#111 = PLANE( '', #172 );
#112 = SURFACE_STYLE_USAGE( .BOTH., #173 );
#113 = FACE_OUTER_BOUND( '', #174, .T. );
#114 = FACE_OUTER_BOUND( '', #175, .T. );
#115 = CYLINDRICAL_SURFACE( '', #176, 27.0000000000000 );
#116 = SURFACE_STYLE_USAGE( .BOTH., #177 );
#117 = FACE_OUTER_BOUND( '', #178, .T. );
#118 = FACE_OUTER_BOUND( '', #179, .T. );
#119 = SPHERICAL_SURFACE( '', #180, 76.0000000000000 );
#120 = SURFACE_STYLE_USAGE( .BOTH., #181 );
#121 = FACE_OUTER_BOUND( '', #182, .T. );
#122 = FACE_OUTER_BOUND( '', #183, .T. );
#123 = CYLINDRICAL_SURFACE( '', #184, 38.0500000000000 );
#124 = SURFACE_STYLE_USAGE( .BOTH., #185 );
#125 = FACE_OUTER_BOUND( '', #186, .T. );
#126 = FACE_OUTER_BOUND( '', #187, .T. );
#127 = TOROIDAL_SURFACE( '', #188, 30.4500000000000, 7.60000000000000 );
#128 = SURFACE_STYLE_USAGE( .BOTH., #189 );
#129 = FACE_OUTER_BOUND( '', #190, .T. );
#130 = FACE_OUTER_BOUND( '', #191, .T. );
#131 = TOROIDAL_SURFACE( '', #192, 30.4500000000000, 5.60000000000000 );
#132 = SURFACE_STYLE_USAGE( .BOTH., #193 );
#133 = FACE_OUTER_BOUND( '', #194, .T. );
#134 = FACE_BOUND( '', #195, .T. );
#135 = PLANE( '', #196 );
#136 = PRODUCT_CONTEXT( '', #24, 'mechanical' );
#137 = PRODUCT_DEFINITION_FORMATION_WITH_SPECIFIED_SOURCE( ' ', 'NONE', #65, .NOT_KNOWN. );
#138 = CLOSED_SHELL( '', ( #52, #40, #54, #48, #46, #50, #44, #38, #64, #58, #60, #56, #42, #62 ) );
#139 = CARTESIAN_POINT( '', ( 0.000000000000000, 0.000000000000000, 0.000000000000000 ) );
#140 = DIRECTION( '', ( 0.000000000000000, 0.000000000000000, 1.00000000000000 ) );
#141 = DIRECTION( '', ( 1.00000000000000, 0.000000000000000, 0.000000000000000 ) );
#142 =  ( LENGTH_UNIT(  )NAMED_UNIT( #74 )SI_UNIT( .MILLI., .METRE. ) );
#143 = SURFACE_SIDE_STYLE( '', ( #198 ) );
#144 = EDGE_LOOP( '', ( #199 ) );
#145 = EDGE_LOOP( '', ( #200 ) );
#146 = AXIS2_PLACEMENT_3D( '', #201, #202, #203 );
#147 = SURFACE_SIDE_STYLE( '', ( #204 ) );
#148 = EDGE_LOOP( '', ( #205 ) );
#149 = EDGE_LOOP( '', ( #206 ) );
#150 = AXIS2_PLACEMENT_3D( '', #207, #208, #209 );
#151 = SURFACE_SIDE_STYLE( '', ( #210 ) );
#152 = EDGE_LOOP( '', ( #211 ) );
#153 = AXIS2_PLACEMENT_3D( '', #212, #213, #214 );
#154 = SURFACE_SIDE_STYLE( '', ( #215 ) );
#155 = EDGE_LOOP( '', ( #216 ) );
#156 = EDGE_LOOP( '', ( #217 ) );
#157 = AXIS2_PLACEMENT_3D( '', #218, #219, #220 );
#158 = SURFACE_SIDE_STYLE( '', ( #221 ) );
#159 = EDGE_LOOP( '', ( #222 ) );
#160 = EDGE_LOOP( '', ( #223 ) );
#161 = AXIS2_PLACEMENT_3D( '', #224, #225, #226 );
#162 = SURFACE_SIDE_STYLE( '', ( #227 ) );
#163 = EDGE_LOOP( '', ( #228 ) );
#164 = AXIS2_PLACEMENT_3D( '', #229, #230, #231 );
#165 = SURFACE_SIDE_STYLE( '', ( #232 ) );
#166 = EDGE_LOOP( '', ( #233 ) );
#167 = EDGE_LOOP( '', ( #234 ) );
#168 = AXIS2_PLACEMENT_3D( '', #235, #236, #237 );
#169 = SURFACE_SIDE_STYLE( '', ( #238 ) );
#170 = EDGE_LOOP( '', ( #239 ) );
#171 = EDGE_LOOP( '', ( #240 ) );
#172 = AXIS2_PLACEMENT_3D( '', #241, #242, #243 );
#173 = SURFACE_SIDE_STYLE( '', ( #244 ) );
#174 = EDGE_LOOP( '', ( #245 ) );
#175 = EDGE_LOOP( '', ( #246 ) );
#176 = AXIS2_PLACEMENT_3D( '', #247, #248, #249 );
#177 = SURFACE_SIDE_STYLE( '', ( #250 ) );
#178 = EDGE_LOOP( '', ( #251 ) );
#179 = EDGE_LOOP( '', ( #252 ) );
#180 = AXIS2_PLACEMENT_3D( '', #253, #254, #255 );
#181 = SURFACE_SIDE_STYLE( '', ( #256 ) );
#182 = EDGE_LOOP( '', ( #257 ) );
#183 = EDGE_LOOP( '', ( #258 ) );
#184 = AXIS2_PLACEMENT_3D( '', #259, #260, #261 );
#185 = SURFACE_SIDE_STYLE( '', ( #262 ) );
#186 = EDGE_LOOP( '', ( #263 ) );
#187 = EDGE_LOOP( '', ( #264 ) );
#188 = AXIS2_PLACEMENT_3D( '', #265, #266, #267 );
#189 = SURFACE_SIDE_STYLE( '', ( #268 ) );
#190 = EDGE_LOOP( '', ( #269 ) );
#191 = EDGE_LOOP( '', ( #270 ) );
#192 = AXIS2_PLACEMENT_3D( '', #271, #272, #273 );
#193 = SURFACE_SIDE_STYLE( '', ( #274 ) );
#194 = EDGE_LOOP( '', ( #275 ) );
#195 = EDGE_LOOP( '', ( #276 ) );
#196 = AXIS2_PLACEMENT_3D( '', #277, #278, #279 );
#198 = SURFACE_STYLE_FILL_AREA( #280 );
#199 = ORIENTED_EDGE( '', *, *, #281, .T. );
#200 = ORIENTED_EDGE( '', *, *, #282, .T. );
#201 = CARTESIAN_POINT( '', ( 0.000000000000000, 0.000000000000000, 75.7775681043630 ) );
#202 = DIRECTION( '', ( -0.000000000000000, -0.000000000000000, 1.00000000000000 ) );
#203 = DIRECTION( '', ( -1.00000000000000, 0.000000000000000, 0.000000000000000 ) );
#204 = SURFACE_STYLE_FILL_AREA( #283 );
#205 = ORIENTED_EDGE( '', *, *, #284, .F. );
#206 = ORIENTED_EDGE( '', *, *, #285, .F. );
#207 = CARTESIAN_POINT( '', ( 0.000000000000000, 0.000000000000000, 38.7775681043630 ) );
#208 = DIRECTION( '', ( -0.000000000000000, -0.000000000000000, 1.00000000000000 ) );
#209 = DIRECTION( '', ( 1.00000000000000, 0.000000000000000, 0.000000000000000 ) );
#210 = SURFACE_STYLE_FILL_AREA( #286 );
#211 = ORIENTED_EDGE( '', *, *, #287, .T. );
#212 = CARTESIAN_POINT( '', ( 0.000000000000000, 0.000000000000000, -35.2624318956370 ) );
#213 = DIRECTION( '', ( 0.000000000000000, 0.000000000000000, -1.00000000000000 ) );
#214 = DIRECTION( '', ( -1.00000000000000, 0.000000000000000, 0.000000000000000 ) );
#215 = SURFACE_STYLE_FILL_AREA( #288 );
#216 = ORIENTED_EDGE( '', *, *, #284, .T. );
#217 = ORIENTED_EDGE( '', *, *, #289, .T. );
#218 = CARTESIAN_POINT( '', ( 0.000000000000000, 0.000000000000000, 38.7775681043630 ) );
#219 = DIRECTION( '', ( -0.000000000000000, -0.000000000000000, -1.00000000000000 ) );
#220 = DIRECTION( '', ( 1.00000000000000, 0.000000000000000, 0.000000000000000 ) );
#221 = SURFACE_STYLE_FILL_AREA( #290 );
#222 = ORIENTED_EDGE( '', *, *, #291, .F. );
#223 = ORIENTED_EDGE( '', *, *, #292, .T. );
#224 = CARTESIAN_POINT( '', ( -38.0500000000000, 0.000000000000000, -56.2224318956370 ) );
#225 = DIRECTION( '', ( 0.000000000000000, 0.000000000000000, 1.00000000000000 ) );
#226 = DIRECTION( '', ( 1.00000000000000, 0.000000000000000, 0.000000000000000 ) );
#227 = SURFACE_STYLE_FILL_AREA( #293 );
#228 = ORIENTED_EDGE( '', *, *, #294, .F. );
#229 = CARTESIAN_POINT( '', ( 0.000000000000000, 0.000000000000000, 42.0775681043630 ) );
#230 = DIRECTION( '', ( 0.000000000000000, 0.000000000000000, -1.00000000000000 ) );
#231 = DIRECTION( '', ( -1.00000000000000, 0.000000000000000, 0.000000000000000 ) );
#232 = SURFACE_STYLE_FILL_AREA( #295 );
#233 = ORIENTED_EDGE( '', *, *, #296, .F. );
#234 = ORIENTED_EDGE( '', *, *, #291, .T. );
#235 = CARTESIAN_POINT( '', ( 0.000000000000000, 0.000000000000000, -1.15582100177448 ) );
#236 = DIRECTION( '', ( -0.000000000000000, -0.000000000000000, 1.00000000000000 ) );
#237 = DIRECTION( '', ( -1.00000000000000, 0.000000000000000, 0.000000000000000 ) );
#238 = SURFACE_STYLE_FILL_AREA( #297 );
#239 = ORIENTED_EDGE( '', *, *, #289, .F. );
#240 = ORIENTED_EDGE( '', *, *, #298, .T. );
#241 = CARTESIAN_POINT( '', ( 0.000000000000000, 0.000000000000000, 75.7775681043630 ) );
#242 = DIRECTION( '', ( 0.000000000000000, 0.000000000000000, 1.00000000000000 ) );
#243 = DIRECTION( '', ( 1.00000000000000, 0.000000000000000, 0.000000000000000 ) );
#244 = SURFACE_STYLE_FILL_AREA( #299 );
#245 = ORIENTED_EDGE( '', *, *, #294, .T. );
#246 = ORIENTED_EDGE( '', *, *, #298, .F. );
#247 = CARTESIAN_POINT( '', ( 0.000000000000000, 0.000000000000000, 42.0775681043630 ) );
#248 = DIRECTION( '', ( -0.000000000000000, -0.000000000000000, -1.00000000000000 ) );
#249 = DIRECTION( '', ( 1.00000000000000, 0.000000000000000, 0.000000000000000 ) );
#250 = SURFACE_STYLE_FILL_AREA( #300 );
#251 = ORIENTED_EDGE( '', *, *, #282, .F. );
#252 = ORIENTED_EDGE( '', *, *, #301, .F. );
#253 = CARTESIAN_POINT( '', ( 0.000000000000000, 0.000000000000000, -35.2624318956370 ) );
#254 = DIRECTION( '', ( 0.000000000000000, 0.000000000000000, -1.00000000000000 ) );
#255 = DIRECTION( '', ( -1.00000000000000, 0.000000000000000, 0.000000000000000 ) );
#256 = SURFACE_STYLE_FILL_AREA( #302 );
#257 = ORIENTED_EDGE( '', *, *, #292, .F. );
#258 = ORIENTED_EDGE( '', *, *, #303, .T. );
#259 = CARTESIAN_POINT( '', ( 0.000000000000000, 0.000000000000000, -1.15582100177448 ) );
#260 = DIRECTION( '', ( -0.000000000000000, -0.000000000000000, 1.00000000000000 ) );
#261 = DIRECTION( '', ( -1.00000000000000, 0.000000000000000, 0.000000000000000 ) );
#262 = SURFACE_STYLE_FILL_AREA( #304 );
#263 = ORIENTED_EDGE( '', *, *, #303, .F. );
#264 = ORIENTED_EDGE( '', *, *, #301, .T. );
#265 = CARTESIAN_POINT( '', ( 0.000000000000000, 0.000000000000000, 25.9858946121134 ) );
#266 = DIRECTION( '', ( 0.000000000000000, 0.000000000000000, -1.00000000000000 ) );
#267 = DIRECTION( '', ( -1.00000000000000, 0.000000000000000, 0.000000000000000 ) );
#268 = SURFACE_STYLE_FILL_AREA( #305 );
#269 = ORIENTED_EDGE( '', *, *, #287, .F. );
#270 = ORIENTED_EDGE( '', *, *, #296, .T. );
#271 = CARTESIAN_POINT( '', ( 0.000000000000000, 0.000000000000000, 25.9858946121134 ) );
#272 = DIRECTION( '', ( 0.000000000000000, 0.000000000000000, -1.00000000000000 ) );
#273 = DIRECTION( '', ( -1.00000000000000, 0.000000000000000, 0.000000000000000 ) );
#274 = SURFACE_STYLE_FILL_AREA( #306 );
#275 = ORIENTED_EDGE( '', *, *, #285, .T. );
#276 = ORIENTED_EDGE( '', *, *, #281, .F. );
#277 = CARTESIAN_POINT( '', ( 0.000000000000000, 0.000000000000000, 38.7775681043630 ) );
#278 = DIRECTION( '', ( 0.000000000000000, 0.000000000000000, -1.00000000000000 ) );
#279 = DIRECTION( '', ( -1.00000000000000, 0.000000000000000, 0.000000000000000 ) );
#280 = FILL_AREA_STYLE( '', ( #307 ) );
#281 = EDGE_CURVE( '', #308, #308, #309, .T. );
#282 = EDGE_CURVE( '', #310, #310, #311, .F. );
#283 = FILL_AREA_STYLE( '', ( #312 ) );
#284 = EDGE_CURVE( '', #313, #313, #314, .F. );
#285 = EDGE_CURVE( '', #315, #315, #316, .T. );
#286 = FILL_AREA_STYLE( '', ( #317 ) );
#287 = EDGE_CURVE( '', #318, #318, #319, .T. );
#288 = FILL_AREA_STYLE( '', ( #320 ) );
#289 = EDGE_CURVE( '', #321, #321, #322, .T. );
#290 = FILL_AREA_STYLE( '', ( #323 ) );
#291 = EDGE_CURVE( '', #324, #324, #325, .T. );
#292 = EDGE_CURVE( '', #326, #326, #327, .T. );
#293 = FILL_AREA_STYLE( '', ( #328 ) );
#294 = EDGE_CURVE( '', #329, #329, #330, .T. );
#295 = FILL_AREA_STYLE( '', ( #331 ) );
#296 = EDGE_CURVE( '', #332, #332, #333, .T. );
#297 = FILL_AREA_STYLE( '', ( #334 ) );
#298 = EDGE_CURVE( '', #335, #335, #336, .T. );
#299 = FILL_AREA_STYLE( '', ( #337 ) );
#300 = FILL_AREA_STYLE( '', ( #338 ) );
#301 = EDGE_CURVE( '', #339, #339, #340, .T. );
#302 = FILL_AREA_STYLE( '', ( #341 ) );
#303 = EDGE_CURVE( '', #342, #342, #343, .T. );
#304 = FILL_AREA_STYLE( '', ( #344 ) );
#305 = FILL_AREA_STYLE( '', ( #345 ) );
#306 = FILL_AREA_STYLE( '', ( #346 ) );
#307 = FILL_AREA_STYLE_COLOUR( '', #347 );
#308 = VERTEX_POINT( '', #348 );
#309 = CIRCLE( '', #349, 27.0000000000000 );
#310 = VERTEX_POINT( '', #350 );
#311 = CIRCLE( '', #351, 27.0000000000000 );
#312 = FILL_AREA_STYLE_COLOUR( '', #352 );
#313 = VERTEX_POINT( '', #353 );
#314 = CIRCLE( '', #354, 29.5000000000000 );
#315 = VERTEX_POINT( '', #355 );
#316 = CIRCLE( '', #356, 28.0000000000000 );
#317 = FILL_AREA_STYLE_COLOUR( '', #357 );
#318 = VERTEX_POINT( '', #358 );
#319 = CIRCLE( '', #359, 32.9429824561403 );
#320 = FILL_AREA_STYLE_COLOUR( '', #360 );
#321 = VERTEX_POINT( '', #361 );
#322 = CIRCLE( '', #362, 29.5000000000000 );
#323 = FILL_AREA_STYLE_COLOUR( '', #363 );
#324 = VERTEX_POINT( '', #364 );
#325 = CIRCLE( '', #365, 36.0500000000000 );
#326 = VERTEX_POINT( '', #366 );
#327 = CIRCLE( '', #367, 38.0500000000000 );
#328 = FILL_AREA_STYLE_COLOUR( '', #368 );
#329 = VERTEX_POINT( '', #369 );
#330 = CIRCLE( '', #370, 27.0000000000000 );
#331 = FILL_AREA_STYLE_COLOUR( '', #371 );
#332 = VERTEX_POINT( '', #372 );
#333 = CIRCLE( '', #373, 36.0500000000000 );
#334 = FILL_AREA_STYLE_COLOUR( '', #374 );
#335 = VERTEX_POINT( '', #375 );
#336 = CIRCLE( '', #376, 27.0000000000000 );
#337 = FILL_AREA_STYLE_COLOUR( '', #377 );
#338 = FILL_AREA_STYLE_COLOUR( '', #378 );
#339 = VERTEX_POINT( '', #379 );
#340 = CIRCLE( '', #380, 33.8333333333334 );
#341 = FILL_AREA_STYLE_COLOUR( '', #381 );
#342 = VERTEX_POINT( '', #382 );
#343 = CIRCLE( '', #383, 38.0500000000000 );
#344 = FILL_AREA_STYLE_COLOUR( '', #384 );
#345 = FILL_AREA_STYLE_COLOUR( '', #385 );
#346 = FILL_AREA_STYLE_COLOUR( '', #386 );
#347 = COLOUR_RGB( '', 0.819607853889465, 0.709803938865662, 0.549019634723663 );
#348 = CARTESIAN_POINT( '', ( -27.0000000000000, 0.000000000000000, 38.7775681043630 ) );
#349 = AXIS2_PLACEMENT_3D( '', #387, #388, #389 );
#350 = CARTESIAN_POINT( '', ( -27.0000000000000, 0.000000000000000, 35.7798090600086 ) );
#351 = AXIS2_PLACEMENT_3D( '', #390, #391, #392 );
#352 = COLOUR_RGB( '', 0.819607853889465, 0.709803938865662, 0.549019634723663 );
#353 = CARTESIAN_POINT( '', ( -29.5000000000000, 0.000000000000000, 40.2775681043631 ) );
#354 = AXIS2_PLACEMENT_3D( '', #393, #394, #395 );
#355 = CARTESIAN_POINT( '', ( -28.0000000000000, 0.000000000000000, 38.7775681043630 ) );
#356 = AXIS2_PLACEMENT_3D( '', #396, #397, #398 );
#357 = COLOUR_RGB( '', 0.819607853889465, 0.709803938865662, 0.549019634723663 );
#358 = CARTESIAN_POINT( '', ( -32.9429824561403, 0.000000000000000, 31.0003774840930 ) );
#359 = AXIS2_PLACEMENT_3D( '', #399, #400, #401 );
#360 = COLOUR_RGB( '', 0.819607853889465, 0.709803938865662, 0.549019634723663 );
#361 = CARTESIAN_POINT( '', ( 29.5000000000000, 0.000000000000000, 75.7775681043630 ) );
#362 = AXIS2_PLACEMENT_3D( '', #402, #403, #404 );
#363 = COLOUR_RGB( '', 0.819607853889465, 0.709803938865662, 0.549019634723663 );
#364 = CARTESIAN_POINT( '', ( -36.0500000000000, 0.000000000000000, -56.2224318956370 ) );
#365 = AXIS2_PLACEMENT_3D( '', #405, #406, #407 );
#366 = CARTESIAN_POINT( '', ( -38.0500000000000, 0.000000000000000, -56.2224318956370 ) );
#367 = AXIS2_PLACEMENT_3D( '', #408, #409, #410 );
#368 = COLOUR_RGB( '', 0.819607853889465, 0.709803938865662, 0.549019634723663 );
#369 = CARTESIAN_POINT( '', ( 27.0000000000000, 0.000000000000000, 42.0775681043630 ) );
#370 = AXIS2_PLACEMENT_3D( '', #411, #412, #413 );
#371 = COLOUR_RGB( '', 0.819607853889465, 0.709803938865662, 0.549019634723663 );
#372 = CARTESIAN_POINT( '', ( -36.0500000000000, 0.000000000000000, 25.9858946121134 ) );
#373 = AXIS2_PLACEMENT_3D( '', #414, #415, #416 );
#374 = COLOUR_RGB( '', 0.819607853889465, 0.709803938865662, 0.549019634723663 );
#375 = CARTESIAN_POINT( '', ( 27.0000000000000, 0.000000000000000, 75.7775681043630 ) );
#376 = AXIS2_PLACEMENT_3D( '', #417, #418, #419 );
#377 = COLOUR_RGB( '', 0.819607853889465, 0.709803938865662, 0.549019634723663 );
#378 = COLOUR_RGB( '', 0.819607853889465, 0.709803938865662, 0.549019634723663 );
#379 = CARTESIAN_POINT( '', ( -33.8333333333334, 0.000000000000000, 32.7912642240857 ) );
#380 = AXIS2_PLACEMENT_3D( '', #420, #421, #422 );
#381 = COLOUR_RGB( '', 0.819607853889465, 0.709803938865662, 0.549019634723663 );
#382 = CARTESIAN_POINT( '', ( -38.0500000000000, 0.000000000000000, 25.9858946121134 ) );
#383 = AXIS2_PLACEMENT_3D( '', #423, #424, #425 );
#384 = COLOUR_RGB( '', 0.819607853889465, 0.709803938865662, 0.549019634723663 );
#385 = COLOUR_RGB( '', 0.819607853889465, 0.709803938865662, 0.549019634723663 );
#386 = COLOUR_RGB( '', 0.819607853889465, 0.709803938865662, 0.549019634723663 );
#387 = CARTESIAN_POINT( '', ( 0.000000000000000, 0.000000000000000, 38.7775681043630 ) );
#388 = DIRECTION( '', ( 0.000000000000000, 0.000000000000000, -1.00000000000000 ) );
#389 = DIRECTION( '', ( -1.00000000000000, 0.000000000000000, 0.000000000000000 ) );
#390 = CARTESIAN_POINT( '', ( 0.000000000000000, 0.000000000000000, 35.7798090600086 ) );
#391 = DIRECTION( '', ( 0.000000000000000, 0.000000000000000, -1.00000000000000 ) );
#392 = DIRECTION( '', ( -1.00000000000000, 0.000000000000000, 0.000000000000000 ) );
#393 = CARTESIAN_POINT( '', ( 0.000000000000000, 0.000000000000000, 40.2775681043631 ) );
#394 = DIRECTION( '', ( 0.000000000000000, 0.000000000000000, -1.00000000000000 ) );
#395 = DIRECTION( '', ( -1.00000000000000, 0.000000000000000, 0.000000000000000 ) );
#396 = CARTESIAN_POINT( '', ( 0.000000000000000, 0.000000000000000, 38.7775681043630 ) );
#397 = DIRECTION( '', ( 0.000000000000000, 0.000000000000000, -1.00000000000000 ) );
#398 = DIRECTION( '', ( -1.00000000000000, 0.000000000000000, 0.000000000000000 ) );
#399 = CARTESIAN_POINT( '', ( 0.000000000000000, 0.000000000000000, 31.0003774840930 ) );
#400 = DIRECTION( '', ( 0.000000000000000, 0.000000000000000, -1.00000000000000 ) );
#401 = DIRECTION( '', ( -1.00000000000000, 0.000000000000000, 0.000000000000000 ) );
#402 = CARTESIAN_POINT( '', ( 0.000000000000000, 0.000000000000000, 75.7775681043630 ) );
#403 = DIRECTION( '', ( 0.000000000000000, 0.000000000000000, -1.00000000000000 ) );
#404 = DIRECTION( '', ( 1.00000000000000, 0.000000000000000, 0.000000000000000 ) );
#405 = CARTESIAN_POINT( '', ( 0.000000000000000, 0.000000000000000, -56.2224318956370 ) );
#406 = DIRECTION( '', ( 0.000000000000000, 0.000000000000000, -1.00000000000000 ) );
#407 = DIRECTION( '', ( -1.00000000000000, 0.000000000000000, 0.000000000000000 ) );
#408 = CARTESIAN_POINT( '', ( 0.000000000000000, 0.000000000000000, -56.2224318956370 ) );
#409 = DIRECTION( '', ( 0.000000000000000, 0.000000000000000, -1.00000000000000 ) );
#410 = DIRECTION( '', ( -1.00000000000000, 0.000000000000000, 0.000000000000000 ) );
#411 = CARTESIAN_POINT( '', ( 0.000000000000000, 0.000000000000000, 42.0775681043630 ) );
#412 = DIRECTION( '', ( 0.000000000000000, 0.000000000000000, -1.00000000000000 ) );
#413 = DIRECTION( '', ( 1.00000000000000, 0.000000000000000, 0.000000000000000 ) );
#414 = CARTESIAN_POINT( '', ( 0.000000000000000, 0.000000000000000, 25.9858946121134 ) );
#415 = DIRECTION( '', ( 0.000000000000000, 0.000000000000000, -1.00000000000000 ) );
#416 = DIRECTION( '', ( -1.00000000000000, 0.000000000000000, 0.000000000000000 ) );
#417 = CARTESIAN_POINT( '', ( 0.000000000000000, 0.000000000000000, 75.7775681043630 ) );
#418 = DIRECTION( '', ( 0.000000000000000, 0.000000000000000, -1.00000000000000 ) );
#419 = DIRECTION( '', ( 1.00000000000000, 0.000000000000000, 0.000000000000000 ) );
#420 = CARTESIAN_POINT( '', ( 0.000000000000000, 0.000000000000000, 32.7912642240857 ) );
#421 = DIRECTION( '', ( 0.000000000000000, 0.000000000000000, -1.00000000000000 ) );
#422 = DIRECTION( '', ( -1.00000000000000, 0.000000000000000, 0.000000000000000 ) );
#423 = CARTESIAN_POINT( '', ( 0.000000000000000, 0.000000000000000, 25.9858946121134 ) );
#424 = DIRECTION( '', ( 0.000000000000000, 0.000000000000000, -1.00000000000000 ) );
#425 = DIRECTION( '', ( -1.00000000000000, 0.000000000000000, 0.000000000000000 ) );
ENDSEC;
END-ISO-10303-21;
