ISO-10303-21;
HEADER;
FILE_DESCRIPTION( ( 'Unknown' ), '1' );
FILE_NAME( '//Server/ofimatica/alfredo/Alfredo2/ISOTUBI/PZAS3D/FICHATECNICA/NUMEPRESS/generico 3D/F14DN76,1-88,9.stp', 'Unknown', ( 'Unknown' ), ( 'Unknown' ), 'PSStep 14.0', 'Unknown', '  ' );
FILE_SCHEMA( ( 'AUTOMOTIVE_DESIGN { 1 0 10303 214 1 1 1 1 }' ) );
ENDSEC;
DATA;
#1 = MECHANICAL_DESIGN_GEOMETRIC_PRESENTATION_REPRESENTATION( ' ', ( #10, #11, #12, #13, #14, #15, #16, #17, #18, #19, #20, #21 ), #6 );
#2 = PRODUCT_DEFINITION_CONTEXT( '', #22, 'design' );
#3 = APPLICATION_PROTOCOL_DEFINITION( 'international standard', 'automotive_design', 2001, #22 );
#4 = PRODUCT_CATEGORY_RELATIONSHIP( 'NONE', 'NONE', #23, #24 );
#5 = SHAPE_DEFINITION_REPRESENTATION( #25, #26 );
#6 =  ( GEOMETRIC_REPRESENTATION_CONTEXT( 3 )GLOBAL_UNCERTAINTY_ASSIGNED_CONTEXT( ( #29 ) )GLOBAL_UNIT_ASSIGNED_CONTEXT( ( #31, #32, #33 ) )REPRESENTATION_CONTEXT( 'NONE', 'WORKSPACE' ) );
#10 = STYLED_ITEM( '', ( #35 ), #36 );
#11 = STYLED_ITEM( '', ( #37 ), #38 );
#12 = STYLED_ITEM( '', ( #39 ), #40 );
#13 = STYLED_ITEM( '', ( #41 ), #42 );
#14 = STYLED_ITEM( '', ( #43 ), #44 );
#15 = STYLED_ITEM( '', ( #45 ), #46 );
#16 = STYLED_ITEM( '', ( #47 ), #48 );
#17 = STYLED_ITEM( '', ( #49 ), #50 );
#18 = STYLED_ITEM( '', ( #51 ), #52 );
#19 = STYLED_ITEM( '', ( #53 ), #54 );
#20 = STYLED_ITEM( '', ( #55 ), #56 );
#21 = STYLED_ITEM( '', ( #57 ), #58 );
#22 = APPLICATION_CONTEXT( 'core data for automotive mechanical design processes' );
#23 = PRODUCT_CATEGORY( 'part', 'NONE' );
#24 = PRODUCT_RELATED_PRODUCT_CATEGORY( 'detail', ' ', ( #59 ) );
#25 = PRODUCT_DEFINITION_SHAPE( 'NONE', 'NONE', #60 );
#26 = ADVANCED_BREP_SHAPE_REPRESENTATION( '1', ( #61, #62 ), #6 );
#29 = UNCERTAINTY_MEASURE_WITH_UNIT( LENGTH_MEASURE( 0.00100000000000000 ), #31, '', '' );
#31 =  ( CONVERSION_BASED_UNIT( 'MILLIMETRE', #65 )LENGTH_UNIT(  )NAMED_UNIT( #68 ) );
#32 =  ( NAMED_UNIT( #70 )PLANE_ANGLE_UNIT(  )SI_UNIT( $, .RADIAN. ) );
#33 =  ( NAMED_UNIT( #70 )SI_UNIT( $, .STERADIAN. )SOLID_ANGLE_UNIT(  ) );
#35 = PRESENTATION_STYLE_ASSIGNMENT( ( #76 ) );
#36 = ADVANCED_FACE( '', ( #77, #78 ), #79, .T. );
#37 = PRESENTATION_STYLE_ASSIGNMENT( ( #80 ) );
#38 = ADVANCED_FACE( '', ( #81, #82 ), #83, .T. );
#39 = PRESENTATION_STYLE_ASSIGNMENT( ( #84 ) );
#40 = ADVANCED_FACE( '', ( #85, #86 ), #87, .F. );
#41 = PRESENTATION_STYLE_ASSIGNMENT( ( #88 ) );
#42 = ADVANCED_FACE( '', ( #89, #90 ), #91, .F. );
#43 = PRESENTATION_STYLE_ASSIGNMENT( ( #92 ) );
#44 = ADVANCED_FACE( '', ( #93, #94 ), #95, .T. );
#45 = PRESENTATION_STYLE_ASSIGNMENT( ( #96 ) );
#46 = ADVANCED_FACE( '', ( #97, #98 ), #99, .F. );
#47 = PRESENTATION_STYLE_ASSIGNMENT( ( #100 ) );
#48 = ADVANCED_FACE( '', ( #101, #102 ), #103, .F. );
#49 = PRESENTATION_STYLE_ASSIGNMENT( ( #104 ) );
#50 = ADVANCED_FACE( '', ( #105, #106 ), #107, .T. );
#51 = PRESENTATION_STYLE_ASSIGNMENT( ( #108 ) );
#52 = ADVANCED_FACE( '', ( #109, #110 ), #111, .T. );
#53 = PRESENTATION_STYLE_ASSIGNMENT( ( #112 ) );
#54 = ADVANCED_FACE( '', ( #113, #114 ), #115, .T. );
#55 = PRESENTATION_STYLE_ASSIGNMENT( ( #116 ) );
#56 = ADVANCED_FACE( '', ( #117 ), #118, .F. );
#57 = PRESENTATION_STYLE_ASSIGNMENT( ( #119 ) );
#58 = ADVANCED_FACE( '', ( #120 ), #121, .F. );
#59 = PRODUCT( '1', '1', 'PART-1-DESC', ( #122 ) );
#60 = PRODUCT_DEFINITION( 'NONE', 'NONE', #123, #2 );
#61 = MANIFOLD_SOLID_BREP( '1', #124 );
#62 = AXIS2_PLACEMENT_3D( '', #125, #126, #127 );
#65 = LENGTH_MEASURE_WITH_UNIT( LENGTH_MEASURE( 1.00000000000000 ), #128 );
#68 = DIMENSIONAL_EXPONENTS( 1.00000000000000, 0.000000000000000, 0.000000000000000, 0.000000000000000, 0.000000000000000, 0.000000000000000, 0.000000000000000 );
#70 = DIMENSIONAL_EXPONENTS( 0.000000000000000, 0.000000000000000, 0.000000000000000, 0.000000000000000, 0.000000000000000, 0.000000000000000, 0.000000000000000 );
#76 = SURFACE_STYLE_USAGE( .BOTH., #129 );
#77 = FACE_OUTER_BOUND( '', #130, .T. );
#78 = FACE_BOUND( '', #131, .T. );
#79 = CONICAL_SURFACE( '', #132, 34.5000000000000, 0.165806278939461 );
#80 = SURFACE_STYLE_USAGE( .BOTH., #133 );
#81 = FACE_OUTER_BOUND( '', #134, .T. );
#82 = FACE_OUTER_BOUND( '', #135, .T. );
#83 = CYLINDRICAL_SURFACE( '', #136, 40.5000000000000 );
#84 = SURFACE_STYLE_USAGE( .BOTH., #137 );
#85 = FACE_OUTER_BOUND( '', #138, .T. );
#86 = FACE_OUTER_BOUND( '', #139, .T. );
#87 = CYLINDRICAL_SURFACE( '', #140, 38.0000000000000 );
#88 = SURFACE_STYLE_USAGE( .BOTH., #141 );
#89 = FACE_OUTER_BOUND( '', #142, .T. );
#90 = FACE_OUTER_BOUND( '', #143, .T. );
#91 = CYLINDRICAL_SURFACE( '', #144, 42.5000000000000 );
#92 = SURFACE_STYLE_USAGE( .BOTH., #145 );
#93 = FACE_OUTER_BOUND( '', #146, .T. );
#94 = FACE_OUTER_BOUND( '', #147, .T. );
#95 = CYLINDRICAL_SURFACE( '', #148, 38.0000000000000 );
#96 = SURFACE_STYLE_USAGE( .BOTH., #149 );
#97 = FACE_OUTER_BOUND( '', #150, .T. );
#98 = FACE_BOUND( '', #151, .T. );
#99 = PLANE( '', #152 );
#100 = SURFACE_STYLE_USAGE( .BOTH., #153 );
#101 = FACE_OUTER_BOUND( '', #154, .T. );
#102 = FACE_BOUND( '', #155, .T. );
#103 = PLANE( '', #156 );
#104 = SURFACE_STYLE_USAGE( .BOTH., #157 );
#105 = FACE_OUTER_BOUND( '', #158, .T. );
#106 = FACE_BOUND( '', #159, .T. );
#107 = PLANE( '', #160 );
#108 = SURFACE_STYLE_USAGE( .BOTH., #161 );
#109 = FACE_OUTER_BOUND( '', #162, .T. );
#110 = FACE_OUTER_BOUND( '', #163, .T. );
#111 = CYLINDRICAL_SURFACE( '', #164, 44.5000000000000 );
#112 = SURFACE_STYLE_USAGE( .BOTH., #165 );
#113 = FACE_OUTER_BOUND( '', #166, .T. );
#114 = FACE_BOUND( '', #167, .T. );
#115 = CONICAL_SURFACE( '', #168, 38.5000000000000, 0.785398163397448 );
#116 = SURFACE_STYLE_USAGE( .BOTH., #169 );
#117 = FACE_OUTER_BOUND( '', #170, .T. );
#118 = PLANE( '', #171 );
#119 = SURFACE_STYLE_USAGE( .BOTH., #172 );
#120 = FACE_OUTER_BOUND( '', #173, .T. );
#121 = PLANE( '', #174 );
#122 = PRODUCT_CONTEXT( '', #22, 'mechanical' );
#123 = PRODUCT_DEFINITION_FORMATION_WITH_SPECIFIED_SOURCE( ' ', 'NONE', #59, .NOT_KNOWN. );
#124 = CLOSED_SHELL( '', ( #46, #42, #58, #56, #48, #44, #52, #36, #50, #38, #54, #40 ) );
#125 = CARTESIAN_POINT( '', ( 0.000000000000000, 0.000000000000000, 0.000000000000000 ) );
#126 = DIRECTION( '', ( 0.000000000000000, 0.000000000000000, 1.00000000000000 ) );
#127 = DIRECTION( '', ( 1.00000000000000, 0.000000000000000, 0.000000000000000 ) );
#128 =  ( LENGTH_UNIT(  )NAMED_UNIT( #68 )SI_UNIT( .MILLI., .METRE. ) );
#129 = SURFACE_SIDE_STYLE( '', ( #176 ) );
#130 = EDGE_LOOP( '', ( #177 ) );
#131 = EDGE_LOOP( '', ( #178 ) );
#132 = AXIS2_PLACEMENT_3D( '', #179, #180, #181 );
#133 = SURFACE_SIDE_STYLE( '', ( #182 ) );
#134 = EDGE_LOOP( '', ( #183 ) );
#135 = EDGE_LOOP( '', ( #184 ) );
#136 = AXIS2_PLACEMENT_3D( '', #185, #186, #187 );
#137 = SURFACE_SIDE_STYLE( '', ( #188 ) );
#138 = EDGE_LOOP( '', ( #189 ) );
#139 = EDGE_LOOP( '', ( #190 ) );
#140 = AXIS2_PLACEMENT_3D( '', #191, #192, #193 );
#141 = SURFACE_SIDE_STYLE( '', ( #194 ) );
#142 = EDGE_LOOP( '', ( #195 ) );
#143 = EDGE_LOOP( '', ( #196 ) );
#144 = AXIS2_PLACEMENT_3D( '', #197, #198, #199 );
#145 = SURFACE_SIDE_STYLE( '', ( #200 ) );
#146 = EDGE_LOOP( '', ( #201 ) );
#147 = EDGE_LOOP( '', ( #202 ) );
#148 = AXIS2_PLACEMENT_3D( '', #203, #204, #205 );
#149 = SURFACE_SIDE_STYLE( '', ( #206 ) );
#150 = EDGE_LOOP( '', ( #207 ) );
#151 = EDGE_LOOP( '', ( #208 ) );
#152 = AXIS2_PLACEMENT_3D( '', #209, #210, #211 );
#153 = SURFACE_SIDE_STYLE( '', ( #212 ) );
#154 = EDGE_LOOP( '', ( #213 ) );
#155 = EDGE_LOOP( '', ( #214 ) );
#156 = AXIS2_PLACEMENT_3D( '', #215, #216, #217 );
#157 = SURFACE_SIDE_STYLE( '', ( #218 ) );
#158 = EDGE_LOOP( '', ( #219 ) );
#159 = EDGE_LOOP( '', ( #220 ) );
#160 = AXIS2_PLACEMENT_3D( '', #221, #222, #223 );
#161 = SURFACE_SIDE_STYLE( '', ( #224 ) );
#162 = EDGE_LOOP( '', ( #225 ) );
#163 = EDGE_LOOP( '', ( #226 ) );
#164 = AXIS2_PLACEMENT_3D( '', #227, #228, #229 );
#165 = SURFACE_SIDE_STYLE( '', ( #230 ) );
#166 = EDGE_LOOP( '', ( #231 ) );
#167 = EDGE_LOOP( '', ( #232 ) );
#168 = AXIS2_PLACEMENT_3D( '', #233, #234, #235 );
#169 = SURFACE_SIDE_STYLE( '', ( #236 ) );
#170 = EDGE_LOOP( '', ( #237 ) );
#171 = AXIS2_PLACEMENT_3D( '', #238, #239, #240 );
#172 = SURFACE_SIDE_STYLE( '', ( #241 ) );
#173 = EDGE_LOOP( '', ( #242 ) );
#174 = AXIS2_PLACEMENT_3D( '', #243, #244, #245 );
#176 = SURFACE_STYLE_FILL_AREA( #246 );
#177 = ORIENTED_EDGE( '', *, *, #247, .F. );
#178 = ORIENTED_EDGE( '', *, *, #248, .F. );
#179 = CARTESIAN_POINT( '', ( 0.000000000000000, 26.3970977654550, 0.000000000000000 ) );
#180 = DIRECTION( '', ( -0.000000000000000, 1.00000000000000, -0.000000000000000 ) );
#181 = DIRECTION( '', ( 0.000000000000000, 0.000000000000000, 1.00000000000000 ) );
#182 = SURFACE_STYLE_FILL_AREA( #249 );
#183 = ORIENTED_EDGE( '', *, *, #250, .T. );
#184 = ORIENTED_EDGE( '', *, *, #251, .T. );
#185 = CARTESIAN_POINT( '', ( 0.000000000000000, 34.1122730409707, 0.000000000000000 ) );
#186 = DIRECTION( '', ( -0.000000000000000, 1.00000000000000, -0.000000000000000 ) );
#187 = DIRECTION( '', ( 0.000000000000000, 0.000000000000000, -1.00000000000000 ) );
#188 = SURFACE_STYLE_FILL_AREA( #252 );
#189 = ORIENTED_EDGE( '', *, *, #253, .T. );
#190 = ORIENTED_EDGE( '', *, *, #254, .F. );
#191 = CARTESIAN_POINT( '', ( 0.000000000000000, 32.1122730409707, 0.000000000000000 ) );
#192 = DIRECTION( '', ( -0.000000000000000, 1.00000000000000, -0.000000000000000 ) );
#193 = DIRECTION( '', ( 0.000000000000000, 0.000000000000000, -1.00000000000000 ) );
#194 = SURFACE_STYLE_FILL_AREA( #255 );
#195 = ORIENTED_EDGE( '', *, *, #256, .T. );
#196 = ORIENTED_EDGE( '', *, *, #257, .F. );
#197 = CARTESIAN_POINT( '', ( 1.16732944685110E-014, 90.1122730409708, 0.000000000000000 ) );
#198 = DIRECTION( '', ( 1.82602471155453E-016, -1.00000000000000, -0.000000000000000 ) );
#199 = DIRECTION( '', ( -1.00000000000000, -1.82602471155453E-016, 0.000000000000000 ) );
#200 = SURFACE_STYLE_FILL_AREA( #258 );
#201 = ORIENTED_EDGE( '', *, *, #259, .T. );
#202 = ORIENTED_EDGE( '', *, *, #248, .T. );
#203 = CARTESIAN_POINT( '', ( 0.000000000000000, 38.4000000000000, 0.000000000000000 ) );
#204 = DIRECTION( '', ( -0.000000000000000, 1.00000000000000, -0.000000000000000 ) );
#205 = DIRECTION( '', ( 0.000000000000000, 0.000000000000000, -1.00000000000000 ) );
#206 = SURFACE_STYLE_FILL_AREA( #260 );
#207 = ORIENTED_EDGE( '', *, *, #261, .F. );
#208 = ORIENTED_EDGE( '', *, *, #257, .T. );
#209 = CARTESIAN_POINT( '', ( 7.17146199183768E-016, 150.112273040971, 0.000000000000000 ) );
#210 = DIRECTION( '', ( 1.82602471155454E-016, -1.00000000000000, 0.000000000000000 ) );
#211 = DIRECTION( '', ( 1.00000000000000, 1.82602471155453E-016, 0.000000000000000 ) );
#212 = SURFACE_STYLE_FILL_AREA( #262 );
#213 = ORIENTED_EDGE( '', *, *, #251, .F. );
#214 = ORIENTED_EDGE( '', *, *, #254, .T. );
#215 = CARTESIAN_POINT( '', ( 0.000000000000000, -21.6877269590292, 0.000000000000000 ) );
#216 = DIRECTION( '', ( 0.000000000000000, 1.00000000000000, 0.000000000000000 ) );
#217 = DIRECTION( '', ( 0.000000000000000, 0.000000000000000, 1.00000000000000 ) );
#218 = SURFACE_STYLE_FILL_AREA( #263 );
#219 = ORIENTED_EDGE( '', *, *, #264, .T. );
#220 = ORIENTED_EDGE( '', *, *, #259, .F. );
#221 = CARTESIAN_POINT( '', ( 0.000000000000000, 34.1122730409707, 0.000000000000000 ) );
#222 = DIRECTION( '', ( 0.000000000000000, 1.00000000000000, 0.000000000000000 ) );
#223 = DIRECTION( '', ( 0.000000000000000, 0.000000000000000, 1.00000000000000 ) );
#224 = SURFACE_STYLE_FILL_AREA( #265 );
#225 = ORIENTED_EDGE( '', *, *, #247, .T. );
#226 = ORIENTED_EDGE( '', *, *, #261, .T. );
#227 = CARTESIAN_POINT( '', ( 0.000000000000000, 138.400000000000, 0.000000000000000 ) );
#228 = DIRECTION( '', ( -0.000000000000000, 1.00000000000000, -0.000000000000000 ) );
#229 = DIRECTION( '', ( 0.000000000000000, 0.000000000000000, -1.00000000000000 ) );
#230 = SURFACE_STYLE_FILL_AREA( #266 );
#231 = ORIENTED_EDGE( '', *, *, #250, .F. );
#232 = ORIENTED_EDGE( '', *, *, #264, .F. );
#233 = CARTESIAN_POINT( '', ( 0.000000000000000, 34.1122730409707, 0.000000000000000 ) );
#234 = DIRECTION( '', ( 0.000000000000000, -1.00000000000000, -0.000000000000000 ) );
#235 = DIRECTION( '', ( 0.000000000000000, 0.000000000000000, -1.00000000000000 ) );
#236 = SURFACE_STYLE_FILL_AREA( #267 );
#237 = ORIENTED_EDGE( '', *, *, #253, .F. );
#238 = CARTESIAN_POINT( '', ( 0.000000000000000, 32.1122730409707, 0.000000000000000 ) );
#239 = DIRECTION( '', ( 0.000000000000000, 1.00000000000000, 0.000000000000000 ) );
#240 = DIRECTION( '', ( 0.000000000000000, 0.000000000000000, 1.00000000000000 ) );
#241 = SURFACE_STYLE_FILL_AREA( #268 );
#242 = ORIENTED_EDGE( '', *, *, #256, .F. );
#243 = CARTESIAN_POINT( '', ( 1.16732944685110E-014, 90.1122730409708, 0.000000000000000 ) );
#244 = DIRECTION( '', ( 0.000000000000000, -1.00000000000000, 0.000000000000000 ) );
#245 = DIRECTION( '', ( 0.000000000000000, 0.000000000000000, -1.00000000000000 ) );
#246 = FILL_AREA_STYLE( '', ( #269 ) );
#247 = EDGE_CURVE( '', #270, #270, #271, .T. );
#248 = EDGE_CURVE( '', #272, #272, #273, .F. );
#249 = FILL_AREA_STYLE( '', ( #274 ) );
#250 = EDGE_CURVE( '', #275, #275, #276, .F. );
#251 = EDGE_CURVE( '', #277, #277, #278, .T. );
#252 = FILL_AREA_STYLE( '', ( #279 ) );
#253 = EDGE_CURVE( '', #280, #280, #281, .T. );
#254 = EDGE_CURVE( '', #282, #282, #283, .T. );
#255 = FILL_AREA_STYLE( '', ( #284 ) );
#256 = EDGE_CURVE( '', #285, #285, #286, .T. );
#257 = EDGE_CURVE( '', #287, #287, #288, .T. );
#258 = FILL_AREA_STYLE( '', ( #289 ) );
#259 = EDGE_CURVE( '', #290, #290, #291, .T. );
#260 = FILL_AREA_STYLE( '', ( #292 ) );
#261 = EDGE_CURVE( '', #293, #293, #294, .T. );
#262 = FILL_AREA_STYLE( '', ( #295 ) );
#263 = FILL_AREA_STYLE( '', ( #296 ) );
#264 = EDGE_CURVE( '', #297, #297, #298, .T. );
#265 = FILL_AREA_STYLE( '', ( #299 ) );
#266 = FILL_AREA_STYLE( '', ( #300 ) );
#267 = FILL_AREA_STYLE( '', ( #301 ) );
#268 = FILL_AREA_STYLE( '', ( #302 ) );
#269 = FILL_AREA_STYLE_COLOUR( '', #303 );
#270 = VERTEX_POINT( '', #304 );
#271 = CIRCLE( '', #305, 44.5000000000000 );
#272 = VERTEX_POINT( '', #306 );
#273 = CIRCLE( '', #307, 38.0000000000000 );
#274 = FILL_AREA_STYLE_COLOUR( '', #308 );
#275 = VERTEX_POINT( '', #309 );
#276 = CIRCLE( '', #310, 40.5000000000000 );
#277 = VERTEX_POINT( '', #311 );
#278 = CIRCLE( '', #312, 40.5000000000000 );
#279 = FILL_AREA_STYLE_COLOUR( '', #313 );
#280 = VERTEX_POINT( '', #314 );
#281 = CIRCLE( '', #315, 38.0000000000000 );
#282 = VERTEX_POINT( '', #316 );
#283 = CIRCLE( '', #317, 38.0000000000000 );
#284 = FILL_AREA_STYLE_COLOUR( '', #318 );
#285 = VERTEX_POINT( '', #319 );
#286 = CIRCLE( '', #320, 42.5000000000000 );
#287 = VERTEX_POINT( '', #321 );
#288 = CIRCLE( '', #322, 42.5000000000000 );
#289 = FILL_AREA_STYLE_COLOUR( '', #323 );
#290 = VERTEX_POINT( '', #324 );
#291 = CIRCLE( '', #325, 38.0000000000000 );
#292 = FILL_AREA_STYLE_COLOUR( '', #326 );
#293 = VERTEX_POINT( '', #327 );
#294 = CIRCLE( '', #328, 44.5000000000000 );
#295 = FILL_AREA_STYLE_COLOUR( '', #329 );
#296 = FILL_AREA_STYLE_COLOUR( '', #330 );
#297 = VERTEX_POINT( '', #331 );
#298 = CIRCLE( '', #332, 38.5000000000000 );
#299 = FILL_AREA_STYLE_COLOUR( '', #333 );
#300 = FILL_AREA_STYLE_COLOUR( '', #334 );
#301 = FILL_AREA_STYLE_COLOUR( '', #335 );
#302 = FILL_AREA_STYLE_COLOUR( '', #336 );
#303 = COLOUR_RGB( '', 0.000000000000000, 0.752941191196442, 0.800000011920929 );
#304 = CARTESIAN_POINT( '', ( 0.000000000000000, 86.1547414097857, 44.5000000000000 ) );
#305 = AXIS2_PLACEMENT_3D( '', #337, #338, #339 );
#306 = CARTESIAN_POINT( '', ( 0.000000000000000, 47.3122730409708, 38.0000000000000 ) );
#307 = AXIS2_PLACEMENT_3D( '', #340, #341, #342 );
#308 = COLOUR_RGB( '', 0.000000000000000, 0.752941191196442, 0.800000011920929 );
#309 = CARTESIAN_POINT( '', ( 0.000000000000000, 32.1122730409707, 40.5000000000000 ) );
#310 = AXIS2_PLACEMENT_3D( '', #343, #344, #345 );
#311 = CARTESIAN_POINT( '', ( 40.5000000000000, -21.6877269590292, 0.000000000000000 ) );
#312 = AXIS2_PLACEMENT_3D( '', #346, #347, #348 );
#313 = COLOUR_RGB( '', 0.000000000000000, 0.752941191196442, 0.800000011920929 );
#314 = CARTESIAN_POINT( '', ( 38.0000000000000, 32.1122730409707, 0.000000000000000 ) );
#315 = AXIS2_PLACEMENT_3D( '', #349, #350, #351 );
#316 = CARTESIAN_POINT( '', ( 38.0000000000000, -21.6877269590292, 0.000000000000000 ) );
#317 = AXIS2_PLACEMENT_3D( '', #352, #353, #354 );
#318 = COLOUR_RGB( '', 0.000000000000000, 0.752941191196442, 0.800000011920929 );
#319 = CARTESIAN_POINT( '', ( -42.5000000000000, 90.1122730409708, 0.000000000000000 ) );
#320 = AXIS2_PLACEMENT_3D( '', #355, #356, #357 );
#321 = CARTESIAN_POINT( '', ( -42.5000000000000, 150.112273040971, 0.000000000000000 ) );
#322 = AXIS2_PLACEMENT_3D( '', #358, #359, #360 );
#323 = COLOUR_RGB( '', 0.000000000000000, 0.752941191196442, 0.800000011920929 );
#324 = CARTESIAN_POINT( '', ( 0.000000000000000, 34.1122730409707, 38.0000000000000 ) );
#325 = AXIS2_PLACEMENT_3D( '', #361, #362, #363 );
#326 = COLOUR_RGB( '', 0.000000000000000, 0.752941191196442, 0.800000011920929 );
#327 = CARTESIAN_POINT( '', ( -44.5000000000000, 150.112273040971, 0.000000000000000 ) );
#328 = AXIS2_PLACEMENT_3D( '', #364, #365, #366 );
#329 = COLOUR_RGB( '', 0.000000000000000, 0.752941191196442, 0.800000011920929 );
#330 = COLOUR_RGB( '', 0.000000000000000, 0.752941191196442, 0.800000011920929 );
#331 = CARTESIAN_POINT( '', ( 0.000000000000000, 34.1122730409707, 38.5000000000000 ) );
#332 = AXIS2_PLACEMENT_3D( '', #367, #368, #369 );
#333 = COLOUR_RGB( '', 0.000000000000000, 0.752941191196442, 0.800000011920929 );
#334 = COLOUR_RGB( '', 0.000000000000000, 0.752941191196442, 0.800000011920929 );
#335 = COLOUR_RGB( '', 0.000000000000000, 0.752941191196442, 0.800000011920929 );
#336 = COLOUR_RGB( '', 0.000000000000000, 0.752941191196442, 0.800000011920929 );
#337 = CARTESIAN_POINT( '', ( 0.000000000000000, 86.1547414097857, 0.000000000000000 ) );
#338 = DIRECTION( '', ( 0.000000000000000, 1.00000000000000, 0.000000000000000 ) );
#339 = DIRECTION( '', ( 0.000000000000000, 0.000000000000000, 1.00000000000000 ) );
#340 = CARTESIAN_POINT( '', ( 0.000000000000000, 47.3122730409708, 0.000000000000000 ) );
#341 = DIRECTION( '', ( 0.000000000000000, 1.00000000000000, 0.000000000000000 ) );
#342 = DIRECTION( '', ( 0.000000000000000, 0.000000000000000, 1.00000000000000 ) );
#343 = CARTESIAN_POINT( '', ( 0.000000000000000, 32.1122730409707, 0.000000000000000 ) );
#344 = DIRECTION( '', ( 0.000000000000000, 1.00000000000000, 0.000000000000000 ) );
#345 = DIRECTION( '', ( 0.000000000000000, 0.000000000000000, 1.00000000000000 ) );
#346 = CARTESIAN_POINT( '', ( 0.000000000000000, -21.6877269590292, 0.000000000000000 ) );
#347 = DIRECTION( '', ( -0.000000000000000, 1.00000000000000, 0.000000000000000 ) );
#348 = DIRECTION( '', ( 1.00000000000000, 0.000000000000000, 0.000000000000000 ) );
#349 = CARTESIAN_POINT( '', ( 0.000000000000000, 32.1122730409707, 0.000000000000000 ) );
#350 = DIRECTION( '', ( -0.000000000000000, 1.00000000000000, 0.000000000000000 ) );
#351 = DIRECTION( '', ( 1.00000000000000, 0.000000000000000, 0.000000000000000 ) );
#352 = CARTESIAN_POINT( '', ( 0.000000000000000, -21.6877269590292, 0.000000000000000 ) );
#353 = DIRECTION( '', ( -0.000000000000000, 1.00000000000000, 0.000000000000000 ) );
#354 = DIRECTION( '', ( 1.00000000000000, 0.000000000000000, 0.000000000000000 ) );
#355 = CARTESIAN_POINT( '', ( 1.16732944685110E-014, 90.1122730409708, 0.000000000000000 ) );
#356 = DIRECTION( '', ( 0.000000000000000, -1.00000000000000, 0.000000000000000 ) );
#357 = DIRECTION( '', ( -1.00000000000000, 0.000000000000000, 0.000000000000000 ) );
#358 = CARTESIAN_POINT( '', ( 7.17146199183768E-016, 150.112273040971, 0.000000000000000 ) );
#359 = DIRECTION( '', ( 0.000000000000000, -1.00000000000000, 0.000000000000000 ) );
#360 = DIRECTION( '', ( -1.00000000000000, 0.000000000000000, 0.000000000000000 ) );
#361 = CARTESIAN_POINT( '', ( 0.000000000000000, 34.1122730409707, 0.000000000000000 ) );
#362 = DIRECTION( '', ( 0.000000000000000, 1.00000000000000, 0.000000000000000 ) );
#363 = DIRECTION( '', ( 0.000000000000000, 0.000000000000000, 1.00000000000000 ) );
#364 = CARTESIAN_POINT( '', ( 7.17146199183768E-016, 150.112273040971, 0.000000000000000 ) );
#365 = DIRECTION( '', ( 1.82602471155453E-016, -1.00000000000000, 0.000000000000000 ) );
#366 = DIRECTION( '', ( -1.00000000000000, -1.82602471155453E-016, 0.000000000000000 ) );
#367 = CARTESIAN_POINT( '', ( 0.000000000000000, 34.1122730409707, 0.000000000000000 ) );
#368 = DIRECTION( '', ( 0.000000000000000, 1.00000000000000, 0.000000000000000 ) );
#369 = DIRECTION( '', ( 0.000000000000000, 0.000000000000000, 1.00000000000000 ) );
ENDSEC;
END-ISO-10303-21;
