ISO-10303-21;
HEADER;
/* Generated by software containing ST-Developer
 * from STEP Tools, Inc. (www.steptools.com) 
 */
/* OPTION: strings as raw bytes, not using required /X/ escapes */

FILE_DESCRIPTION(
/* description */ ('Unknown'),
/* implementation_level */ '2;1');

FILE_NAME(
/* name */ 'F18R3-4DN22',
/* time_stamp */ '2016-07-07T13:18:33+02:00',
/* author */ ('Unknown'),
/* organization */ ('Unknown'),
/* preprocessor_version */ 'ST-DEVELOPER v16',
/* originating_system */ 'DEX',
/* authorisation */ $);

FILE_SCHEMA (('AUTOMOTIVE_DESIGN {1 0 10303 214 3 1 1}'));
ENDSEC;

DATA;
#10=PROPERTY_DEFINITION_REPRESENTATION(#14,#12);
#11=PROPERTY_DEFINITION_REPRESENTATION(#15,#13);
#12=REPRESENTATION('',(#16),#679);
#13=REPRESENTATION('',(#17),#679);
#14=PROPERTY_DEFINITION('pmi validation property','',#684);
#15=PROPERTY_DEFINITION('pmi validation property','',#684);
#16=VALUE_REPRESENTATION_ITEM('number of annotations',COUNT_MEASURE(0.));
#17=VALUE_REPRESENTATION_ITEM('number of views',COUNT_MEASURE(0.));
#18=SHAPE_REPRESENTATION_RELATIONSHIP('','',#467,#19);
#19=ADVANCED_BREP_SHAPE_REPRESENTATION('',(#465),#679);
#20=CYLINDRICAL_SURFACE('',#486,12.25);
#21=CYLINDRICAL_SURFACE('',#488,10.75);
#22=CYLINDRICAL_SURFACE('',#491,9.5);
#23=CYLINDRICAL_SURFACE('',#497,12.5);
#24=CYLINDRICAL_SURFACE('',#499,13.5);
#25=CYLINDRICAL_SURFACE('',#502,11.);
#26=CONICAL_SURFACE('',#485,13.335,0.0312413936106985);
#27=CONICAL_SURFACE('',#493,10.75,0.785398163397448);
#28=CONICAL_SURFACE('',#501,12.5,0.785398163397448);
#29=LINE('',#609,#47);
#30=LINE('',#612,#48);
#31=LINE('',#614,#49);
#32=LINE('',#616,#50);
#33=LINE('',#618,#51);
#34=LINE('',#620,#52);
#35=LINE('',#622,#53);
#36=LINE('',#624,#54);
#37=LINE('',#626,#55);
#38=LINE('',#628,#56);
#39=LINE('',#630,#57);
#40=LINE('',#632,#58);
#41=LINE('',#634,#59);
#42=LINE('',#636,#60);
#43=LINE('',#638,#61);
#44=LINE('',#640,#62);
#45=LINE('',#642,#63);
#46=LINE('',#643,#64);
#47=VECTOR('',#521,1000.);
#48=VECTOR('',#522,1000.);
#49=VECTOR('',#523,1000.);
#50=VECTOR('',#524,1000.);
#51=VECTOR('',#527,1000.);
#52=VECTOR('',#528,1000.);
#53=VECTOR('',#529,1000.);
#54=VECTOR('',#532,1000.);
#55=VECTOR('',#533,1000.);
#56=VECTOR('',#534,1000.);
#57=VECTOR('',#537,1000.);
#58=VECTOR('',#538,1000.);
#59=VECTOR('',#539,1000.);
#60=VECTOR('',#542,1000.);
#61=VECTOR('',#543,1000.);
#62=VECTOR('',#544,1000.);
#63=VECTOR('',#547,1000.);
#64=VECTOR('',#548,1000.);
#65=ORIENTED_EDGE('',*,*,#129,.F.);
#66=ORIENTED_EDGE('',*,*,#130,.T.);
#67=ORIENTED_EDGE('',*,*,#131,.T.);
#68=ORIENTED_EDGE('',*,*,#132,.T.);
#69=ORIENTED_EDGE('',*,*,#133,.F.);
#70=ORIENTED_EDGE('',*,*,#134,.T.);
#71=ORIENTED_EDGE('',*,*,#135,.T.);
#72=ORIENTED_EDGE('',*,*,#136,.F.);
#73=ORIENTED_EDGE('',*,*,#137,.F.);
#74=ORIENTED_EDGE('',*,*,#136,.T.);
#75=ORIENTED_EDGE('',*,*,#138,.T.);
#76=ORIENTED_EDGE('',*,*,#139,.F.);
#77=ORIENTED_EDGE('',*,*,#140,.F.);
#78=ORIENTED_EDGE('',*,*,#139,.T.);
#79=ORIENTED_EDGE('',*,*,#141,.T.);
#80=ORIENTED_EDGE('',*,*,#142,.F.);
#81=ORIENTED_EDGE('',*,*,#143,.F.);
#82=ORIENTED_EDGE('',*,*,#142,.T.);
#83=ORIENTED_EDGE('',*,*,#144,.T.);
#84=ORIENTED_EDGE('',*,*,#145,.F.);
#85=ORIENTED_EDGE('',*,*,#146,.F.);
#86=ORIENTED_EDGE('',*,*,#145,.T.);
#87=ORIENTED_EDGE('',*,*,#147,.T.);
#88=ORIENTED_EDGE('',*,*,#148,.F.);
#89=ORIENTED_EDGE('',*,*,#149,.F.);
#90=ORIENTED_EDGE('',*,*,#148,.T.);
#91=ORIENTED_EDGE('',*,*,#150,.T.);
#92=ORIENTED_EDGE('',*,*,#134,.F.);
#93=ORIENTED_EDGE('',*,*,#151,.F.);
#94=ORIENTED_EDGE('',*,*,#137,.T.);
#95=ORIENTED_EDGE('',*,*,#140,.T.);
#96=ORIENTED_EDGE('',*,*,#143,.T.);
#97=ORIENTED_EDGE('',*,*,#146,.T.);
#98=ORIENTED_EDGE('',*,*,#149,.T.);
#99=ORIENTED_EDGE('',*,*,#133,.T.);
#100=ORIENTED_EDGE('',*,*,#138,.F.);
#101=ORIENTED_EDGE('',*,*,#135,.F.);
#102=ORIENTED_EDGE('',*,*,#150,.F.);
#103=ORIENTED_EDGE('',*,*,#147,.F.);
#104=ORIENTED_EDGE('',*,*,#144,.F.);
#105=ORIENTED_EDGE('',*,*,#141,.F.);
#106=ORIENTED_EDGE('',*,*,#152,.F.);
#107=ORIENTED_EDGE('',*,*,#131,.F.);
#108=ORIENTED_EDGE('',*,*,#152,.T.);
#109=ORIENTED_EDGE('',*,*,#153,.F.);
#110=ORIENTED_EDGE('',*,*,#151,.T.);
#111=ORIENTED_EDGE('',*,*,#154,.T.);
#112=ORIENTED_EDGE('',*,*,#155,.F.);
#113=ORIENTED_EDGE('',*,*,#156,.T.);
#114=ORIENTED_EDGE('',*,*,#132,.F.);
#115=ORIENTED_EDGE('',*,*,#156,.F.);
#116=ORIENTED_EDGE('',*,*,#154,.F.);
#117=ORIENTED_EDGE('',*,*,#155,.T.);
#118=ORIENTED_EDGE('',*,*,#153,.T.);
#119=ORIENTED_EDGE('',*,*,#157,.T.);
#120=ORIENTED_EDGE('',*,*,#158,.F.);
#121=ORIENTED_EDGE('',*,*,#157,.F.);
#122=ORIENTED_EDGE('',*,*,#159,.T.);
#123=ORIENTED_EDGE('',*,*,#129,.T.);
#124=ORIENTED_EDGE('',*,*,#159,.F.);
#125=ORIENTED_EDGE('',*,*,#158,.T.);
#126=ORIENTED_EDGE('',*,*,#160,.T.);
#127=ORIENTED_EDGE('',*,*,#130,.F.);
#128=ORIENTED_EDGE('',*,*,#160,.F.);
#129=EDGE_CURVE('',#161,#161,#187,.T.);
#130=EDGE_CURVE('',#162,#162,#188,.T.);
#131=EDGE_CURVE('',#163,#163,#189,.T.);
#132=EDGE_CURVE('',#164,#164,#190,.F.);
#133=EDGE_CURVE('',#165,#166,#29,.T.);
#134=EDGE_CURVE('',#165,#167,#30,.T.);
#135=EDGE_CURVE('',#167,#168,#31,.T.);
#136=EDGE_CURVE('',#166,#168,#32,.T.);
#137=EDGE_CURVE('',#166,#169,#33,.T.);
#138=EDGE_CURVE('',#168,#170,#34,.T.);
#139=EDGE_CURVE('',#169,#170,#35,.T.);
#140=EDGE_CURVE('',#169,#171,#36,.T.);
#141=EDGE_CURVE('',#170,#172,#37,.T.);
#142=EDGE_CURVE('',#171,#172,#38,.T.);
#143=EDGE_CURVE('',#171,#173,#39,.T.);
#144=EDGE_CURVE('',#172,#174,#40,.T.);
#145=EDGE_CURVE('',#173,#174,#41,.T.);
#146=EDGE_CURVE('',#173,#175,#42,.T.);
#147=EDGE_CURVE('',#174,#176,#43,.T.);
#148=EDGE_CURVE('',#175,#176,#44,.T.);
#149=EDGE_CURVE('',#175,#165,#45,.T.);
#150=EDGE_CURVE('',#176,#167,#46,.T.);
#151=EDGE_CURVE('',#177,#177,#191,.T.);
#152=EDGE_CURVE('',#178,#178,#192,.F.);
#153=EDGE_CURVE('',#179,#179,#193,.F.);
#154=EDGE_CURVE('',#180,#180,#194,.T.);
#155=EDGE_CURVE('',#181,#181,#195,.T.);
#156=EDGE_CURVE('',#182,#182,#196,.F.);
#157=EDGE_CURVE('',#183,#183,#197,.T.);
#158=EDGE_CURVE('',#184,#184,#198,.F.);
#159=EDGE_CURVE('',#185,#185,#199,.F.);
#160=EDGE_CURVE('',#186,#186,#200,.T.);
#161=VERTEX_POINT('',#600);
#162=VERTEX_POINT('',#602);
#163=VERTEX_POINT('',#605);
#164=VERTEX_POINT('',#607);
#165=VERTEX_POINT('',#610);
#166=VERTEX_POINT('',#611);
#167=VERTEX_POINT('',#613);
#168=VERTEX_POINT('',#615);
#169=VERTEX_POINT('',#619);
#170=VERTEX_POINT('',#621);
#171=VERTEX_POINT('',#625);
#172=VERTEX_POINT('',#627);
#173=VERTEX_POINT('',#631);
#174=VERTEX_POINT('',#633);
#175=VERTEX_POINT('',#637);
#176=VERTEX_POINT('',#639);
#177=VERTEX_POINT('',#646);
#178=VERTEX_POINT('',#649);
#179=VERTEX_POINT('',#653);
#180=VERTEX_POINT('',#656);
#181=VERTEX_POINT('',#658);
#182=VERTEX_POINT('',#661);
#183=VERTEX_POINT('',#666);
#184=VERTEX_POINT('',#669);
#185=VERTEX_POINT('',#672);
#186=VERTEX_POINT('',#676);
#187=CIRCLE('',#470,13.5);
#188=CIRCLE('',#471,11.);
#189=CIRCLE('',#473,12.7051278990096);
#190=CIRCLE('',#474,9.5);
#191=CIRCLE('',#482,12.25);
#192=CIRCLE('',#484,13.2364044479797);
#193=CIRCLE('',#487,12.25);
#194=CIRCLE('',#489,10.75);
#195=CIRCLE('',#490,10.75);
#196=CIRCLE('',#492,9.5);
#197=CIRCLE('',#496,12.5);
#198=CIRCLE('',#498,12.5);
#199=CIRCLE('',#500,13.5);
#200=CIRCLE('',#503,11.);
#201=EDGE_LOOP('',(#65));
#202=EDGE_LOOP('',(#66));
#203=EDGE_LOOP('',(#67));
#204=EDGE_LOOP('',(#68));
#205=EDGE_LOOP('',(#69,#70,#71,#72));
#206=EDGE_LOOP('',(#73,#74,#75,#76));
#207=EDGE_LOOP('',(#77,#78,#79,#80));
#208=EDGE_LOOP('',(#81,#82,#83,#84));
#209=EDGE_LOOP('',(#85,#86,#87,#88));
#210=EDGE_LOOP('',(#89,#90,#91,#92));
#211=EDGE_LOOP('',(#93));
#212=EDGE_LOOP('',(#94,#95,#96,#97,#98,#99));
#213=EDGE_LOOP('',(#100,#101,#102,#103,#104,#105));
#214=EDGE_LOOP('',(#106));
#215=EDGE_LOOP('',(#107));
#216=EDGE_LOOP('',(#108));
#217=EDGE_LOOP('',(#109));
#218=EDGE_LOOP('',(#110));
#219=EDGE_LOOP('',(#111));
#220=EDGE_LOOP('',(#112));
#221=EDGE_LOOP('',(#113));
#222=EDGE_LOOP('',(#114));
#223=EDGE_LOOP('',(#115));
#224=EDGE_LOOP('',(#116));
#225=EDGE_LOOP('',(#117));
#226=EDGE_LOOP('',(#118));
#227=EDGE_LOOP('',(#119));
#228=EDGE_LOOP('',(#120));
#229=EDGE_LOOP('',(#121));
#230=EDGE_LOOP('',(#122));
#231=EDGE_LOOP('',(#123));
#232=EDGE_LOOP('',(#124));
#233=EDGE_LOOP('',(#125));
#234=EDGE_LOOP('',(#126));
#235=EDGE_LOOP('',(#127));
#236=EDGE_LOOP('',(#128));
#237=FACE_BOUND('',#201,.T.);
#238=FACE_BOUND('',#202,.T.);
#239=FACE_BOUND('',#203,.T.);
#240=FACE_BOUND('',#204,.T.);
#241=FACE_BOUND('',#205,.T.);
#242=FACE_BOUND('',#206,.T.);
#243=FACE_BOUND('',#207,.T.);
#244=FACE_BOUND('',#208,.T.);
#245=FACE_BOUND('',#209,.T.);
#246=FACE_BOUND('',#210,.T.);
#247=FACE_BOUND('',#211,.T.);
#248=FACE_BOUND('',#212,.T.);
#249=FACE_BOUND('',#213,.T.);
#250=FACE_BOUND('',#214,.T.);
#251=FACE_BOUND('',#215,.T.);
#252=FACE_BOUND('',#216,.T.);
#253=FACE_BOUND('',#217,.T.);
#254=FACE_BOUND('',#218,.T.);
#255=FACE_BOUND('',#219,.T.);
#256=FACE_BOUND('',#220,.T.);
#257=FACE_BOUND('',#221,.T.);
#258=FACE_BOUND('',#222,.T.);
#259=FACE_BOUND('',#223,.T.);
#260=FACE_BOUND('',#224,.T.);
#261=FACE_BOUND('',#225,.T.);
#262=FACE_BOUND('',#226,.T.);
#263=FACE_BOUND('',#227,.T.);
#264=FACE_BOUND('',#228,.T.);
#265=FACE_BOUND('',#229,.T.);
#266=FACE_BOUND('',#230,.T.);
#267=FACE_BOUND('',#231,.T.);
#268=FACE_BOUND('',#232,.T.);
#269=FACE_BOUND('',#233,.T.);
#270=FACE_BOUND('',#234,.T.);
#271=FACE_BOUND('',#235,.T.);
#272=FACE_BOUND('',#236,.T.);
#273=PLANE('',#469);
#274=PLANE('',#472);
#275=PLANE('',#475);
#276=PLANE('',#476);
#277=PLANE('',#477);
#278=PLANE('',#478);
#279=PLANE('',#479);
#280=PLANE('',#480);
#281=PLANE('',#481);
#282=PLANE('',#483);
#283=PLANE('',#494);
#284=PLANE('',#495);
#285=PLANE('',#504);
#286=STYLED_ITEM('',(#308),#442);
#287=STYLED_ITEM('',(#309),#443);
#288=STYLED_ITEM('',(#310),#444);
#289=STYLED_ITEM('',(#311),#445);
#290=STYLED_ITEM('',(#312),#446);
#291=STYLED_ITEM('',(#313),#447);
#292=STYLED_ITEM('',(#314),#448);
#293=STYLED_ITEM('',(#315),#449);
#294=STYLED_ITEM('',(#316),#450);
#295=STYLED_ITEM('',(#317),#451);
#296=STYLED_ITEM('',(#318),#452);
#297=STYLED_ITEM('',(#319),#453);
#298=STYLED_ITEM('',(#320),#454);
#299=STYLED_ITEM('',(#321),#455);
#300=STYLED_ITEM('',(#322),#456);
#301=STYLED_ITEM('',(#323),#457);
#302=STYLED_ITEM('',(#324),#458);
#303=STYLED_ITEM('',(#325),#459);
#304=STYLED_ITEM('',(#326),#460);
#305=STYLED_ITEM('',(#327),#461);
#306=STYLED_ITEM('',(#328),#462);
#307=STYLED_ITEM('',(#329),#463);
#308=PRESENTATION_STYLE_ASSIGNMENT((#330));
#309=PRESENTATION_STYLE_ASSIGNMENT((#331));
#310=PRESENTATION_STYLE_ASSIGNMENT((#332));
#311=PRESENTATION_STYLE_ASSIGNMENT((#333));
#312=PRESENTATION_STYLE_ASSIGNMENT((#334));
#313=PRESENTATION_STYLE_ASSIGNMENT((#335));
#314=PRESENTATION_STYLE_ASSIGNMENT((#336));
#315=PRESENTATION_STYLE_ASSIGNMENT((#337));
#316=PRESENTATION_STYLE_ASSIGNMENT((#338));
#317=PRESENTATION_STYLE_ASSIGNMENT((#339));
#318=PRESENTATION_STYLE_ASSIGNMENT((#340));
#319=PRESENTATION_STYLE_ASSIGNMENT((#341));
#320=PRESENTATION_STYLE_ASSIGNMENT((#342));
#321=PRESENTATION_STYLE_ASSIGNMENT((#343));
#322=PRESENTATION_STYLE_ASSIGNMENT((#344));
#323=PRESENTATION_STYLE_ASSIGNMENT((#345));
#324=PRESENTATION_STYLE_ASSIGNMENT((#346));
#325=PRESENTATION_STYLE_ASSIGNMENT((#347));
#326=PRESENTATION_STYLE_ASSIGNMENT((#348));
#327=PRESENTATION_STYLE_ASSIGNMENT((#349));
#328=PRESENTATION_STYLE_ASSIGNMENT((#350));
#329=PRESENTATION_STYLE_ASSIGNMENT((#351));
#330=SURFACE_STYLE_USAGE(.BOTH.,#352);
#331=SURFACE_STYLE_USAGE(.BOTH.,#353);
#332=SURFACE_STYLE_USAGE(.BOTH.,#354);
#333=SURFACE_STYLE_USAGE(.BOTH.,#355);
#334=SURFACE_STYLE_USAGE(.BOTH.,#356);
#335=SURFACE_STYLE_USAGE(.BOTH.,#357);
#336=SURFACE_STYLE_USAGE(.BOTH.,#358);
#337=SURFACE_STYLE_USAGE(.BOTH.,#359);
#338=SURFACE_STYLE_USAGE(.BOTH.,#360);
#339=SURFACE_STYLE_USAGE(.BOTH.,#361);
#340=SURFACE_STYLE_USAGE(.BOTH.,#362);
#341=SURFACE_STYLE_USAGE(.BOTH.,#363);
#342=SURFACE_STYLE_USAGE(.BOTH.,#364);
#343=SURFACE_STYLE_USAGE(.BOTH.,#365);
#344=SURFACE_STYLE_USAGE(.BOTH.,#366);
#345=SURFACE_STYLE_USAGE(.BOTH.,#367);
#346=SURFACE_STYLE_USAGE(.BOTH.,#368);
#347=SURFACE_STYLE_USAGE(.BOTH.,#369);
#348=SURFACE_STYLE_USAGE(.BOTH.,#370);
#349=SURFACE_STYLE_USAGE(.BOTH.,#371);
#350=SURFACE_STYLE_USAGE(.BOTH.,#372);
#351=SURFACE_STYLE_USAGE(.BOTH.,#373);
#352=SURFACE_SIDE_STYLE('',(#374));
#353=SURFACE_SIDE_STYLE('',(#375));
#354=SURFACE_SIDE_STYLE('',(#376));
#355=SURFACE_SIDE_STYLE('',(#377));
#356=SURFACE_SIDE_STYLE('',(#378));
#357=SURFACE_SIDE_STYLE('',(#379));
#358=SURFACE_SIDE_STYLE('',(#380));
#359=SURFACE_SIDE_STYLE('',(#381));
#360=SURFACE_SIDE_STYLE('',(#382));
#361=SURFACE_SIDE_STYLE('',(#383));
#362=SURFACE_SIDE_STYLE('',(#384));
#363=SURFACE_SIDE_STYLE('',(#385));
#364=SURFACE_SIDE_STYLE('',(#386));
#365=SURFACE_SIDE_STYLE('',(#387));
#366=SURFACE_SIDE_STYLE('',(#388));
#367=SURFACE_SIDE_STYLE('',(#389));
#368=SURFACE_SIDE_STYLE('',(#390));
#369=SURFACE_SIDE_STYLE('',(#391));
#370=SURFACE_SIDE_STYLE('',(#392));
#371=SURFACE_SIDE_STYLE('',(#393));
#372=SURFACE_SIDE_STYLE('',(#394));
#373=SURFACE_SIDE_STYLE('',(#395));
#374=SURFACE_STYLE_FILL_AREA(#396);
#375=SURFACE_STYLE_FILL_AREA(#397);
#376=SURFACE_STYLE_FILL_AREA(#398);
#377=SURFACE_STYLE_FILL_AREA(#399);
#378=SURFACE_STYLE_FILL_AREA(#400);
#379=SURFACE_STYLE_FILL_AREA(#401);
#380=SURFACE_STYLE_FILL_AREA(#402);
#381=SURFACE_STYLE_FILL_AREA(#403);
#382=SURFACE_STYLE_FILL_AREA(#404);
#383=SURFACE_STYLE_FILL_AREA(#405);
#384=SURFACE_STYLE_FILL_AREA(#406);
#385=SURFACE_STYLE_FILL_AREA(#407);
#386=SURFACE_STYLE_FILL_AREA(#408);
#387=SURFACE_STYLE_FILL_AREA(#409);
#388=SURFACE_STYLE_FILL_AREA(#410);
#389=SURFACE_STYLE_FILL_AREA(#411);
#390=SURFACE_STYLE_FILL_AREA(#412);
#391=SURFACE_STYLE_FILL_AREA(#413);
#392=SURFACE_STYLE_FILL_AREA(#414);
#393=SURFACE_STYLE_FILL_AREA(#415);
#394=SURFACE_STYLE_FILL_AREA(#416);
#395=SURFACE_STYLE_FILL_AREA(#417);
#396=FILL_AREA_STYLE('',(#418));
#397=FILL_AREA_STYLE('',(#419));
#398=FILL_AREA_STYLE('',(#420));
#399=FILL_AREA_STYLE('',(#421));
#400=FILL_AREA_STYLE('',(#422));
#401=FILL_AREA_STYLE('',(#423));
#402=FILL_AREA_STYLE('',(#424));
#403=FILL_AREA_STYLE('',(#425));
#404=FILL_AREA_STYLE('',(#426));
#405=FILL_AREA_STYLE('',(#427));
#406=FILL_AREA_STYLE('',(#428));
#407=FILL_AREA_STYLE('',(#429));
#408=FILL_AREA_STYLE('',(#430));
#409=FILL_AREA_STYLE('',(#431));
#410=FILL_AREA_STYLE('',(#432));
#411=FILL_AREA_STYLE('',(#433));
#412=FILL_AREA_STYLE('',(#434));
#413=FILL_AREA_STYLE('',(#435));
#414=FILL_AREA_STYLE('',(#436));
#415=FILL_AREA_STYLE('',(#437));
#416=FILL_AREA_STYLE('',(#438));
#417=FILL_AREA_STYLE('',(#439));
#418=FILL_AREA_STYLE_COLOUR('',#440);
#419=FILL_AREA_STYLE_COLOUR('',#440);
#420=FILL_AREA_STYLE_COLOUR('',#440);
#421=FILL_AREA_STYLE_COLOUR('',#440);
#422=FILL_AREA_STYLE_COLOUR('',#440);
#423=FILL_AREA_STYLE_COLOUR('',#440);
#424=FILL_AREA_STYLE_COLOUR('',#440);
#425=FILL_AREA_STYLE_COLOUR('',#440);
#426=FILL_AREA_STYLE_COLOUR('',#440);
#427=FILL_AREA_STYLE_COLOUR('',#440);
#428=FILL_AREA_STYLE_COLOUR('',#441);
#429=FILL_AREA_STYLE_COLOUR('',#440);
#430=FILL_AREA_STYLE_COLOUR('',#440);
#431=FILL_AREA_STYLE_COLOUR('',#440);
#432=FILL_AREA_STYLE_COLOUR('',#440);
#433=FILL_AREA_STYLE_COLOUR('',#440);
#434=FILL_AREA_STYLE_COLOUR('',#440);
#435=FILL_AREA_STYLE_COLOUR('',#440);
#436=FILL_AREA_STYLE_COLOUR('',#440);
#437=FILL_AREA_STYLE_COLOUR('',#440);
#438=FILL_AREA_STYLE_COLOUR('',#440);
#439=FILL_AREA_STYLE_COLOUR('',#440);
#440=COLOUR_RGB('',0.119999997317791,0.75,0.119999997317791);
#441=COLOUR_RGB('',0.396078497171402,0.941176474094391,0.450980395078659);
#442=ADVANCED_FACE('',(#237,#238),#273,.F.);
#443=ADVANCED_FACE('',(#239,#240),#274,.T.);
#444=ADVANCED_FACE('',(#241),#275,.F.);
#445=ADVANCED_FACE('',(#242),#276,.F.);
#446=ADVANCED_FACE('',(#243),#277,.F.);
#447=ADVANCED_FACE('',(#244),#278,.F.);
#448=ADVANCED_FACE('',(#245),#279,.F.);
#449=ADVANCED_FACE('',(#246),#280,.F.);
#450=ADVANCED_FACE('',(#247,#248),#281,.T.);
#451=ADVANCED_FACE('',(#249,#250),#282,.F.);
#452=ADVANCED_FACE('',(#251,#252),#26,.T.);
#453=ADVANCED_FACE('',(#253,#254),#20,.T.);
#454=ADVANCED_FACE('',(#255,#256),#21,.F.);
#455=ADVANCED_FACE('',(#257,#258),#22,.F.);
#456=ADVANCED_FACE('',(#259,#260),#27,.F.);
#457=ADVANCED_FACE('',(#261),#283,.T.);
#458=ADVANCED_FACE('',(#262,#263),#284,.T.);
#459=ADVANCED_FACE('',(#264,#265),#23,.T.);
#460=ADVANCED_FACE('',(#266,#267),#24,.T.);
#461=ADVANCED_FACE('',(#268,#269),#28,.T.);
#462=ADVANCED_FACE('',(#270,#271),#25,.F.);
#463=ADVANCED_FACE('',(#272),#285,.F.);
#464=CLOSED_SHELL('',(#442,#443,#444,#445,#446,#447,#448,#449,#450,#451,
#452,#453,#454,#455,#456,#457,#458,#459,#460,#461,#462,#463));
#465=MANIFOLD_SOLID_BREP('',#464);
#466=SHAPE_DEFINITION_REPRESENTATION(#684,#467);
#467=SHAPE_REPRESENTATION('F18R3-4DN22',(#468),#679);
#468=AXIS2_PLACEMENT_3D('',#597,#505,#506);
#469=AXIS2_PLACEMENT_3D('',#598,#507,#508);
#470=AXIS2_PLACEMENT_3D('',#599,#509,#510);
#471=AXIS2_PLACEMENT_3D('',#601,#511,#512);
#472=AXIS2_PLACEMENT_3D('',#603,#513,#514);
#473=AXIS2_PLACEMENT_3D('',#604,#515,#516);
#474=AXIS2_PLACEMENT_3D('',#606,#517,#518);
#475=AXIS2_PLACEMENT_3D('',#608,#519,#520);
#476=AXIS2_PLACEMENT_3D('',#617,#525,#526);
#477=AXIS2_PLACEMENT_3D('',#623,#530,#531);
#478=AXIS2_PLACEMENT_3D('',#629,#535,#536);
#479=AXIS2_PLACEMENT_3D('',#635,#540,#541);
#480=AXIS2_PLACEMENT_3D('',#641,#545,#546);
#481=AXIS2_PLACEMENT_3D('',#644,#549,#550);
#482=AXIS2_PLACEMENT_3D('',#645,#551,#552);
#483=AXIS2_PLACEMENT_3D('',#647,#553,#554);
#484=AXIS2_PLACEMENT_3D('',#648,#555,#556);
#485=AXIS2_PLACEMENT_3D('',#650,#557,#558);
#486=AXIS2_PLACEMENT_3D('',#651,#559,#560);
#487=AXIS2_PLACEMENT_3D('',#652,#561,#562);
#488=AXIS2_PLACEMENT_3D('',#654,#563,#564);
#489=AXIS2_PLACEMENT_3D('',#655,#565,#566);
#490=AXIS2_PLACEMENT_3D('',#657,#567,#568);
#491=AXIS2_PLACEMENT_3D('',#659,#569,#570);
#492=AXIS2_PLACEMENT_3D('',#660,#571,#572);
#493=AXIS2_PLACEMENT_3D('',#662,#573,#574);
#494=AXIS2_PLACEMENT_3D('',#663,#575,#576);
#495=AXIS2_PLACEMENT_3D('',#664,#577,#578);
#496=AXIS2_PLACEMENT_3D('',#665,#579,#580);
#497=AXIS2_PLACEMENT_3D('',#667,#581,#582);
#498=AXIS2_PLACEMENT_3D('',#668,#583,#584);
#499=AXIS2_PLACEMENT_3D('',#670,#585,#586);
#500=AXIS2_PLACEMENT_3D('',#671,#587,#588);
#501=AXIS2_PLACEMENT_3D('',#673,#589,#590);
#502=AXIS2_PLACEMENT_3D('',#674,#591,#592);
#503=AXIS2_PLACEMENT_3D('',#675,#593,#594);
#504=AXIS2_PLACEMENT_3D('',#677,#595,#596);
#505=DIRECTION('',(0.,0.,1.));
#506=DIRECTION('',(1.,0.,0.));
#507=DIRECTION('',(1.98254111540207E-16,-1.,0.));
#508=DIRECTION('',(1.,1.98254111540207E-16,0.));
#509=DIRECTION('',(0.,-1.,0.));
#510=DIRECTION('',(-1.,0.,0.));
#511=DIRECTION('',(0.,-1.,0.));
#512=DIRECTION('',(-1.,0.,0.));
#513=DIRECTION('',(0.,-1.,0.));
#514=DIRECTION('',(0.,0.,-1.));
#515=DIRECTION('',(0.,-1.,0.));
#516=DIRECTION('',(0.,0.,-1.));
#517=DIRECTION('',(0.,-1.,0.));
#518=DIRECTION('',(0.,0.,-1.));
#519=DIRECTION('',(0.866025403784437,0.,-0.500000000000002));
#520=DIRECTION('',(-0.500000000000003,0.,-0.866025403784437));
#521=DIRECTION('',(0.500000000000003,0.,0.866025403784437));
#522=DIRECTION('',(0.,-1.,0.));
#523=DIRECTION('',(0.500000000000003,0.,0.866025403784437));
#524=DIRECTION('',(0.,-1.,0.));
#525=DIRECTION('',(-1.30200598557221E-15,0.,-1.));
#526=DIRECTION('',(-1.,0.,1.30200598557221E-15));
#527=DIRECTION('',(1.,0.,-1.30200598557221E-15));
#528=DIRECTION('',(1.,0.,-1.30200598557221E-15));
#529=DIRECTION('',(0.,-1.,0.));
#530=DIRECTION('',(-0.866025403784439,0.,-0.5));
#531=DIRECTION('',(-0.5,0.,0.866025403784439));
#532=DIRECTION('',(0.5,0.,-0.866025403784439));
#533=DIRECTION('',(0.5,0.,-0.866025403784439));
#534=DIRECTION('',(0.,-1.,0.));
#535=DIRECTION('',(-0.866025403784438,0.,0.500000000000001));
#536=DIRECTION('',(0.500000000000001,0.,0.866025403784438));
#537=DIRECTION('',(-0.500000000000001,0.,-0.866025403784438));
#538=DIRECTION('',(-0.500000000000001,0.,-0.866025403784438));
#539=DIRECTION('',(0.,-1.,0.));
#540=DIRECTION('',(1.60246890531964E-15,0.,1.));
#541=DIRECTION('',(1.,0.,-1.60246890531964E-15));
#542=DIRECTION('',(-1.,0.,1.60246890531964E-15));
#543=DIRECTION('',(-1.,0.,1.60246890531964E-15));
#544=DIRECTION('',(0.,-1.,0.));
#545=DIRECTION('',(0.86602540378444,0.,0.499999999999998));
#546=DIRECTION('',(0.499999999999998,0.,-0.86602540378444));
#547=DIRECTION('',(-0.499999999999998,0.,0.86602540378444));
#548=DIRECTION('',(-0.499999999999998,0.,0.86602540378444));
#549=DIRECTION('',(0.,1.,0.));
#550=DIRECTION('',(0.,0.,1.));
#551=DIRECTION('',(0.,1.,0.));
#552=DIRECTION('',(0.,0.,1.));
#553=DIRECTION('',(0.,1.,0.));
#554=DIRECTION('',(0.,0.,1.));
#555=DIRECTION('',(0.,1.,0.));
#556=DIRECTION('',(0.,0.,1.));
#557=DIRECTION('',(0.,1.,0.));
#558=DIRECTION('',(0.,0.,1.));
#559=DIRECTION('',(0.,-1.,0.));
#560=DIRECTION('',(0.,0.,-1.));
#561=DIRECTION('',(1.98254111540207E-16,-1.,0.));
#562=DIRECTION('',(1.,1.98254111540207E-16,0.));
#563=DIRECTION('',(0.,1.,0.));
#564=DIRECTION('',(0.,0.,1.));
#565=DIRECTION('',(0.,-1.,0.));
#566=DIRECTION('',(0.,0.,-1.));
#567=DIRECTION('',(0.,-1.,0.));
#568=DIRECTION('',(0.,0.,-1.));
#569=DIRECTION('',(0.,-1.,0.));
#570=DIRECTION('',(0.,0.,-1.));
#571=DIRECTION('',(0.,-1.,0.));
#572=DIRECTION('',(0.,0.,-1.));
#573=DIRECTION('',(0.,1.,0.));
#574=DIRECTION('',(0.,0.,1.));
#575=DIRECTION('',(1.98254111540207E-16,-1.,0.));
#576=DIRECTION('',(1.,1.98254111540207E-16,0.));
#577=DIRECTION('',(1.98254111540207E-16,-1.,0.));
#578=DIRECTION('',(1.,1.98254111540207E-16,0.));
#579=DIRECTION('',(1.98254111540207E-16,-1.,0.));
#580=DIRECTION('',(-1.,-1.98254111540207E-16,0.));
#581=DIRECTION('',(0.,-1.,0.));
#582=DIRECTION('',(0.,0.,-1.));
#583=DIRECTION('',(0.,-1.,0.));
#584=DIRECTION('',(0.,0.,-1.));
#585=DIRECTION('',(-1.98254111540206E-16,1.,0.));
#586=DIRECTION('',(-1.,-1.98254111540206E-16,0.));
#587=DIRECTION('',(1.98254111540206E-16,-1.,0.));
#588=DIRECTION('',(1.,1.98254111540206E-16,0.));
#589=DIRECTION('',(-1.98254111540206E-16,1.,0.));
#590=DIRECTION('',(-1.,-1.98254111540206E-16,0.));
#591=DIRECTION('',(-1.98254111540207E-16,1.,0.));
#592=DIRECTION('',(-1.,-1.98254111540207E-16,0.));
#593=DIRECTION('',(0.,-1.,0.));
#594=DIRECTION('',(-1.,0.,0.));
#595=DIRECTION('',(0.,-1.,0.));
#596=DIRECTION('',(0.,0.,-1.));
#597=CARTESIAN_POINT('',(0.,0.,0.));
#598=CARTESIAN_POINT('',(8.57224447675663E-17,41.5,0.));
#599=CARTESIAN_POINT('',(8.57224447675663E-17,41.5,0.));
#600=CARTESIAN_POINT('',(-13.5,41.5,0.));
#601=CARTESIAN_POINT('',(8.57224447675663E-17,41.5,0.));
#602=CARTESIAN_POINT('',(-11.,41.5,0.));
#603=CARTESIAN_POINT('',(0.,-17.,0.));
#604=CARTESIAN_POINT('',(0.,-17.,0.));
#605=CARTESIAN_POINT('',(0.,-17.,-12.7051278990096));
#606=CARTESIAN_POINT('',(0.,-17.,0.));
#607=CARTESIAN_POINT('',(0.,-17.,-9.5));
#608=CARTESIAN_POINT('',(-17.3205080756887,7.5,5.13675560420523E-14));
#609=CARTESIAN_POINT('',(-17.3205080756887,7.5,5.13675560420523E-14));
#610=CARTESIAN_POINT('',(-17.3205080756887,7.5,5.08372684226899E-14));
#611=CARTESIAN_POINT('',(-8.66025403784431,7.5,15.));
#612=CARTESIAN_POINT('',(-17.3205080756887,7.5,5.03069808033274E-14));
#613=CARTESIAN_POINT('',(-17.3205080756887,0.,5.04317684867967E-14));
#614=CARTESIAN_POINT('',(-17.3205080756887,0.,5.13675560420523E-14));
#615=CARTESIAN_POINT('',(-8.66025403784432,1.73472347597681E-15,15.));
#616=CARTESIAN_POINT('',(-8.66025403784432,7.5,15.));
#617=CARTESIAN_POINT('',(-8.66025403784432,7.5,15.));
#618=CARTESIAN_POINT('',(-8.66025403784432,7.5,15.));
#619=CARTESIAN_POINT('',(8.66025403784439,7.5,15.));
#620=CARTESIAN_POINT('',(-8.66025403784432,0.,15.));
#621=CARTESIAN_POINT('',(8.66025403784439,0.,15.));
#622=CARTESIAN_POINT('',(8.66025403784439,7.5,15.));
#623=CARTESIAN_POINT('',(8.66025403784439,7.5,15.));
#624=CARTESIAN_POINT('',(8.66025403784439,7.5,15.));
#625=CARTESIAN_POINT('',(17.3205080756888,7.5,-6.07153216591882E-15));
#626=CARTESIAN_POINT('',(8.66025403784439,0.,15.));
#627=CARTESIAN_POINT('',(17.3205080756888,0.,-2.16840434497101E-15));
#628=CARTESIAN_POINT('',(17.3205080756888,7.5,-1.73472347597681E-15));
#629=CARTESIAN_POINT('',(17.3205080756888,7.5,-1.73472347597681E-15));
#630=CARTESIAN_POINT('',(17.3205080756888,7.5,-1.73472347597681E-15));
#631=CARTESIAN_POINT('',(8.66025403784437,7.5,-15.));
#632=CARTESIAN_POINT('',(17.3205080756888,0.,-1.73472347597681E-15));
#633=CARTESIAN_POINT('',(8.66025403784437,0.,-15.));
#634=CARTESIAN_POINT('',(8.66025403784437,7.5,-15.));
#635=CARTESIAN_POINT('',(8.66025403784437,7.5,-15.));
#636=CARTESIAN_POINT('',(8.66025403784437,7.5,-15.));
#637=CARTESIAN_POINT('',(-8.66025403784439,7.5,-15.));
#638=CARTESIAN_POINT('',(8.66025403784437,0.,-15.));
#639=CARTESIAN_POINT('',(-8.66025403784439,0.,-15.));
#640=CARTESIAN_POINT('',(-8.66025403784439,7.5,-15.));
#641=CARTESIAN_POINT('',(-8.66025403784439,7.5,-15.));
#642=CARTESIAN_POINT('',(-8.66025403784439,7.5,-15.));
#643=CARTESIAN_POINT('',(-8.66025403784439,0.,-15.));
#644=CARTESIAN_POINT('',(0.,7.5,0.));
#645=CARTESIAN_POINT('',(-6.16297582203915E-30,7.5,0.));
#646=CARTESIAN_POINT('',(-6.16297582203915E-30,7.5,12.25));
#647=CARTESIAN_POINT('',(0.,0.,0.));
#648=CARTESIAN_POINT('',(0.,0.,0.));
#649=CARTESIAN_POINT('',(0.,0.,13.2364044479797));
#650=CARTESIAN_POINT('',(0.,3.1549,0.));
#651=CARTESIAN_POINT('',(-6.16297582203915E-30,12.5,0.));
#652=CARTESIAN_POINT('',(-6.16297582203915E-30,12.5,0.));
#653=CARTESIAN_POINT('',(12.25,12.5,0.));
#654=CARTESIAN_POINT('',(0.,5.5,0.));
#655=CARTESIAN_POINT('',(0.,7.5,0.));
#656=CARTESIAN_POINT('',(0.,7.5,-10.75));
#657=CARTESIAN_POINT('',(0.,12.5,0.));
#658=CARTESIAN_POINT('',(0.,12.5,-10.75));
#659=CARTESIAN_POINT('',(0.,5.5,0.));
#660=CARTESIAN_POINT('',(0.,6.25,0.));
#661=CARTESIAN_POINT('',(0.,6.25,-9.5));
#662=CARTESIAN_POINT('',(0.,7.5,0.));
#663=CARTESIAN_POINT('',(0.,12.5,0.));
#664=CARTESIAN_POINT('',(0.,12.5,0.));
#665=CARTESIAN_POINT('',(0.,12.5,0.));
#666=CARTESIAN_POINT('',(-12.5,12.5,0.));
#667=CARTESIAN_POINT('',(0.,40.1,0.));
#668=CARTESIAN_POINT('',(0.,18.85,0.));
#669=CARTESIAN_POINT('',(0.,18.85,-12.5));
#670=CARTESIAN_POINT('',(4.21289987022939E-15,18.85,0.));
#671=CARTESIAN_POINT('',(4.01464575868918E-15,19.85,0.));
#672=CARTESIAN_POINT('',(13.5,19.85,0.));
#673=CARTESIAN_POINT('',(4.21289987022939E-15,18.85,0.));
#674=CARTESIAN_POINT('',(3.84612976388001E-15,20.7,0.));
#675=CARTESIAN_POINT('',(3.83388370034178E-15,20.5,0.));
#676=CARTESIAN_POINT('',(-11.,20.5,0.));
#677=CARTESIAN_POINT('',(3.83388370034178E-15,20.5,0.));
#678=MECHANICAL_DESIGN_GEOMETRIC_PRESENTATION_REPRESENTATION('',(#286,#287,
#288,#289,#290,#291,#292,#293,#294,#295,#296,#297,#298,#299,#300,#301,#302,
#303,#304,#305,#306,#307),#679);
#679=(
GEOMETRIC_REPRESENTATION_CONTEXT(3)
GLOBAL_UNCERTAINTY_ASSIGNED_CONTEXT((#680))
GLOBAL_UNIT_ASSIGNED_CONTEXT((#683,#682,#681))
REPRESENTATION_CONTEXT('F18R3-4DN22','TOP_LEVEL_ASSEMBLY_PART')
);
#680=UNCERTAINTY_MEASURE_WITH_UNIT(LENGTH_MEASURE(0.005),#683,
'DISTANCE_ACCURACY_VALUE','Maximum Tolerance applied to model');
#681=(
NAMED_UNIT(*)
SI_UNIT($,.STERADIAN.)
SOLID_ANGLE_UNIT()
);
#682=(
NAMED_UNIT(*)
PLANE_ANGLE_UNIT()
SI_UNIT($,.RADIAN.)
);
#683=(
LENGTH_UNIT()
NAMED_UNIT(*)
SI_UNIT(.MILLI.,.METRE.)
);
#684=PRODUCT_DEFINITION_SHAPE('','',#685);
#685=PRODUCT_DEFINITION('','',#687,#686);
#686=PRODUCT_DEFINITION_CONTEXT('',#693,'design');
#687=PRODUCT_DEFINITION_FORMATION_WITH_SPECIFIED_SOURCE('','',#689,
 .NOT_KNOWN.);
#688=PRODUCT_RELATED_PRODUCT_CATEGORY('','',(#689));
#689=PRODUCT('F18R3-4DN22','F18R3-4DN22','F18R3-4DN22',(#691));
#690=PRODUCT_CATEGORY('','');
#691=PRODUCT_CONTEXT('',#693,'mechanical');
#692=APPLICATION_PROTOCOL_DEFINITION('international standard',
'automotive_design',2010,#693);
#693=APPLICATION_CONTEXT(
'core data for automotive mechanical design processes');
ENDSEC;
END-ISO-10303-21;
