ISO-10303-21;
HEADER;
FILE_DESCRIPTION( ( 'Unknown' ), '1' );
FILE_NAME( '//Server/ofimatica/alfredo/Alfredo2/ISOTUBI/PZAS3D/FICHATECNICA/NUMEPRESS/generico 3D/F26R1-2DN22.stp', 'Unknown', ( 'Unknown' ), ( 'Unknown' ), 'PSStep 14.0', 'Unknown', '  ' );
FILE_SCHEMA( ( 'AUTOMOTIVE_DESIGN { 1 0 10303 214 1 1 1 1 }' ) );
ENDSEC;
DATA;
#1 = MECHANICAL_DESIGN_GEOMETRIC_PRESENTATION_REPRESENTATION( ' ', ( #10, #11, #12, #13, #14, #15, #16, #17, #18, #19, #20, #21, #22, #23 ), #6 );
#2 = PRODUCT_DEFINITION_CONTEXT( '', #24, 'design' );
#3 = APPLICATION_PROTOCOL_DEFINITION( 'international standard', 'automotive_design', 2001, #24 );
#4 = PRODUCT_CATEGORY_RELATIONSHIP( 'NONE', 'NONE', #25, #26 );
#5 = SHAPE_DEFINITION_REPRESENTATION( #27, #28 );
#6 =  ( GEOMETRIC_REPRESENTATION_CONTEXT( 3 )GLOBAL_UNCERTAINTY_ASSIGNED_CONTEXT( ( #31 ) )GLOBAL_UNIT_ASSIGNED_CONTEXT( ( #33, #34, #35 ) )REPRESENTATION_CONTEXT( 'NONE', 'WORKSPACE' ) );
#10 = STYLED_ITEM( '', ( #37 ), #38 );
#11 = STYLED_ITEM( '', ( #39 ), #40 );
#12 = STYLED_ITEM( '', ( #41 ), #42 );
#13 = STYLED_ITEM( '', ( #43 ), #44 );
#14 = STYLED_ITEM( '', ( #45 ), #46 );
#15 = STYLED_ITEM( '', ( #47 ), #48 );
#16 = STYLED_ITEM( '', ( #49 ), #50 );
#17 = STYLED_ITEM( '', ( #51 ), #52 );
#18 = STYLED_ITEM( '', ( #53 ), #54 );
#19 = STYLED_ITEM( '', ( #55 ), #56 );
#20 = STYLED_ITEM( '', ( #57 ), #58 );
#21 = STYLED_ITEM( '', ( #59 ), #60 );
#22 = STYLED_ITEM( '', ( #61 ), #62 );
#23 = STYLED_ITEM( '', ( #63 ), #64 );
#24 = APPLICATION_CONTEXT( 'core data for automotive mechanical design processes' );
#25 = PRODUCT_CATEGORY( 'part', 'NONE' );
#26 = PRODUCT_RELATED_PRODUCT_CATEGORY( 'detail', ' ', ( #65 ) );
#27 = PRODUCT_DEFINITION_SHAPE( 'NONE', 'NONE', #66 );
#28 = ADVANCED_BREP_SHAPE_REPRESENTATION( '1', ( #67, #68 ), #6 );
#31 = UNCERTAINTY_MEASURE_WITH_UNIT( LENGTH_MEASURE( 0.00100000000000000 ), #33, '', '' );
#33 =  ( CONVERSION_BASED_UNIT( 'MILLIMETRE', #71 )LENGTH_UNIT(  )NAMED_UNIT( #74 ) );
#34 =  ( NAMED_UNIT( #76 )PLANE_ANGLE_UNIT(  )SI_UNIT( $, .RADIAN. ) );
#35 =  ( NAMED_UNIT( #76 )SI_UNIT( $, .STERADIAN. )SOLID_ANGLE_UNIT(  ) );
#37 = PRESENTATION_STYLE_ASSIGNMENT( ( #82 ) );
#38 = ADVANCED_FACE( '', ( #83 ), #84, .F. );
#39 = PRESENTATION_STYLE_ASSIGNMENT( ( #85 ) );
#40 = ADVANCED_FACE( '', ( #86, #87 ), #88, .F. );
#41 = PRESENTATION_STYLE_ASSIGNMENT( ( #89 ) );
#42 = ADVANCED_FACE( '', ( #90, #91 ), #92, .T. );
#43 = PRESENTATION_STYLE_ASSIGNMENT( ( #93 ) );
#44 = ADVANCED_FACE( '', ( #94, #95 ), #96, .T. );
#45 = PRESENTATION_STYLE_ASSIGNMENT( ( #97 ) );
#46 = ADVANCED_FACE( '', ( #98, #99 ), #100, .T. );
#47 = PRESENTATION_STYLE_ASSIGNMENT( ( #101 ) );
#48 = ADVANCED_FACE( '', ( #102, #103 ), #104, .F. );
#49 = PRESENTATION_STYLE_ASSIGNMENT( ( #105 ) );
#50 = ADVANCED_FACE( '', ( #106 ), #107, .F. );
#51 = PRESENTATION_STYLE_ASSIGNMENT( ( #108 ) );
#52 = ADVANCED_FACE( '', ( #109 ), #110, .F. );
#53 = PRESENTATION_STYLE_ASSIGNMENT( ( #111 ) );
#54 = ADVANCED_FACE( '', ( #112, #113 ), #114, .T. );
#55 = PRESENTATION_STYLE_ASSIGNMENT( ( #115 ) );
#56 = ADVANCED_FACE( '', ( #116, #117 ), #118, .F. );
#57 = PRESENTATION_STYLE_ASSIGNMENT( ( #119 ) );
#58 = ADVANCED_FACE( '', ( #120 ), #121, .F. );
#59 = PRESENTATION_STYLE_ASSIGNMENT( ( #122 ) );
#60 = ADVANCED_FACE( '', ( #123 ), #124, .F. );
#61 = PRESENTATION_STYLE_ASSIGNMENT( ( #125 ) );
#62 = ADVANCED_FACE( '', ( #126 ), #127, .F. );
#63 = PRESENTATION_STYLE_ASSIGNMENT( ( #128 ) );
#64 = ADVANCED_FACE( '', ( #129, #130 ), #131, .F. );
#65 = PRODUCT( '1', '1', 'PART-1-DESC', ( #132 ) );
#66 = PRODUCT_DEFINITION( 'NONE', 'NONE', #133, #2 );
#67 = MANIFOLD_SOLID_BREP( '1', #134 );
#68 = AXIS2_PLACEMENT_3D( '', #135, #136, #137 );
#71 = LENGTH_MEASURE_WITH_UNIT( LENGTH_MEASURE( 1.00000000000000 ), #138 );
#74 = DIMENSIONAL_EXPONENTS( 1.00000000000000, 0.000000000000000, 0.000000000000000, 0.000000000000000, 0.000000000000000, 0.000000000000000, 0.000000000000000 );
#76 = DIMENSIONAL_EXPONENTS( 0.000000000000000, 0.000000000000000, 0.000000000000000, 0.000000000000000, 0.000000000000000, 0.000000000000000, 0.000000000000000 );
#82 = SURFACE_STYLE_USAGE( .BOTH., #139 );
#83 = FACE_OUTER_BOUND( '', #140, .T. );
#84 = PLANE( '', #141 );
#85 = SURFACE_STYLE_USAGE( .BOTH., #142 );
#86 = FACE_OUTER_BOUND( '', #143, .T. );
#87 = FACE_OUTER_BOUND( '', #144, .T. );
#88 = CYLINDRICAL_SURFACE( '', #145, 9.31550000000000 );
#89 = SURFACE_STYLE_USAGE( .BOTH., #146 );
#90 = FACE_BOUND( '', #147, .T. );
#91 = FACE_OUTER_BOUND( '', #148, .T. );
#92 = PLANE( '', #149 );
#93 = SURFACE_STYLE_USAGE( .BOTH., #150 );
#94 = FACE_OUTER_BOUND( '', #151, .T. );
#95 = FACE_BOUND( '', #152, .T. );
#96 = PLANE( '', #153 );
#97 = SURFACE_STYLE_USAGE( .BOTH., #154 );
#98 = FACE_OUTER_BOUND( '', #155, .T. );
#99 = FACE_OUTER_BOUND( '', #156, .T. );
#100 = CYLINDRICAL_SURFACE( '', #157, 11.0000000000000 );
#101 = SURFACE_STYLE_USAGE( .BOTH., #158 );
#102 = FACE_OUTER_BOUND( '', #159, .T. );
#103 = FACE_OUTER_BOUND( '', #160, .T. );
#104 = CYLINDRICAL_SURFACE( '', #161, 9.31550000000000 );
#105 = SURFACE_STYLE_USAGE( .BOTH., #162 );
#106 = FACE_OUTER_BOUND( '', #163, .T. );
#107 = PLANE( '', #164 );
#108 = SURFACE_STYLE_USAGE( .BOTH., #165 );
#109 = FACE_OUTER_BOUND( '', #166, .T. );
#110 = PLANE( '', #167 );
#111 = SURFACE_STYLE_USAGE( .BOTH., #168 );
#112 = FACE_BOUND( '', #169, .T. );
#113 = FACE_OUTER_BOUND( '', #170, .T. );
#114 = PLANE( '', #171 );
#115 = SURFACE_STYLE_USAGE( .BOTH., #172 );
#116 = FACE_OUTER_BOUND( '', #173, .T. );
#117 = FACE_OUTER_BOUND( '', #174, .T. );
#118 = CYLINDRICAL_SURFACE( '', #175, 9.50000000000000 );
#119 = SURFACE_STYLE_USAGE( .BOTH., #176 );
#120 = FACE_OUTER_BOUND( '', #177, .T. );
#121 = PLANE( '', #178 );
#122 = SURFACE_STYLE_USAGE( .BOTH., #179 );
#123 = FACE_OUTER_BOUND( '', #180, .T. );
#124 = PLANE( '', #181 );
#125 = SURFACE_STYLE_USAGE( .BOTH., #182 );
#126 = FACE_OUTER_BOUND( '', #183, .T. );
#127 = PLANE( '', #184 );
#128 = SURFACE_STYLE_USAGE( .BOTH., #185 );
#129 = FACE_BOUND( '', #186, .T. );
#130 = FACE_OUTER_BOUND( '', #187, .T. );
#131 = PLANE( '', #188 );
#132 = PRODUCT_CONTEXT( '', #24, 'mechanical' );
#133 = PRODUCT_DEFINITION_FORMATION_WITH_SPECIFIED_SOURCE( ' ', 'NONE', #65, .NOT_KNOWN. );
#134 = CLOSED_SHELL( '', ( #48, #40, #50, #58, #54, #46, #64, #62, #38, #42, #56, #44, #60, #52 ) );
#135 = CARTESIAN_POINT( '', ( 0.000000000000000, 0.000000000000000, 0.000000000000000 ) );
#136 = DIRECTION( '', ( 0.000000000000000, 0.000000000000000, 1.00000000000000 ) );
#137 = DIRECTION( '', ( 1.00000000000000, 0.000000000000000, 0.000000000000000 ) );
#138 =  ( LENGTH_UNIT(  )NAMED_UNIT( #74 )SI_UNIT( .MILLI., .METRE. ) );
#139 = SURFACE_SIDE_STYLE( '', ( #190 ) );
#140 = EDGE_LOOP( '', ( #191, #192, #193, #194 ) );
#141 = AXIS2_PLACEMENT_3D( '', #195, #196, #197 );
#142 = SURFACE_SIDE_STYLE( '', ( #198 ) );
#143 = EDGE_LOOP( '', ( #199 ) );
#144 = EDGE_LOOP( '', ( #200 ) );
#145 = AXIS2_PLACEMENT_3D( '', #201, #202, #203 );
#146 = SURFACE_SIDE_STYLE( '', ( #204 ) );
#147 = EDGE_LOOP( '', ( #205 ) );
#148 = EDGE_LOOP( '', ( #206 ) );
#149 = AXIS2_PLACEMENT_3D( '', #207, #208, #209 );
#150 = SURFACE_SIDE_STYLE( '', ( #210 ) );
#151 = EDGE_LOOP( '', ( #211 ) );
#152 = EDGE_LOOP( '', ( #212 ) );
#153 = AXIS2_PLACEMENT_3D( '', #213, #214, #215 );
#154 = SURFACE_SIDE_STYLE( '', ( #216 ) );
#155 = EDGE_LOOP( '', ( #217 ) );
#156 = EDGE_LOOP( '', ( #218 ) );
#157 = AXIS2_PLACEMENT_3D( '', #219, #220, #221 );
#158 = SURFACE_SIDE_STYLE( '', ( #222 ) );
#159 = EDGE_LOOP( '', ( #223 ) );
#160 = EDGE_LOOP( '', ( #224 ) );
#161 = AXIS2_PLACEMENT_3D( '', #225, #226, #227 );
#162 = SURFACE_SIDE_STYLE( '', ( #228 ) );
#163 = EDGE_LOOP( '', ( #229, #230, #231, #232 ) );
#164 = AXIS2_PLACEMENT_3D( '', #233, #234, #235 );
#165 = SURFACE_SIDE_STYLE( '', ( #236 ) );
#166 = EDGE_LOOP( '', ( #237, #238, #239, #240 ) );
#167 = AXIS2_PLACEMENT_3D( '', #241, #242, #243 );
#168 = SURFACE_SIDE_STYLE( '', ( #244 ) );
#169 = EDGE_LOOP( '', ( #245 ) );
#170 = EDGE_LOOP( '', ( #246, #247, #248, #249, #250, #251 ) );
#171 = AXIS2_PLACEMENT_3D( '', #252, #253, #254 );
#172 = SURFACE_SIDE_STYLE( '', ( #255 ) );
#173 = EDGE_LOOP( '', ( #256 ) );
#174 = EDGE_LOOP( '', ( #257 ) );
#175 = AXIS2_PLACEMENT_3D( '', #258, #259, #260 );
#176 = SURFACE_SIDE_STYLE( '', ( #261 ) );
#177 = EDGE_LOOP( '', ( #262, #263, #264, #265 ) );
#178 = AXIS2_PLACEMENT_3D( '', #266, #267, #268 );
#179 = SURFACE_SIDE_STYLE( '', ( #269 ) );
#180 = EDGE_LOOP( '', ( #270, #271, #272, #273 ) );
#181 = AXIS2_PLACEMENT_3D( '', #274, #275, #276 );
#182 = SURFACE_SIDE_STYLE( '', ( #277 ) );
#183 = EDGE_LOOP( '', ( #278, #279, #280, #281 ) );
#184 = AXIS2_PLACEMENT_3D( '', #282, #283, #284 );
#185 = SURFACE_SIDE_STYLE( '', ( #285 ) );
#186 = EDGE_LOOP( '', ( #286 ) );
#187 = EDGE_LOOP( '', ( #287, #288, #289, #290, #291, #292 ) );
#188 = AXIS2_PLACEMENT_3D( '', #293, #294, #295 );
#190 = SURFACE_STYLE_FILL_AREA( #296 );
#191 = ORIENTED_EDGE( '', *, *, #297, .F. );
#192 = ORIENTED_EDGE( '', *, *, #298, .F. );
#193 = ORIENTED_EDGE( '', *, *, #299, .T. );
#194 = ORIENTED_EDGE( '', *, *, #300, .T. );
#195 = CARTESIAN_POINT( '', ( -15.0111069989303, -20.0000000000000, 0.000000000000000 ) );
#196 = DIRECTION( '', ( 0.866025403784439, 0.000000000000000, 0.500000000000000 ) );
#197 = DIRECTION( '', ( 0.500000000000000, 0.000000000000000, -0.866025403784439 ) );
#198 = SURFACE_STYLE_FILL_AREA( #301 );
#199 = ORIENTED_EDGE( '', *, *, #302, .F. );
#200 = ORIENTED_EDGE( '', *, *, #303, .T. );
#201 = CARTESIAN_POINT( '', ( -9.75781955236954E-015, -20.0000000000000, 1.51788304147970E-014 ) );
#202 = DIRECTION( '', ( -0.000000000000000, -1.00000000000000, -0.000000000000000 ) );
#203 = DIRECTION( '', ( 0.000000000000000, 0.000000000000000, -1.00000000000000 ) );
#204 = SURFACE_STYLE_FILL_AREA( #304 );
#205 = ORIENTED_EDGE( '', *, *, #305, .T. );
#206 = ORIENTED_EDGE( '', *, *, #306, .T. );
#207 = CARTESIAN_POINT( '', ( 0.000000000000000, -6.28400000000000, 0.000000000000000 ) );
#208 = DIRECTION( '', ( 0.000000000000000, 1.00000000000000, 0.000000000000000 ) );
#209 = DIRECTION( '', ( 0.000000000000000, 0.000000000000000, 1.00000000000000 ) );
#210 = SURFACE_STYLE_FILL_AREA( #307 );
#211 = ORIENTED_EDGE( '', *, *, #308, .T. );
#212 = ORIENTED_EDGE( '', *, *, #309, .T. );
#213 = CARTESIAN_POINT( '', ( 0.000000000000000, 38.0000000000000, 0.000000000000000 ) );
#214 = DIRECTION( '', ( 0.000000000000000, 1.00000000000000, 0.000000000000000 ) );
#215 = DIRECTION( '', ( 0.000000000000000, 0.000000000000000, 1.00000000000000 ) );
#216 = SURFACE_STYLE_FILL_AREA( #310 );
#217 = ORIENTED_EDGE( '', *, *, #308, .F. );
#218 = ORIENTED_EDGE( '', *, *, #311, .T. );
#219 = CARTESIAN_POINT( '', ( 0.000000000000000, 38.0000000000000, 0.000000000000000 ) );
#220 = DIRECTION( '', ( -0.000000000000000, 1.00000000000000, -0.000000000000000 ) );
#221 = DIRECTION( '', ( 0.000000000000000, 0.000000000000000, -1.00000000000000 ) );
#222 = SURFACE_STYLE_FILL_AREA( #312 );
#223 = ORIENTED_EDGE( '', *, *, #305, .F. );
#224 = ORIENTED_EDGE( '', *, *, #302, .T. );
#225 = CARTESIAN_POINT( '', ( -9.75781955236954E-015, -20.0000000000000, 1.51788304147970E-014 ) );
#226 = DIRECTION( '', ( -0.000000000000000, -1.00000000000000, -0.000000000000000 ) );
#227 = DIRECTION( '', ( 0.000000000000000, 0.000000000000000, -1.00000000000000 ) );
#228 = SURFACE_STYLE_FILL_AREA( #313 );
#229 = ORIENTED_EDGE( '', *, *, #314, .F. );
#230 = ORIENTED_EDGE( '', *, *, #315, .F. );
#231 = ORIENTED_EDGE( '', *, *, #316, .T. );
#232 = ORIENTED_EDGE( '', *, *, #317, .T. );
#233 = CARTESIAN_POINT( '', ( 7.50555349946514, -20.0000000000000, -13.0000000000000 ) );
#234 = DIRECTION( '', ( -0.866025403784439, 0.000000000000000, 0.500000000000000 ) );
#235 = DIRECTION( '', ( 0.499999999999999, 0.000000000000000, 0.866025403784439 ) );
#236 = SURFACE_STYLE_FILL_AREA( #318 );
#237 = ORIENTED_EDGE( '', *, *, #299, .F. );
#238 = ORIENTED_EDGE( '', *, *, #319, .F. );
#239 = ORIENTED_EDGE( '', *, *, #320, .T. );
#240 = ORIENTED_EDGE( '', *, *, #321, .T. );
#241 = CARTESIAN_POINT( '', ( -7.50555349946513, -20.0000000000000, 13.0000000000000 ) );
#242 = DIRECTION( '', ( 0.866025403784439, 0.000000000000000, -0.500000000000000 ) );
#243 = DIRECTION( '', ( -0.500000000000000, 0.000000000000000, -0.866025403784439 ) );
#244 = SURFACE_STYLE_FILL_AREA( #322 );
#245 = ORIENTED_EDGE( '', *, *, #303, .F. );
#246 = ORIENTED_EDGE( '', *, *, #298, .T. );
#247 = ORIENTED_EDGE( '', *, *, #323, .T. );
#248 = ORIENTED_EDGE( '', *, *, #315, .T. );
#249 = ORIENTED_EDGE( '', *, *, #324, .T. );
#250 = ORIENTED_EDGE( '', *, *, #325, .T. );
#251 = ORIENTED_EDGE( '', *, *, #319, .T. );
#252 = CARTESIAN_POINT( '', ( 0.000000000000000, -20.0000000000000, 0.000000000000000 ) );
#253 = DIRECTION( '', ( 0.000000000000000, -1.00000000000000, 0.000000000000000 ) );
#254 = DIRECTION( '', ( 0.000000000000000, 0.000000000000000, -1.00000000000000 ) );
#255 = SURFACE_STYLE_FILL_AREA( #326 );
#256 = ORIENTED_EDGE( '', *, *, #306, .F. );
#257 = ORIENTED_EDGE( '', *, *, #309, .F. );
#258 = CARTESIAN_POINT( '', ( 0.000000000000000, -12.5220418849576, 0.000000000000000 ) );
#259 = DIRECTION( '', ( -0.000000000000000, -1.00000000000000, -0.000000000000000 ) );
#260 = DIRECTION( '', ( 0.000000000000000, 0.000000000000000, 1.00000000000000 ) );
#261 = SURFACE_STYLE_FILL_AREA( #327 );
#262 = ORIENTED_EDGE( '', *, *, #328, .F. );
#263 = ORIENTED_EDGE( '', *, *, #324, .F. );
#264 = ORIENTED_EDGE( '', *, *, #314, .T. );
#265 = ORIENTED_EDGE( '', *, *, #329, .T. );
#266 = CARTESIAN_POINT( '', ( 15.0111069989303, -20.0000000000000, 4.41836451685020E-014 ) );
#267 = DIRECTION( '', ( -0.866025403784438, 0.000000000000000, -0.500000000000000 ) );
#268 = DIRECTION( '', ( -0.500000000000000, 0.000000000000000, 0.866025403784438 ) );
#269 = SURFACE_STYLE_FILL_AREA( #330 );
#270 = ORIENTED_EDGE( '', *, *, #320, .F. );
#271 = ORIENTED_EDGE( '', *, *, #325, .F. );
#272 = ORIENTED_EDGE( '', *, *, #328, .T. );
#273 = ORIENTED_EDGE( '', *, *, #331, .T. );
#274 = CARTESIAN_POINT( '', ( 7.50555349946508, -20.0000000000000, 13.0000000000000 ) );
#275 = DIRECTION( '', ( 1.61787726017849E-015, 0.000000000000000, -1.00000000000000 ) );
#276 = DIRECTION( '', ( -1.00000000000000, 0.000000000000000, -1.61787726017849E-015 ) );
#277 = SURFACE_STYLE_FILL_AREA( #332 );
#278 = ORIENTED_EDGE( '', *, *, #316, .F. );
#279 = ORIENTED_EDGE( '', *, *, #323, .F. );
#280 = ORIENTED_EDGE( '', *, *, #297, .T. );
#281 = ORIENTED_EDGE( '', *, *, #333, .T. );
#282 = CARTESIAN_POINT( '', ( -7.50555349946513, -20.0000000000000, -13.0000000000000 ) );
#283 = DIRECTION( '', ( -1.61787726017848E-015, 0.000000000000000, 1.00000000000000 ) );
#284 = DIRECTION( '', ( 1.00000000000000, 0.000000000000000, 1.61787726017848E-015 ) );
#285 = SURFACE_STYLE_FILL_AREA( #334 );
#286 = ORIENTED_EDGE( '', *, *, #311, .F. );
#287 = ORIENTED_EDGE( '', *, *, #333, .F. );
#288 = ORIENTED_EDGE( '', *, *, #300, .F. );
#289 = ORIENTED_EDGE( '', *, *, #321, .F. );
#290 = ORIENTED_EDGE( '', *, *, #331, .F. );
#291 = ORIENTED_EDGE( '', *, *, #329, .F. );
#292 = ORIENTED_EDGE( '', *, *, #317, .F. );
#293 = CARTESIAN_POINT( '', ( 0.000000000000000, 0.000000000000000, 0.000000000000000 ) );
#294 = DIRECTION( '', ( 0.000000000000000, -1.00000000000000, 0.000000000000000 ) );
#295 = DIRECTION( '', ( 0.000000000000000, 0.000000000000000, -1.00000000000000 ) );
#296 = FILL_AREA_STYLE( '', ( #335 ) );
#297 = EDGE_CURVE( '', #336, #337, #338, .T. );
#298 = EDGE_CURVE( '', #339, #336, #340, .T. );
#299 = EDGE_CURVE( '', #339, #341, #342, .T. );
#300 = EDGE_CURVE( '', #341, #337, #343, .T. );
#301 = FILL_AREA_STYLE( '', ( #344 ) );
#302 = EDGE_CURVE( '', #345, #345, #346, .T. );
#303 = EDGE_CURVE( '', #347, #347, #348, .T. );
#304 = FILL_AREA_STYLE( '', ( #349 ) );
#305 = EDGE_CURVE( '', #350, #350, #351, .T. );
#306 = EDGE_CURVE( '', #352, #352, #353, .T. );
#307 = FILL_AREA_STYLE( '', ( #354 ) );
#308 = EDGE_CURVE( '', #355, #355, #356, .T. );
#309 = EDGE_CURVE( '', #357, #357, #358, .T. );
#310 = FILL_AREA_STYLE( '', ( #359 ) );
#311 = EDGE_CURVE( '', #360, #360, #361, .F. );
#312 = FILL_AREA_STYLE( '', ( #362 ) );
#313 = FILL_AREA_STYLE( '', ( #363 ) );
#314 = EDGE_CURVE( '', #364, #365, #366, .T. );
#315 = EDGE_CURVE( '', #367, #364, #368, .T. );
#316 = EDGE_CURVE( '', #367, #369, #370, .T. );
#317 = EDGE_CURVE( '', #369, #365, #371, .T. );
#318 = FILL_AREA_STYLE( '', ( #372 ) );
#319 = EDGE_CURVE( '', #373, #339, #374, .T. );
#320 = EDGE_CURVE( '', #373, #375, #376, .T. );
#321 = EDGE_CURVE( '', #375, #341, #377, .T. );
#322 = FILL_AREA_STYLE( '', ( #378 ) );
#323 = EDGE_CURVE( '', #336, #367, #379, .T. );
#324 = EDGE_CURVE( '', #364, #380, #381, .T. );
#325 = EDGE_CURVE( '', #380, #373, #382, .T. );
#326 = FILL_AREA_STYLE( '', ( #383 ) );
#327 = FILL_AREA_STYLE( '', ( #384 ) );
#328 = EDGE_CURVE( '', #380, #385, #386, .T. );
#329 = EDGE_CURVE( '', #365, #385, #387, .T. );
#330 = FILL_AREA_STYLE( '', ( #388 ) );
#331 = EDGE_CURVE( '', #385, #375, #389, .T. );
#332 = FILL_AREA_STYLE( '', ( #390 ) );
#333 = EDGE_CURVE( '', #337, #369, #391, .T. );
#334 = FILL_AREA_STYLE( '', ( #392 ) );
#335 = FILL_AREA_STYLE_COLOUR( '', #393 );
#336 = VERTEX_POINT( '', #394 );
#337 = VERTEX_POINT( '', #395 );
#338 = LINE( '', #396, #397 );
#339 = VERTEX_POINT( '', #398 );
#340 = LINE( '', #399, #400 );
#341 = VERTEX_POINT( '', #401 );
#342 = LINE( '', #402, #403 );
#343 = LINE( '', #404, #405 );
#344 = FILL_AREA_STYLE_COLOUR( '', #406 );
#345 = VERTEX_POINT( '', #407 );
#346 = CIRCLE( '', #408, 9.31550000000000 );
#347 = VERTEX_POINT( '', #409 );
#348 = CIRCLE( '', #410, 9.31550000000000 );
#349 = FILL_AREA_STYLE_COLOUR( '', #411 );
#350 = VERTEX_POINT( '', #412 );
#351 = CIRCLE( '', #413, 9.31550000000000 );
#352 = VERTEX_POINT( '', #414 );
#353 = CIRCLE( '', #415, 9.50000000000000 );
#354 = FILL_AREA_STYLE_COLOUR( '', #416 );
#355 = VERTEX_POINT( '', #417 );
#356 = CIRCLE( '', #418, 11.0000000000000 );
#357 = VERTEX_POINT( '', #419 );
#358 = CIRCLE( '', #420, 9.50000000000000 );
#359 = FILL_AREA_STYLE_COLOUR( '', #421 );
#360 = VERTEX_POINT( '', #422 );
#361 = CIRCLE( '', #423, 11.0000000000000 );
#362 = FILL_AREA_STYLE_COLOUR( '', #424 );
#363 = FILL_AREA_STYLE_COLOUR( '', #425 );
#364 = VERTEX_POINT( '', #426 );
#365 = VERTEX_POINT( '', #427 );
#366 = LINE( '', #428, #429 );
#367 = VERTEX_POINT( '', #430 );
#368 = LINE( '', #431, #432 );
#369 = VERTEX_POINT( '', #433 );
#370 = LINE( '', #434, #435 );
#371 = LINE( '', #436, #437 );
#372 = FILL_AREA_STYLE_COLOUR( '', #438 );
#373 = VERTEX_POINT( '', #439 );
#374 = LINE( '', #440, #441 );
#375 = VERTEX_POINT( '', #442 );
#376 = LINE( '', #443, #444 );
#377 = LINE( '', #445, #446 );
#378 = FILL_AREA_STYLE_COLOUR( '', #447 );
#379 = LINE( '', #448, #449 );
#380 = VERTEX_POINT( '', #450 );
#381 = LINE( '', #451, #452 );
#382 = LINE( '', #453, #454 );
#383 = FILL_AREA_STYLE_COLOUR( '', #455 );
#384 = FILL_AREA_STYLE_COLOUR( '', #456 );
#385 = VERTEX_POINT( '', #457 );
#386 = LINE( '', #458, #459 );
#387 = LINE( '', #460, #461 );
#388 = FILL_AREA_STYLE_COLOUR( '', #462 );
#389 = LINE( '', #463, #464 );
#390 = FILL_AREA_STYLE_COLOUR( '', #465 );
#391 = LINE( '', #466, #467 );
#392 = FILL_AREA_STYLE_COLOUR( '', #468 );
#393 = COLOUR_RGB( '', 0.117647059261799, 0.749019622802734, 0.117647059261799 );
#394 = CARTESIAN_POINT( '', ( -7.50555349946513, -20.0000000000000, -13.0000000000000 ) );
#395 = CARTESIAN_POINT( '', ( -7.50555349946513, -1.73472347597680E-015, -13.0000000000000 ) );
#396 = CARTESIAN_POINT( '', ( -7.50555349946513, -20.0000000000000, -13.0000000000000 ) );
#397 = VECTOR( '', #469, 1000.00000000000 );
#398 = CARTESIAN_POINT( '', ( -15.0111069989303, -20.0000000000000, -4.77048955893622E-015 ) );
#399 = CARTESIAN_POINT( '', ( -15.0111069989303, -20.0000000000000, 0.000000000000000 ) );
#400 = VECTOR( '', #470, 999.999999999999 );
#401 = CARTESIAN_POINT( '', ( -15.0111069989303, -5.20417042793042E-015, 0.000000000000000 ) );
#402 = CARTESIAN_POINT( '', ( -15.0111069989303, -20.0000000000000, 0.000000000000000 ) );
#403 = VECTOR( '', #471, 1000.00000000000 );
#404 = CARTESIAN_POINT( '', ( -15.0111069989303, 0.000000000000000, 0.000000000000000 ) );
#405 = VECTOR( '', #472, 999.999999999999 );
#406 = COLOUR_RGB( '', 0.396078437566757, 0.941176474094391, 0.450980395078659 );
#407 = CARTESIAN_POINT( '', ( -9.75781955236954E-015, -9.58600000000000, -9.31549999999999 ) );
#408 = AXIS2_PLACEMENT_3D( '', #473, #474, #475 );
#409 = CARTESIAN_POINT( '', ( -9.75781955236954E-015, -20.0000000000000, -9.31549999999999 ) );
#410 = AXIS2_PLACEMENT_3D( '', #476, #477, #478 );
#411 = COLOUR_RGB( '', 0.117647059261799, 0.749019622802734, 0.117647059261799 );
#412 = CARTESIAN_POINT( '', ( -9.75781955236954E-015, -6.28400000000000, -9.31549999999999 ) );
#413 = AXIS2_PLACEMENT_3D( '', #479, #480, #481 );
#414 = CARTESIAN_POINT( '', ( 0.000000000000000, -6.28400000000000, 9.50000000000000 ) );
#415 = AXIS2_PLACEMENT_3D( '', #482, #483, #484 );
#416 = COLOUR_RGB( '', 0.117647059261799, 0.749019622802734, 0.117647059261799 );
#417 = CARTESIAN_POINT( '', ( 0.000000000000000, 38.0000000000000, 11.0000000000000 ) );
#418 = AXIS2_PLACEMENT_3D( '', #485, #486, #487 );
#419 = CARTESIAN_POINT( '', ( 0.000000000000000, 38.0000000000000, 9.50000000000000 ) );
#420 = AXIS2_PLACEMENT_3D( '', #488, #489, #490 );
#421 = COLOUR_RGB( '', 0.117647059261799, 0.749019622802734, 0.117647059261799 );
#422 = CARTESIAN_POINT( '', ( 0.000000000000000, 0.000000000000000, -11.0000000000000 ) );
#423 = AXIS2_PLACEMENT_3D( '', #491, #492, #493 );
#424 = COLOUR_RGB( '', 0.117647059261799, 0.749019622802734, 0.117647059261799 );
#425 = COLOUR_RGB( '', 0.117647059261799, 0.749019622802734, 0.117647059261799 );
#426 = CARTESIAN_POINT( '', ( 15.0111069989303, -20.0000000000000, 4.29085042959727E-014 ) );
#427 = CARTESIAN_POINT( '', ( 15.0111069989303, -1.73472347597680E-015, 4.38017677684144E-014 ) );
#428 = CARTESIAN_POINT( '', ( 15.0111069989303, -20.0000000000000, 4.41836451685020E-014 ) );
#429 = VECTOR( '', #494, 1000.00000000000 );
#430 = CARTESIAN_POINT( '', ( 7.50555349946514, -20.0000000000000, -13.0000000000000 ) );
#431 = CARTESIAN_POINT( '', ( 7.50555349946514, -20.0000000000000, -13.0000000000000 ) );
#432 = VECTOR( '', #495, 1000.00000000000 );
#433 = CARTESIAN_POINT( '', ( 7.50555349946514, 0.000000000000000, -13.0000000000000 ) );
#434 = CARTESIAN_POINT( '', ( 7.50555349946514, -20.0000000000000, -13.0000000000000 ) );
#435 = VECTOR( '', #496, 1000.00000000000 );
#436 = CARTESIAN_POINT( '', ( 7.50555349946514, 0.000000000000000, -13.0000000000000 ) );
#437 = VECTOR( '', #497, 1000.00000000000 );
#438 = COLOUR_RGB( '', 0.117647059261799, 0.749019622802734, 0.117647059261799 );
#439 = CARTESIAN_POINT( '', ( -7.50555349946513, -20.0000000000000, 13.0000000000000 ) );
#440 = CARTESIAN_POINT( '', ( -7.50555349946513, -20.0000000000000, 13.0000000000000 ) );
#441 = VECTOR( '', #498, 1000.00000000000 );
#442 = CARTESIAN_POINT( '', ( -7.50555349946514, 0.000000000000000, 13.0000000000000 ) );
#443 = CARTESIAN_POINT( '', ( -7.50555349946514, -20.0000000000000, 13.0000000000000 ) );
#444 = VECTOR( '', #499, 1000.00000000000 );
#445 = CARTESIAN_POINT( '', ( -7.50555349946513, 0.000000000000000, 13.0000000000000 ) );
#446 = VECTOR( '', #500, 1000.00000000000 );
#447 = COLOUR_RGB( '', 0.117647059261799, 0.749019622802734, 0.117647059261799 );
#448 = CARTESIAN_POINT( '', ( -7.50555349946513, -20.0000000000000, -13.0000000000000 ) );
#449 = VECTOR( '', #501, 1000.00000000000 );
#450 = CARTESIAN_POINT( '', ( 7.50555349946508, -20.0000000000000, 13.0000000000000 ) );
#451 = CARTESIAN_POINT( '', ( 15.0111069989303, -20.0000000000000, 4.41836451685020E-014 ) );
#452 = VECTOR( '', #502, 999.999999999999 );
#453 = CARTESIAN_POINT( '', ( 7.50555349946508, -20.0000000000000, 13.0000000000000 ) );
#454 = VECTOR( '', #503, 1000.00000000000 );
#455 = COLOUR_RGB( '', 0.117647059261799, 0.749019622802734, 0.117647059261799 );
#456 = COLOUR_RGB( '', 0.117647059261799, 0.749019622802734, 0.117647059261799 );
#457 = CARTESIAN_POINT( '', ( 7.50555349946508, -1.73472347597680E-015, 13.0000000000000 ) );
#458 = CARTESIAN_POINT( '', ( 7.50555349946508, -20.0000000000000, 13.0000000000000 ) );
#459 = VECTOR( '', #504, 1000.00000000000 );
#460 = CARTESIAN_POINT( '', ( 15.0111069989303, 0.000000000000000, 4.41836451685020E-014 ) );
#461 = VECTOR( '', #505, 999.999999999999 );
#462 = COLOUR_RGB( '', 0.117647059261799, 0.749019622802734, 0.117647059261799 );
#463 = CARTESIAN_POINT( '', ( 7.50555349946508, 0.000000000000000, 13.0000000000000 ) );
#464 = VECTOR( '', #506, 1000.00000000000 );
#465 = COLOUR_RGB( '', 0.117647059261799, 0.749019622802734, 0.117647059261799 );
#466 = CARTESIAN_POINT( '', ( -7.50555349946513, 0.000000000000000, -13.0000000000000 ) );
#467 = VECTOR( '', #507, 1000.00000000000 );
#468 = COLOUR_RGB( '', 0.117647059261799, 0.749019622802734, 0.117647059261799 );
#469 = DIRECTION( '', ( 0.000000000000000, 1.00000000000000, 0.000000000000000 ) );
#470 = DIRECTION( '', ( 0.500000000000000, 0.000000000000000, -0.866025403784438 ) );
#471 = DIRECTION( '', ( 0.000000000000000, 1.00000000000000, 0.000000000000000 ) );
#472 = DIRECTION( '', ( 0.500000000000000, 0.000000000000000, -0.866025403784438 ) );
#473 = CARTESIAN_POINT( '', ( -9.75781955236954E-015, -9.58600000000000, 1.51788304147970E-014 ) );
#474 = DIRECTION( '', ( 0.000000000000000, -1.00000000000000, 0.000000000000000 ) );
#475 = DIRECTION( '', ( 0.000000000000000, 0.000000000000000, -1.00000000000000 ) );
#476 = CARTESIAN_POINT( '', ( -9.75781955236954E-015, -20.0000000000000, 1.51788304147970E-014 ) );
#477 = DIRECTION( '', ( 0.000000000000000, -1.00000000000000, 0.000000000000000 ) );
#478 = DIRECTION( '', ( 0.000000000000000, 0.000000000000000, -1.00000000000000 ) );
#479 = CARTESIAN_POINT( '', ( -9.75781955236954E-015, -6.28400000000000, 1.51788304147970E-014 ) );
#480 = DIRECTION( '', ( 0.000000000000000, -1.00000000000000, 0.000000000000000 ) );
#481 = DIRECTION( '', ( 0.000000000000000, 0.000000000000000, -1.00000000000000 ) );
#482 = CARTESIAN_POINT( '', ( 0.000000000000000, -6.28400000000000, 0.000000000000000 ) );
#483 = DIRECTION( '', ( 0.000000000000000, 1.00000000000000, 0.000000000000000 ) );
#484 = DIRECTION( '', ( 0.000000000000000, 0.000000000000000, 1.00000000000000 ) );
#485 = CARTESIAN_POINT( '', ( 0.000000000000000, 38.0000000000000, 0.000000000000000 ) );
#486 = DIRECTION( '', ( 0.000000000000000, 1.00000000000000, 0.000000000000000 ) );
#487 = DIRECTION( '', ( 0.000000000000000, 0.000000000000000, 1.00000000000000 ) );
#488 = CARTESIAN_POINT( '', ( 0.000000000000000, 38.0000000000000, 0.000000000000000 ) );
#489 = DIRECTION( '', ( 0.000000000000000, -1.00000000000000, 0.000000000000000 ) );
#490 = DIRECTION( '', ( 0.000000000000000, 0.000000000000000, 1.00000000000000 ) );
#491 = CARTESIAN_POINT( '', ( 0.000000000000000, 0.000000000000000, 0.000000000000000 ) );
#492 = DIRECTION( '', ( 0.000000000000000, -1.00000000000000, 0.000000000000000 ) );
#493 = DIRECTION( '', ( 0.000000000000000, 0.000000000000000, -1.00000000000000 ) );
#494 = DIRECTION( '', ( 0.000000000000000, 1.00000000000000, 0.000000000000000 ) );
#495 = DIRECTION( '', ( 0.499999999999999, 0.000000000000000, 0.866025403784439 ) );
#496 = DIRECTION( '', ( 0.000000000000000, 1.00000000000000, 0.000000000000000 ) );
#497 = DIRECTION( '', ( 0.499999999999999, 0.000000000000000, 0.866025403784439 ) );
#498 = DIRECTION( '', ( -0.500000000000000, 0.000000000000000, -0.866025403784439 ) );
#499 = DIRECTION( '', ( 0.000000000000000, 1.00000000000000, 0.000000000000000 ) );
#500 = DIRECTION( '', ( -0.500000000000000, 0.000000000000000, -0.866025403784439 ) );
#501 = DIRECTION( '', ( 1.00000000000000, 0.000000000000000, 1.61787726017848E-015 ) );
#502 = DIRECTION( '', ( -0.500000000000001, 0.000000000000000, 0.866025403784438 ) );
#503 = DIRECTION( '', ( -1.00000000000000, 0.000000000000000, -1.61787726017849E-015 ) );
#504 = DIRECTION( '', ( 0.000000000000000, 1.00000000000000, 0.000000000000000 ) );
#505 = DIRECTION( '', ( -0.500000000000001, 0.000000000000000, 0.866025403784438 ) );
#506 = DIRECTION( '', ( -1.00000000000000, 0.000000000000000, -1.61787726017849E-015 ) );
#507 = DIRECTION( '', ( 1.00000000000000, 0.000000000000000, 1.61787726017848E-015 ) );
ENDSEC;
END-ISO-10303-21;
