ISO-10303-21;
HEADER;
FILE_DESCRIPTION( ( 'Unknown' ), '1' );
FILE_NAME( '//Server/ofimatica/alfredo/Alfredo2/ISOTUBI/PZAS3D/FICHATECNICA/NUMEPRESS/generico 3D/F26R3-4DN18.stp', 'Unknown', ( 'Unknown' ), ( 'Unknown' ), 'PSStep 14.0', 'Unknown', '  ' );
FILE_SCHEMA( ( 'AUTOMOTIVE_DESIGN { 1 0 10303 214 1 1 1 1 }' ) );
ENDSEC;
DATA;
#1 = MECHANICAL_DESIGN_GEOMETRIC_PRESENTATION_REPRESENTATION( ' ', ( #10, #11, #12, #13, #14, #15, #16, #17, #18, #19, #20, #21, #22, #23 ), #6 );
#2 = PRODUCT_DEFINITION_CONTEXT( '', #24, 'design' );
#3 = APPLICATION_PROTOCOL_DEFINITION( 'international standard', 'automotive_design', 2001, #24 );
#4 = PRODUCT_CATEGORY_RELATIONSHIP( 'NONE', 'NONE', #25, #26 );
#5 = SHAPE_DEFINITION_REPRESENTATION( #27, #28 );
#6 =  ( GEOMETRIC_REPRESENTATION_CONTEXT( 3 )GLOBAL_UNCERTAINTY_ASSIGNED_CONTEXT( ( #31 ) )GLOBAL_UNIT_ASSIGNED_CONTEXT( ( #33, #34, #35 ) )REPRESENTATION_CONTEXT( 'NONE', 'WORKSPACE' ) );
#10 = STYLED_ITEM( '', ( #37 ), #38 );
#11 = STYLED_ITEM( '', ( #39 ), #40 );
#12 = STYLED_ITEM( '', ( #41 ), #42 );
#13 = STYLED_ITEM( '', ( #43 ), #44 );
#14 = STYLED_ITEM( '', ( #45 ), #46 );
#15 = STYLED_ITEM( '', ( #47 ), #48 );
#16 = STYLED_ITEM( '', ( #49 ), #50 );
#17 = STYLED_ITEM( '', ( #51 ), #52 );
#18 = STYLED_ITEM( '', ( #53 ), #54 );
#19 = STYLED_ITEM( '', ( #55 ), #56 );
#20 = STYLED_ITEM( '', ( #57 ), #58 );
#21 = STYLED_ITEM( '', ( #59 ), #60 );
#22 = STYLED_ITEM( '', ( #61 ), #62 );
#23 = STYLED_ITEM( '', ( #63 ), #64 );
#24 = APPLICATION_CONTEXT( 'core data for automotive mechanical design processes' );
#25 = PRODUCT_CATEGORY( 'part', 'NONE' );
#26 = PRODUCT_RELATED_PRODUCT_CATEGORY( 'detail', ' ', ( #65 ) );
#27 = PRODUCT_DEFINITION_SHAPE( 'NONE', 'NONE', #66 );
#28 = ADVANCED_BREP_SHAPE_REPRESENTATION( '1', ( #67, #68 ), #6 );
#31 = UNCERTAINTY_MEASURE_WITH_UNIT( LENGTH_MEASURE( 0.00100000000000000 ), #33, '', '' );
#33 =  ( CONVERSION_BASED_UNIT( 'MILLIMETRE', #71 )LENGTH_UNIT(  )NAMED_UNIT( #74 ) );
#34 =  ( NAMED_UNIT( #76 )PLANE_ANGLE_UNIT(  )SI_UNIT( $, .RADIAN. ) );
#35 =  ( NAMED_UNIT( #76 )SI_UNIT( $, .STERADIAN. )SOLID_ANGLE_UNIT(  ) );
#37 = PRESENTATION_STYLE_ASSIGNMENT( ( #82 ) );
#38 = ADVANCED_FACE( '', ( #83, #84 ), #85, .T. );
#39 = PRESENTATION_STYLE_ASSIGNMENT( ( #86 ) );
#40 = ADVANCED_FACE( '', ( #87, #88 ), #89, .F. );
#41 = PRESENTATION_STYLE_ASSIGNMENT( ( #90 ) );
#42 = ADVANCED_FACE( '', ( #91, #92 ), #93, .F. );
#43 = PRESENTATION_STYLE_ASSIGNMENT( ( #94 ) );
#44 = ADVANCED_FACE( '', ( #95 ), #96, .F. );
#45 = PRESENTATION_STYLE_ASSIGNMENT( ( #97 ) );
#46 = ADVANCED_FACE( '', ( #98 ), #99, .F. );
#47 = PRESENTATION_STYLE_ASSIGNMENT( ( #100 ) );
#48 = ADVANCED_FACE( '', ( #101 ), #102, .F. );
#49 = PRESENTATION_STYLE_ASSIGNMENT( ( #103 ) );
#50 = ADVANCED_FACE( '', ( #104 ), #105, .F. );
#51 = PRESENTATION_STYLE_ASSIGNMENT( ( #106 ) );
#52 = ADVANCED_FACE( '', ( #107, #108 ), #109, .T. );
#53 = PRESENTATION_STYLE_ASSIGNMENT( ( #110 ) );
#54 = ADVANCED_FACE( '', ( #111, #112 ), #113, .T. );
#55 = PRESENTATION_STYLE_ASSIGNMENT( ( #114 ) );
#56 = ADVANCED_FACE( '', ( #115, #116 ), #117, .F. );
#57 = PRESENTATION_STYLE_ASSIGNMENT( ( #118 ) );
#58 = ADVANCED_FACE( '', ( #119, #120 ), #121, .F. );
#59 = PRESENTATION_STYLE_ASSIGNMENT( ( #122 ) );
#60 = ADVANCED_FACE( '', ( #123, #124 ), #125, .F. );
#61 = PRESENTATION_STYLE_ASSIGNMENT( ( #126 ) );
#62 = ADVANCED_FACE( '', ( #127 ), #128, .F. );
#63 = PRESENTATION_STYLE_ASSIGNMENT( ( #129 ) );
#64 = ADVANCED_FACE( '', ( #130 ), #131, .F. );
#65 = PRODUCT( '1', '1', 'PART-1-DESC', ( #132 ) );
#66 = PRODUCT_DEFINITION( 'NONE', 'NONE', #133, #2 );
#67 = MANIFOLD_SOLID_BREP( '1', #134 );
#68 = AXIS2_PLACEMENT_3D( '', #135, #136, #137 );
#71 = LENGTH_MEASURE_WITH_UNIT( LENGTH_MEASURE( 1.00000000000000 ), #138 );
#74 = DIMENSIONAL_EXPONENTS( 1.00000000000000, 0.000000000000000, 0.000000000000000, 0.000000000000000, 0.000000000000000, 0.000000000000000, 0.000000000000000 );
#76 = DIMENSIONAL_EXPONENTS( 0.000000000000000, 0.000000000000000, 0.000000000000000, 0.000000000000000, 0.000000000000000, 0.000000000000000, 0.000000000000000 );
#82 = SURFACE_STYLE_USAGE( .BOTH., #139 );
#83 = FACE_OUTER_BOUND( '', #140, .T. );
#84 = FACE_BOUND( '', #141, .T. );
#85 = PLANE( '', #142 );
#86 = SURFACE_STYLE_USAGE( .BOTH., #143 );
#87 = FACE_BOUND( '', #144, .T. );
#88 = FACE_OUTER_BOUND( '', #145, .T. );
#89 = PLANE( '', #146 );
#90 = SURFACE_STYLE_USAGE( .BOTH., #147 );
#91 = FACE_OUTER_BOUND( '', #148, .T. );
#92 = FACE_BOUND( '', #149, .T. );
#93 = PLANE( '', #150 );
#94 = SURFACE_STYLE_USAGE( .BOTH., #151 );
#95 = FACE_OUTER_BOUND( '', #152, .T. );
#96 = PLANE( '', #153 );
#97 = SURFACE_STYLE_USAGE( .BOTH., #154 );
#98 = FACE_OUTER_BOUND( '', #155, .T. );
#99 = PLANE( '', #156 );
#100 = SURFACE_STYLE_USAGE( .BOTH., #157 );
#101 = FACE_OUTER_BOUND( '', #158, .T. );
#102 = PLANE( '', #159 );
#103 = SURFACE_STYLE_USAGE( .BOTH., #160 );
#104 = FACE_OUTER_BOUND( '', #161, .T. );
#105 = PLANE( '', #162 );
#106 = SURFACE_STYLE_USAGE( .BOTH., #163 );
#107 = FACE_OUTER_BOUND( '', #164, .T. );
#108 = FACE_OUTER_BOUND( '', #165, .T. );
#109 = CYLINDRICAL_SURFACE( '', #166, 9.00000000000000 );
#110 = SURFACE_STYLE_USAGE( .BOTH., #167 );
#111 = FACE_BOUND( '', #168, .T. );
#112 = FACE_OUTER_BOUND( '', #169, .T. );
#113 = PLANE( '', #170 );
#114 = SURFACE_STYLE_USAGE( .BOTH., #171 );
#115 = FACE_OUTER_BOUND( '', #172, .T. );
#116 = FACE_OUTER_BOUND( '', #173, .T. );
#117 = CYLINDRICAL_SURFACE( '', #174, 7.50000000000000 );
#118 = SURFACE_STYLE_USAGE( .BOTH., #175 );
#119 = FACE_OUTER_BOUND( '', #176, .T. );
#120 = FACE_OUTER_BOUND( '', #177, .T. );
#121 = CYLINDRICAL_SURFACE( '', #178, 12.0585000000000 );
#122 = SURFACE_STYLE_USAGE( .BOTH., #179 );
#123 = FACE_OUTER_BOUND( '', #180, .T. );
#124 = FACE_OUTER_BOUND( '', #181, .T. );
#125 = CYLINDRICAL_SURFACE( '', #182, 12.0585000000000 );
#126 = SURFACE_STYLE_USAGE( .BOTH., #183 );
#127 = FACE_OUTER_BOUND( '', #184, .T. );
#128 = PLANE( '', #185 );
#129 = SURFACE_STYLE_USAGE( .BOTH., #186 );
#130 = FACE_OUTER_BOUND( '', #187, .T. );
#131 = PLANE( '', #188 );
#132 = PRODUCT_CONTEXT( '', #24, 'mechanical' );
#133 = PRODUCT_DEFINITION_FORMATION_WITH_SPECIFIED_SOURCE( ' ', 'NONE', #65, .NOT_KNOWN. );
#134 = CLOSED_SHELL( '', ( #40, #58, #54, #44, #46, #62, #64, #48, #38, #52, #60, #56, #50, #42 ) );
#135 = CARTESIAN_POINT( '', ( 0.000000000000000, 0.000000000000000, 0.000000000000000 ) );
#136 = DIRECTION( '', ( 0.000000000000000, 0.000000000000000, 1.00000000000000 ) );
#137 = DIRECTION( '', ( 1.00000000000000, 0.000000000000000, 0.000000000000000 ) );
#138 =  ( LENGTH_UNIT(  )NAMED_UNIT( #74 )SI_UNIT( .MILLI., .METRE. ) );
#139 = SURFACE_SIDE_STYLE( '', ( #190 ) );
#140 = EDGE_LOOP( '', ( #191 ) );
#141 = EDGE_LOOP( '', ( #192 ) );
#142 = AXIS2_PLACEMENT_3D( '', #193, #194, #195 );
#143 = SURFACE_SIDE_STYLE( '', ( #196 ) );
#144 = EDGE_LOOP( '', ( #197 ) );
#145 = EDGE_LOOP( '', ( #198, #199, #200, #201, #202, #203 ) );
#146 = AXIS2_PLACEMENT_3D( '', #204, #205, #206 );
#147 = SURFACE_SIDE_STYLE( '', ( #207 ) );
#148 = EDGE_LOOP( '', ( #208 ) );
#149 = EDGE_LOOP( '', ( #209 ) );
#150 = AXIS2_PLACEMENT_3D( '', #210, #211, #212 );
#151 = SURFACE_SIDE_STYLE( '', ( #213 ) );
#152 = EDGE_LOOP( '', ( #214, #215, #216, #217 ) );
#153 = AXIS2_PLACEMENT_3D( '', #218, #219, #220 );
#154 = SURFACE_SIDE_STYLE( '', ( #221 ) );
#155 = EDGE_LOOP( '', ( #222, #223, #224, #225 ) );
#156 = AXIS2_PLACEMENT_3D( '', #226, #227, #228 );
#157 = SURFACE_SIDE_STYLE( '', ( #229 ) );
#158 = EDGE_LOOP( '', ( #230, #231, #232, #233 ) );
#159 = AXIS2_PLACEMENT_3D( '', #234, #235, #236 );
#160 = SURFACE_SIDE_STYLE( '', ( #237 ) );
#161 = EDGE_LOOP( '', ( #238, #239, #240, #241 ) );
#162 = AXIS2_PLACEMENT_3D( '', #242, #243, #244 );
#163 = SURFACE_SIDE_STYLE( '', ( #245 ) );
#164 = EDGE_LOOP( '', ( #246 ) );
#165 = EDGE_LOOP( '', ( #247 ) );
#166 = AXIS2_PLACEMENT_3D( '', #248, #249, #250 );
#167 = SURFACE_SIDE_STYLE( '', ( #251 ) );
#168 = EDGE_LOOP( '', ( #252 ) );
#169 = EDGE_LOOP( '', ( #253, #254, #255, #256, #257, #258 ) );
#170 = AXIS2_PLACEMENT_3D( '', #259, #260, #261 );
#171 = SURFACE_SIDE_STYLE( '', ( #262 ) );
#172 = EDGE_LOOP( '', ( #263 ) );
#173 = EDGE_LOOP( '', ( #264 ) );
#174 = AXIS2_PLACEMENT_3D( '', #265, #266, #267 );
#175 = SURFACE_SIDE_STYLE( '', ( #268 ) );
#176 = EDGE_LOOP( '', ( #269 ) );
#177 = EDGE_LOOP( '', ( #270 ) );
#178 = AXIS2_PLACEMENT_3D( '', #271, #272, #273 );
#179 = SURFACE_SIDE_STYLE( '', ( #274 ) );
#180 = EDGE_LOOP( '', ( #275 ) );
#181 = EDGE_LOOP( '', ( #276 ) );
#182 = AXIS2_PLACEMENT_3D( '', #277, #278, #279 );
#183 = SURFACE_SIDE_STYLE( '', ( #280 ) );
#184 = EDGE_LOOP( '', ( #281, #282, #283, #284 ) );
#185 = AXIS2_PLACEMENT_3D( '', #285, #286, #287 );
#186 = SURFACE_SIDE_STYLE( '', ( #288 ) );
#187 = EDGE_LOOP( '', ( #289, #290, #291, #292 ) );
#188 = AXIS2_PLACEMENT_3D( '', #293, #294, #295 );
#190 = SURFACE_STYLE_FILL_AREA( #296 );
#191 = ORIENTED_EDGE( '', *, *, #297, .T. );
#192 = ORIENTED_EDGE( '', *, *, #298, .T. );
#193 = CARTESIAN_POINT( '', ( 0.000000000000000, 42.0000000000000, 0.000000000000000 ) );
#194 = DIRECTION( '', ( 0.000000000000000, 1.00000000000000, 0.000000000000000 ) );
#195 = DIRECTION( '', ( 0.000000000000000, 0.000000000000000, 1.00000000000000 ) );
#196 = SURFACE_STYLE_FILL_AREA( #299 );
#197 = ORIENTED_EDGE( '', *, *, #300, .F. );
#198 = ORIENTED_EDGE( '', *, *, #301, .T. );
#199 = ORIENTED_EDGE( '', *, *, #302, .T. );
#200 = ORIENTED_EDGE( '', *, *, #303, .T. );
#201 = ORIENTED_EDGE( '', *, *, #304, .T. );
#202 = ORIENTED_EDGE( '', *, *, #305, .T. );
#203 = ORIENTED_EDGE( '', *, *, #306, .T. );
#204 = CARTESIAN_POINT( '', ( 0.000000000000000, 4.00000000000000, 0.000000000000000 ) );
#205 = DIRECTION( '', ( 0.000000000000000, -1.00000000000000, 0.000000000000000 ) );
#206 = DIRECTION( '', ( 0.000000000000000, 0.000000000000000, -1.00000000000000 ) );
#207 = SURFACE_STYLE_FILL_AREA( #307 );
#208 = ORIENTED_EDGE( '', *, *, #308, .T. );
#209 = ORIENTED_EDGE( '', *, *, #309, .F. );
#210 = CARTESIAN_POINT( '', ( -9.75781955236954E-015, -0.950000000000000, 1.51788304147970E-014 ) );
#211 = DIRECTION( '', ( 0.000000000000000, 1.00000000000000, 0.000000000000000 ) );
#212 = DIRECTION( '', ( 0.000000000000000, 0.000000000000000, 1.00000000000000 ) );
#213 = SURFACE_STYLE_FILL_AREA( #310 );
#214 = ORIENTED_EDGE( '', *, *, #301, .F. );
#215 = ORIENTED_EDGE( '', *, *, #311, .F. );
#216 = ORIENTED_EDGE( '', *, *, #312, .F. );
#217 = ORIENTED_EDGE( '', *, *, #313, .T. );
#218 = CARTESIAN_POINT( '', ( -10.1036297336211, -20.0000000000000, 14.5000000540473 ) );
#219 = DIRECTION( '', ( 0.866025403784439, 0.000000000000000, -0.500000000000000 ) );
#220 = DIRECTION( '', ( -0.500000000000000, 0.000000000000000, -0.866025403784439 ) );
#221 = SURFACE_STYLE_FILL_AREA( #314 );
#222 = ORIENTED_EDGE( '', *, *, #302, .F. );
#223 = ORIENTED_EDGE( '', *, *, #313, .F. );
#224 = ORIENTED_EDGE( '', *, *, #315, .F. );
#225 = ORIENTED_EDGE( '', *, *, #316, .T. );
#226 = CARTESIAN_POINT( '', ( 7.50555353487010, -20.0000000000000, 16.0000000467714 ) );
#227 = DIRECTION( '', ( 1.61787726017849E-015, 0.000000000000000, -1.00000000000000 ) );
#228 = DIRECTION( '', ( -1.00000000000000, 0.000000000000000, -1.61787726017849E-015 ) );
#229 = SURFACE_STYLE_FILL_AREA( #317 );
#230 = ORIENTED_EDGE( '', *, *, #305, .F. );
#231 = ORIENTED_EDGE( '', *, *, #318, .F. );
#232 = ORIENTED_EDGE( '', *, *, #319, .F. );
#233 = ORIENTED_EDGE( '', *, *, #320, .T. );
#234 = CARTESIAN_POINT( '', ( -7.50555353487015, -20.0000000000000, -16.0000000467713 ) );
#235 = DIRECTION( '', ( -1.61787726017848E-015, 0.000000000000000, 1.00000000000000 ) );
#236 = DIRECTION( '', ( 1.00000000000000, 0.000000000000000, 1.61787726017848E-015 ) );
#237 = SURFACE_STYLE_FILL_AREA( #321 );
#238 = ORIENTED_EDGE( '', *, *, #306, .F. );
#239 = ORIENTED_EDGE( '', *, *, #320, .F. );
#240 = ORIENTED_EDGE( '', *, *, #322, .F. );
#241 = ORIENTED_EDGE( '', *, *, #311, .T. );
#242 = CARTESIAN_POINT( '', ( -17.6091832102836, -20.0000000000000, -1.50000000000000 ) );
#243 = DIRECTION( '', ( 0.866025403784439, 0.000000000000000, 0.500000000000000 ) );
#244 = DIRECTION( '', ( 0.500000000000000, 0.000000000000000, -0.866025403784439 ) );
#245 = SURFACE_STYLE_FILL_AREA( #323 );
#246 = ORIENTED_EDGE( '', *, *, #297, .F. );
#247 = ORIENTED_EDGE( '', *, *, #300, .T. );
#248 = CARTESIAN_POINT( '', ( 0.000000000000000, 42.0000000000000, 0.000000000000000 ) );
#249 = DIRECTION( '', ( -0.000000000000000, 1.00000000000000, -0.000000000000000 ) );
#250 = DIRECTION( '', ( 0.000000000000000, 0.000000000000000, -1.00000000000000 ) );
#251 = SURFACE_STYLE_FILL_AREA( #324 );
#252 = ORIENTED_EDGE( '', *, *, #325, .F. );
#253 = ORIENTED_EDGE( '', *, *, #322, .T. );
#254 = ORIENTED_EDGE( '', *, *, #319, .T. );
#255 = ORIENTED_EDGE( '', *, *, #326, .T. );
#256 = ORIENTED_EDGE( '', *, *, #327, .T. );
#257 = ORIENTED_EDGE( '', *, *, #315, .T. );
#258 = ORIENTED_EDGE( '', *, *, #312, .T. );
#259 = CARTESIAN_POINT( '', ( 0.000000000000000, -20.0000000000000, 0.000000000000000 ) );
#260 = DIRECTION( '', ( 0.000000000000000, -1.00000000000000, 0.000000000000000 ) );
#261 = DIRECTION( '', ( 0.000000000000000, 0.000000000000000, -1.00000000000000 ) );
#262 = SURFACE_STYLE_FILL_AREA( #328 );
#263 = ORIENTED_EDGE( '', *, *, #309, .T. );
#264 = ORIENTED_EDGE( '', *, *, #298, .F. );
#265 = CARTESIAN_POINT( '', ( 0.000000000000000, -12.5220418849576, 0.000000000000000 ) );
#266 = DIRECTION( '', ( -0.000000000000000, -1.00000000000000, -0.000000000000000 ) );
#267 = DIRECTION( '', ( 0.000000000000000, 0.000000000000000, 1.00000000000000 ) );
#268 = SURFACE_STYLE_FILL_AREA( #329 );
#269 = ORIENTED_EDGE( '', *, *, #330, .F. );
#270 = ORIENTED_EDGE( '', *, *, #325, .T. );
#271 = CARTESIAN_POINT( '', ( -9.75781955236954E-015, -20.0000000000000, 1.51788304147970E-014 ) );
#272 = DIRECTION( '', ( -0.000000000000000, -1.00000000000000, -0.000000000000000 ) );
#273 = DIRECTION( '', ( 0.000000000000000, 0.000000000000000, -1.00000000000000 ) );
#274 = SURFACE_STYLE_FILL_AREA( #331 );
#275 = ORIENTED_EDGE( '', *, *, #308, .F. );
#276 = ORIENTED_EDGE( '', *, *, #330, .T. );
#277 = CARTESIAN_POINT( '', ( -9.75781955236954E-015, -20.0000000000000, 1.51788304147970E-014 ) );
#278 = DIRECTION( '', ( -0.000000000000000, -1.00000000000000, -0.000000000000000 ) );
#279 = DIRECTION( '', ( 0.000000000000000, 0.000000000000000, -1.00000000000000 ) );
#280 = SURFACE_STYLE_FILL_AREA( #332 );
#281 = ORIENTED_EDGE( '', *, *, #303, .F. );
#282 = ORIENTED_EDGE( '', *, *, #316, .F. );
#283 = ORIENTED_EDGE( '', *, *, #327, .F. );
#284 = ORIENTED_EDGE( '', *, *, #333, .T. );
#285 = CARTESIAN_POINT( '', ( 17.6091832684913, -20.0000000000000, 1.49999999272406 ) );
#286 = DIRECTION( '', ( -0.866025403784438, 0.000000000000000, -0.500000000000000 ) );
#287 = DIRECTION( '', ( -0.500000000000000, 0.000000000000000, 0.866025403784438 ) );
#288 = SURFACE_STYLE_FILL_AREA( #334 );
#289 = ORIENTED_EDGE( '', *, *, #304, .F. );
#290 = ORIENTED_EDGE( '', *, *, #333, .F. );
#291 = ORIENTED_EDGE( '', *, *, #326, .F. );
#292 = ORIENTED_EDGE( '', *, *, #318, .T. );
#293 = CARTESIAN_POINT( '', ( 10.1036297336211, -20.0000000000000, -14.5000000540473 ) );
#294 = DIRECTION( '', ( -0.866025403784439, 0.000000000000000, 0.500000000000000 ) );
#295 = DIRECTION( '', ( 0.499999999999999, 0.000000000000000, 0.866025403784439 ) );
#296 = FILL_AREA_STYLE( '', ( #335 ) );
#297 = EDGE_CURVE( '', #336, #336, #337, .T. );
#298 = EDGE_CURVE( '', #338, #338, #339, .T. );
#299 = FILL_AREA_STYLE( '', ( #340 ) );
#300 = EDGE_CURVE( '', #341, #341, #342, .F. );
#301 = EDGE_CURVE( '', #343, #344, #345, .T. );
#302 = EDGE_CURVE( '', #344, #346, #347, .T. );
#303 = EDGE_CURVE( '', #346, #348, #349, .T. );
#304 = EDGE_CURVE( '', #348, #350, #351, .T. );
#305 = EDGE_CURVE( '', #350, #352, #353, .T. );
#306 = EDGE_CURVE( '', #352, #343, #354, .T. );
#307 = FILL_AREA_STYLE( '', ( #355 ) );
#308 = EDGE_CURVE( '', #356, #356, #357, .T. );
#309 = EDGE_CURVE( '', #358, #358, #359, .F. );
#310 = FILL_AREA_STYLE( '', ( #360 ) );
#311 = EDGE_CURVE( '', #361, #343, #362, .T. );
#312 = EDGE_CURVE( '', #363, #361, #364, .T. );
#313 = EDGE_CURVE( '', #363, #344, #365, .T. );
#314 = FILL_AREA_STYLE( '', ( #366 ) );
#315 = EDGE_CURVE( '', #367, #363, #368, .T. );
#316 = EDGE_CURVE( '', #367, #346, #369, .T. );
#317 = FILL_AREA_STYLE( '', ( #370 ) );
#318 = EDGE_CURVE( '', #371, #350, #372, .T. );
#319 = EDGE_CURVE( '', #373, #371, #374, .T. );
#320 = EDGE_CURVE( '', #373, #352, #375, .T. );
#321 = FILL_AREA_STYLE( '', ( #376 ) );
#322 = EDGE_CURVE( '', #361, #373, #377, .T. );
#323 = FILL_AREA_STYLE( '', ( #378 ) );
#324 = FILL_AREA_STYLE( '', ( #379 ) );
#325 = EDGE_CURVE( '', #380, #380, #381, .T. );
#326 = EDGE_CURVE( '', #371, #382, #383, .T. );
#327 = EDGE_CURVE( '', #382, #367, #384, .T. );
#328 = FILL_AREA_STYLE( '', ( #385 ) );
#329 = FILL_AREA_STYLE( '', ( #386 ) );
#330 = EDGE_CURVE( '', #387, #387, #388, .T. );
#331 = FILL_AREA_STYLE( '', ( #389 ) );
#332 = FILL_AREA_STYLE( '', ( #390 ) );
#333 = EDGE_CURVE( '', #382, #348, #391, .T. );
#334 = FILL_AREA_STYLE( '', ( #392 ) );
#335 = FILL_AREA_STYLE_COLOUR( '', #393 );
#336 = VERTEX_POINT( '', #394 );
#337 = CIRCLE( '', #395, 9.00000000000000 );
#338 = VERTEX_POINT( '', #396 );
#339 = CIRCLE( '', #397, 7.50000000000000 );
#340 = FILL_AREA_STYLE_COLOUR( '', #398 );
#341 = VERTEX_POINT( '', #399 );
#342 = CIRCLE( '', #400, 9.00000000000000 );
#343 = VERTEX_POINT( '', #401 );
#344 = VERTEX_POINT( '', #402 );
#345 = LINE( '', #403, #404 );
#346 = VERTEX_POINT( '', #405 );
#347 = LINE( '', #406, #407 );
#348 = VERTEX_POINT( '', #408 );
#349 = LINE( '', #409, #410 );
#350 = VERTEX_POINT( '', #411 );
#351 = LINE( '', #412, #413 );
#352 = VERTEX_POINT( '', #414 );
#353 = LINE( '', #415, #416 );
#354 = LINE( '', #417, #418 );
#355 = FILL_AREA_STYLE_COLOUR( '', #419 );
#356 = VERTEX_POINT( '', #420 );
#357 = CIRCLE( '', #421, 12.0585000000000 );
#358 = VERTEX_POINT( '', #422 );
#359 = CIRCLE( '', #423, 7.50000000000000 );
#360 = FILL_AREA_STYLE_COLOUR( '', #424 );
#361 = VERTEX_POINT( '', #425 );
#362 = LINE( '', #426, #427 );
#363 = VERTEX_POINT( '', #428 );
#364 = LINE( '', #429, #430 );
#365 = LINE( '', #431, #432 );
#366 = FILL_AREA_STYLE_COLOUR( '', #433 );
#367 = VERTEX_POINT( '', #434 );
#368 = LINE( '', #435, #436 );
#369 = LINE( '', #437, #438 );
#370 = FILL_AREA_STYLE_COLOUR( '', #439 );
#371 = VERTEX_POINT( '', #440 );
#372 = LINE( '', #441, #442 );
#373 = VERTEX_POINT( '', #443 );
#374 = LINE( '', #444, #445 );
#375 = LINE( '', #446, #447 );
#376 = FILL_AREA_STYLE_COLOUR( '', #448 );
#377 = LINE( '', #449, #450 );
#378 = FILL_AREA_STYLE_COLOUR( '', #451 );
#379 = FILL_AREA_STYLE_COLOUR( '', #452 );
#380 = VERTEX_POINT( '', #453 );
#381 = CIRCLE( '', #454, 12.0585000000000 );
#382 = VERTEX_POINT( '', #455 );
#383 = LINE( '', #456, #457 );
#384 = LINE( '', #458, #459 );
#385 = FILL_AREA_STYLE_COLOUR( '', #460 );
#386 = FILL_AREA_STYLE_COLOUR( '', #461 );
#387 = VERTEX_POINT( '', #462 );
#388 = CIRCLE( '', #463, 12.0585000000000 );
#389 = FILL_AREA_STYLE_COLOUR( '', #464 );
#390 = FILL_AREA_STYLE_COLOUR( '', #465 );
#391 = LINE( '', #466, #467 );
#392 = FILL_AREA_STYLE_COLOUR( '', #468 );
#393 = COLOUR_RGB( '', 0.576470613479614, 0.000000000000000, 0.827450990676880 );
#394 = CARTESIAN_POINT( '', ( 0.000000000000000, 42.0000000000000, 9.00000000000000 ) );
#395 = AXIS2_PLACEMENT_3D( '', #469, #470, #471 );
#396 = CARTESIAN_POINT( '', ( 0.000000000000000, 42.0000000000000, 7.50000000000000 ) );
#397 = AXIS2_PLACEMENT_3D( '', #472, #473, #474 );
#398 = COLOUR_RGB( '', 0.576470613479614, 0.000000000000000, 0.827450990676880 );
#399 = CARTESIAN_POINT( '', ( 0.000000000000000, 4.00000000000000, -9.00000000000000 ) );
#400 = AXIS2_PLACEMENT_3D( '', #475, #476, #477 );
#401 = CARTESIAN_POINT( '', ( -18.4752086410715, 4.00000000000000, 4.67713194562958E-008 ) );
#402 = CARTESIAN_POINT( '', ( -9.23760433403744, 4.00000000000000, 16.0000000467713 ) );
#403 = CARTESIAN_POINT( '', ( -13.8564065010562, 4.00000000000000, 8.00000002338566 ) );
#404 = VECTOR( '', #478, 1000.00000000000 );
#405 = CARTESIAN_POINT( '', ( 9.23760433403739, 4.00000000000000, 16.0000000467714 ) );
#406 = CARTESIAN_POINT( '', ( -2.58860362385260E-014, 4.00000000000000, 16.0000000467714 ) );
#407 = VECTOR( '', #479, 1000.00000000000 );
#408 = CARTESIAN_POINT( '', ( 18.4752086680749, 4.00000000000000, 4.85722573273506E-014 ) );
#409 = CARTESIAN_POINT( '', ( 13.8564065010561, 4.00000000000000, 8.00000002338569 ) );
#410 = VECTOR( '', #480, 999.999999999999 );
#411 = CARTESIAN_POINT( '', ( 9.23760433403745, 4.00000000000000, -16.0000000467713 ) );
#412 = CARTESIAN_POINT( '', ( 13.8564065010562, 4.00000000000000, -8.00000002338562 ) );
#413 = VECTOR( '', #481, 1000.00000000000 );
#414 = CARTESIAN_POINT( '', ( -9.23760428003057, 4.00000000000000, -16.0000000467713 ) );
#415 = CARTESIAN_POINT( '', ( 2.58860362385259E-014, 4.00000000000000, -16.0000000467713 ) );
#416 = VECTOR( '', #482, 1000.00000000000 );
#417 = CARTESIAN_POINT( '', ( -13.8564064605510, 4.00000000000000, -8.00000000000000 ) );
#418 = VECTOR( '', #483, 1000.00000000000 );
#419 = COLOUR_RGB( '', 0.576470613479614, 0.000000000000000, 0.827450990676880 );
#420 = CARTESIAN_POINT( '', ( -9.75781955236954E-015, -0.950000000000000, -12.0585000000000 ) );
#421 = AXIS2_PLACEMENT_3D( '', #484, #485, #486 );
#422 = CARTESIAN_POINT( '', ( 0.000000000000000, -0.950000000000000, 7.50000000000000 ) );
#423 = AXIS2_PLACEMENT_3D( '', #487, #488, #489 );
#424 = COLOUR_RGB( '', 0.576470613479614, 0.000000000000000, 0.827450990676880 );
#425 = CARTESIAN_POINT( '', ( -18.4752086410715, -20.0000000000000, 4.67713155531679E-008 ) );
#426 = CARTESIAN_POINT( '', ( -18.4752086410715, -20.0000000000000, 4.67713155531679E-008 ) );
#427 = VECTOR( '', #490, 1000.00000000000 );
#428 = CARTESIAN_POINT( '', ( -9.23760433403745, -20.0000000000000, 16.0000000467713 ) );
#429 = CARTESIAN_POINT( '', ( -10.1036297336211, -20.0000000000000, 14.5000000540473 ) );
#430 = VECTOR( '', #491, 1000.00000000000 );
#431 = CARTESIAN_POINT( '', ( -9.23760433403745, -20.0000000000000, 16.0000000467713 ) );
#432 = VECTOR( '', #492, 1000.00000000000 );
#433 = COLOUR_RGB( '', 0.576470613479614, 0.000000000000000, 0.827450990676880 );
#434 = CARTESIAN_POINT( '', ( 9.23760433403739, -20.0000000000000, 16.0000000467714 ) );
#435 = CARTESIAN_POINT( '', ( 7.50555353487010, -20.0000000000000, 16.0000000467714 ) );
#436 = VECTOR( '', #493, 1000.00000000000 );
#437 = CARTESIAN_POINT( '', ( 9.23760433403739, -20.0000000000000, 16.0000000467714 ) );
#438 = VECTOR( '', #494, 1000.00000000000 );
#439 = COLOUR_RGB( '', 0.576470613479614, 0.000000000000000, 0.827450990676880 );
#440 = CARTESIAN_POINT( '', ( 9.23760433403746, -20.0000000000000, -16.0000000467713 ) );
#441 = CARTESIAN_POINT( '', ( 9.23760433403746, -20.0000000000000, -16.0000000467713 ) );
#442 = VECTOR( '', #495, 1000.00000000000 );
#443 = CARTESIAN_POINT( '', ( -9.23760428003057, -20.0000000000000, -16.0000000467713 ) );
#444 = CARTESIAN_POINT( '', ( -7.50555353487015, -20.0000000000000, -16.0000000467713 ) );
#445 = VECTOR( '', #496, 1000.00000000000 );
#446 = CARTESIAN_POINT( '', ( -9.23760428003057, -20.0000000000000, -16.0000000467713 ) );
#447 = VECTOR( '', #497, 1000.00000000000 );
#448 = COLOUR_RGB( '', 0.576470613479614, 0.000000000000000, 0.827450990676880 );
#449 = CARTESIAN_POINT( '', ( -17.6091832102836, -20.0000000000000, -1.50000000000000 ) );
#450 = VECTOR( '', #498, 1000.00000000000 );
#451 = COLOUR_RGB( '', 0.576470613479614, 0.000000000000000, 0.827450990676880 );
#452 = COLOUR_RGB( '', 0.576470613479614, 0.000000000000000, 0.827450990676880 );
#453 = CARTESIAN_POINT( '', ( -9.75781955236954E-015, -20.0000000000000, -12.0585000000000 ) );
#454 = AXIS2_PLACEMENT_3D( '', #499, #500, #501 );
#455 = CARTESIAN_POINT( '', ( 18.4752086680748, -20.0000000000000, 5.13911829758129E-014 ) );
#456 = CARTESIAN_POINT( '', ( 10.1036297336211, -20.0000000000000, -14.5000000540473 ) );
#457 = VECTOR( '', #502, 1000.00000000000 );
#458 = CARTESIAN_POINT( '', ( 17.6091832684913, -20.0000000000000, 1.49999999272406 ) );
#459 = VECTOR( '', #503, 999.999999999999 );
#460 = COLOUR_RGB( '', 0.576470613479614, 0.000000000000000, 0.827450990676880 );
#461 = COLOUR_RGB( '', 0.396078437566757, 0.941176474094391, 0.450980395078659 );
#462 = CARTESIAN_POINT( '', ( -9.75781955236954E-015, -2.72800000000000, -12.0585000000000 ) );
#463 = AXIS2_PLACEMENT_3D( '', #504, #505, #506 );
#464 = COLOUR_RGB( '', 0.576470613479614, 0.000000000000000, 0.827450990676880 );
#465 = COLOUR_RGB( '', 0.576470613479614, 0.000000000000000, 0.827450990676880 );
#466 = CARTESIAN_POINT( '', ( 18.4752086680748, -20.0000000000000, 5.13911829758129E-014 ) );
#467 = VECTOR( '', #507, 1000.00000000000 );
#468 = COLOUR_RGB( '', 0.576470613479614, 0.000000000000000, 0.827450990676880 );
#469 = CARTESIAN_POINT( '', ( 0.000000000000000, 42.0000000000000, 0.000000000000000 ) );
#470 = DIRECTION( '', ( 0.000000000000000, 1.00000000000000, 0.000000000000000 ) );
#471 = DIRECTION( '', ( 0.000000000000000, 0.000000000000000, 1.00000000000000 ) );
#472 = CARTESIAN_POINT( '', ( 0.000000000000000, 42.0000000000000, 0.000000000000000 ) );
#473 = DIRECTION( '', ( 0.000000000000000, -1.00000000000000, 0.000000000000000 ) );
#474 = DIRECTION( '', ( 0.000000000000000, 0.000000000000000, 1.00000000000000 ) );
#475 = CARTESIAN_POINT( '', ( 0.000000000000000, 4.00000000000000, 0.000000000000000 ) );
#476 = DIRECTION( '', ( 0.000000000000000, -1.00000000000000, 0.000000000000000 ) );
#477 = DIRECTION( '', ( 0.000000000000000, 0.000000000000000, -1.00000000000000 ) );
#478 = DIRECTION( '', ( 0.500000000000000, 0.000000000000000, 0.866025403784439 ) );
#479 = DIRECTION( '', ( 1.00000000000000, 0.000000000000000, 1.61787726017849E-015 ) );
#480 = DIRECTION( '', ( 0.500000000000000, 0.000000000000000, -0.866025403784438 ) );
#481 = DIRECTION( '', ( -0.499999999999999, 0.000000000000000, -0.866025403784439 ) );
#482 = DIRECTION( '', ( -1.00000000000000, 0.000000000000000, -1.61787726017848E-015 ) );
#483 = DIRECTION( '', ( -0.500000000000000, 0.000000000000000, 0.866025403784439 ) );
#484 = CARTESIAN_POINT( '', ( -9.75781955236954E-015, -0.950000000000000, 1.51788304147970E-014 ) );
#485 = DIRECTION( '', ( 0.000000000000000, -1.00000000000000, 0.000000000000000 ) );
#486 = DIRECTION( '', ( 0.000000000000000, 0.000000000000000, -1.00000000000000 ) );
#487 = CARTESIAN_POINT( '', ( 0.000000000000000, -0.950000000000000, 0.000000000000000 ) );
#488 = DIRECTION( '', ( 0.000000000000000, 1.00000000000000, 0.000000000000000 ) );
#489 = DIRECTION( '', ( 0.000000000000000, 0.000000000000000, 1.00000000000000 ) );
#490 = DIRECTION( '', ( 0.000000000000000, 1.00000000000000, 0.000000000000000 ) );
#491 = DIRECTION( '', ( -0.500000000000000, 0.000000000000000, -0.866025403784439 ) );
#492 = DIRECTION( '', ( 0.000000000000000, 1.00000000000000, 0.000000000000000 ) );
#493 = DIRECTION( '', ( -1.00000000000000, 0.000000000000000, -1.61787726017849E-015 ) );
#494 = DIRECTION( '', ( 0.000000000000000, 1.00000000000000, 0.000000000000000 ) );
#495 = DIRECTION( '', ( 0.000000000000000, 1.00000000000000, 0.000000000000000 ) );
#496 = DIRECTION( '', ( 1.00000000000000, 0.000000000000000, 1.61787726017848E-015 ) );
#497 = DIRECTION( '', ( 0.000000000000000, 1.00000000000000, 0.000000000000000 ) );
#498 = DIRECTION( '', ( 0.500000000000000, 0.000000000000000, -0.866025403784439 ) );
#499 = CARTESIAN_POINT( '', ( -9.75781955236954E-015, -20.0000000000000, 1.51788304147970E-014 ) );
#500 = DIRECTION( '', ( 0.000000000000000, -1.00000000000000, 0.000000000000000 ) );
#501 = DIRECTION( '', ( 0.000000000000000, 0.000000000000000, -1.00000000000000 ) );
#502 = DIRECTION( '', ( 0.499999999999999, 0.000000000000000, 0.866025403784439 ) );
#503 = DIRECTION( '', ( -0.500000000000000, 0.000000000000000, 0.866025403784438 ) );
#504 = CARTESIAN_POINT( '', ( -9.75781955236954E-015, -2.72800000000000, 1.51788304147970E-014 ) );
#505 = DIRECTION( '', ( 0.000000000000000, -1.00000000000000, 0.000000000000000 ) );
#506 = DIRECTION( '', ( 0.000000000000000, 0.000000000000000, -1.00000000000000 ) );
#507 = DIRECTION( '', ( 0.000000000000000, 1.00000000000000, 0.000000000000000 ) );
ENDSEC;
END-ISO-10303-21;
