ISO-10303-21;
HEADER;
FILE_DESCRIPTION( ( 'Unknown' ), '1' );
FILE_NAME( '//Server/ofimatica/alfredo/Alfredo2/ISOTUBI/PZAS3D/FICHATECNICA/NUMEPRESS/generico 3D/F26R1DN28.stp', 'Unknown', ( 'Unknown' ), ( 'Unknown' ), 'PSStep 14.0', 'Unknown', '  ' );
FILE_SCHEMA( ( 'AUTOMOTIVE_DESIGN { 1 0 10303 214 1 1 1 1 }' ) );
ENDSEC;
DATA;
#1 = MECHANICAL_DESIGN_GEOMETRIC_PRESENTATION_REPRESENTATION( ' ', ( #10, #11, #12, #13, #14, #15, #16, #17, #18, #19, #20, #21, #22, #23 ), #6 );
#2 = PRODUCT_DEFINITION_CONTEXT( '', #24, 'design' );
#3 = APPLICATION_PROTOCOL_DEFINITION( 'international standard', 'automotive_design', 2001, #24 );
#4 = PRODUCT_CATEGORY_RELATIONSHIP( 'NONE', 'NONE', #25, #26 );
#5 = SHAPE_DEFINITION_REPRESENTATION( #27, #28 );
#6 =  ( GEOMETRIC_REPRESENTATION_CONTEXT( 3 )GLOBAL_UNCERTAINTY_ASSIGNED_CONTEXT( ( #31 ) )GLOBAL_UNIT_ASSIGNED_CONTEXT( ( #33, #34, #35 ) )REPRESENTATION_CONTEXT( 'NONE', 'WORKSPACE' ) );
#10 = STYLED_ITEM( '', ( #37 ), #38 );
#11 = STYLED_ITEM( '', ( #39 ), #40 );
#12 = STYLED_ITEM( '', ( #41 ), #42 );
#13 = STYLED_ITEM( '', ( #43 ), #44 );
#14 = STYLED_ITEM( '', ( #45 ), #46 );
#15 = STYLED_ITEM( '', ( #47 ), #48 );
#16 = STYLED_ITEM( '', ( #49 ), #50 );
#17 = STYLED_ITEM( '', ( #51 ), #52 );
#18 = STYLED_ITEM( '', ( #53 ), #54 );
#19 = STYLED_ITEM( '', ( #55 ), #56 );
#20 = STYLED_ITEM( '', ( #57 ), #58 );
#21 = STYLED_ITEM( '', ( #59 ), #60 );
#22 = STYLED_ITEM( '', ( #61 ), #62 );
#23 = STYLED_ITEM( '', ( #63 ), #64 );
#24 = APPLICATION_CONTEXT( 'core data for automotive mechanical design processes' );
#25 = PRODUCT_CATEGORY( 'part', 'NONE' );
#26 = PRODUCT_RELATED_PRODUCT_CATEGORY( 'detail', ' ', ( #65 ) );
#27 = PRODUCT_DEFINITION_SHAPE( 'NONE', 'NONE', #66 );
#28 = ADVANCED_BREP_SHAPE_REPRESENTATION( '1', ( #67, #68 ), #6 );
#31 = UNCERTAINTY_MEASURE_WITH_UNIT( LENGTH_MEASURE( 0.00100000000000000 ), #33, '', '' );
#33 =  ( CONVERSION_BASED_UNIT( 'MILLIMETRE', #71 )LENGTH_UNIT(  )NAMED_UNIT( #74 ) );
#34 =  ( NAMED_UNIT( #76 )PLANE_ANGLE_UNIT(  )SI_UNIT( $, .RADIAN. ) );
#35 =  ( NAMED_UNIT( #76 )SI_UNIT( $, .STERADIAN. )SOLID_ANGLE_UNIT(  ) );
#37 = PRESENTATION_STYLE_ASSIGNMENT( ( #82 ) );
#38 = ADVANCED_FACE( '', ( #83 ), #84, .T. );
#39 = PRESENTATION_STYLE_ASSIGNMENT( ( #85 ) );
#40 = ADVANCED_FACE( '', ( #86 ), #87, .T. );
#41 = PRESENTATION_STYLE_ASSIGNMENT( ( #88 ) );
#42 = ADVANCED_FACE( '', ( #89 ), #90, .T. );
#43 = PRESENTATION_STYLE_ASSIGNMENT( ( #91 ) );
#44 = ADVANCED_FACE( '', ( #92, #93 ), #94, .F. );
#45 = PRESENTATION_STYLE_ASSIGNMENT( ( #95 ) );
#46 = ADVANCED_FACE( '', ( #96, #97 ), #98, .F. );
#47 = PRESENTATION_STYLE_ASSIGNMENT( ( #99 ) );
#48 = ADVANCED_FACE( '', ( #100 ), #101, .T. );
#49 = PRESENTATION_STYLE_ASSIGNMENT( ( #102 ) );
#50 = ADVANCED_FACE( '', ( #103, #104 ), #105, .T. );
#51 = PRESENTATION_STYLE_ASSIGNMENT( ( #106 ) );
#52 = ADVANCED_FACE( '', ( #107, #108 ), #109, .F. );
#53 = PRESENTATION_STYLE_ASSIGNMENT( ( #110 ) );
#54 = ADVANCED_FACE( '', ( #111, #112 ), #113, .F. );
#55 = PRESENTATION_STYLE_ASSIGNMENT( ( #114 ) );
#56 = ADVANCED_FACE( '', ( #115 ), #116, .T. );
#57 = PRESENTATION_STYLE_ASSIGNMENT( ( #117 ) );
#58 = ADVANCED_FACE( '', ( #118 ), #119, .T. );
#59 = PRESENTATION_STYLE_ASSIGNMENT( ( #120 ) );
#60 = ADVANCED_FACE( '', ( #121, #122 ), #123, .F. );
#61 = PRESENTATION_STYLE_ASSIGNMENT( ( #124 ) );
#62 = ADVANCED_FACE( '', ( #125, #126 ), #127, .T. );
#63 = PRESENTATION_STYLE_ASSIGNMENT( ( #128 ) );
#64 = ADVANCED_FACE( '', ( #129, #130 ), #131, .F. );
#65 = PRODUCT( '1', '1', 'PART-1-DESC', ( #132 ) );
#66 = PRODUCT_DEFINITION( 'NONE', 'NONE', #133, #2 );
#67 = MANIFOLD_SOLID_BREP( '1', #134 );
#68 = AXIS2_PLACEMENT_3D( '', #135, #136, #137 );
#71 = LENGTH_MEASURE_WITH_UNIT( LENGTH_MEASURE( 1.00000000000000 ), #138 );
#74 = DIMENSIONAL_EXPONENTS( 1.00000000000000, 0.000000000000000, 0.000000000000000, 0.000000000000000, 0.000000000000000, 0.000000000000000, 0.000000000000000 );
#76 = DIMENSIONAL_EXPONENTS( 0.000000000000000, 0.000000000000000, 0.000000000000000, 0.000000000000000, 0.000000000000000, 0.000000000000000, 0.000000000000000 );
#82 = SURFACE_STYLE_USAGE( .BOTH., #139 );
#83 = FACE_OUTER_BOUND( '', #140, .T. );
#84 = PLANE( '', #141 );
#85 = SURFACE_STYLE_USAGE( .BOTH., #142 );
#86 = FACE_OUTER_BOUND( '', #143, .T. );
#87 = PLANE( '', #144 );
#88 = SURFACE_STYLE_USAGE( .BOTH., #145 );
#89 = FACE_OUTER_BOUND( '', #146, .T. );
#90 = PLANE( '', #147 );
#91 = SURFACE_STYLE_USAGE( .BOTH., #148 );
#92 = FACE_OUTER_BOUND( '', #149, .T. );
#93 = FACE_OUTER_BOUND( '', #150, .T. );
#94 = CYLINDRICAL_SURFACE( '', #151, 15.1455000000000 );
#95 = SURFACE_STYLE_USAGE( .BOTH., #152 );
#96 = FACE_BOUND( '', #153, .T. );
#97 = FACE_OUTER_BOUND( '', #154, .T. );
#98 = PLANE( '', #155 );
#99 = SURFACE_STYLE_USAGE( .BOTH., #156 );
#100 = FACE_OUTER_BOUND( '', #157, .T. );
#101 = PLANE( '', #158 );
#102 = SURFACE_STYLE_USAGE( .BOTH., #159 );
#103 = FACE_OUTER_BOUND( '', #160, .T. );
#104 = FACE_BOUND( '', #161, .T. );
#105 = PLANE( '', #162 );
#106 = SURFACE_STYLE_USAGE( .BOTH., #163 );
#107 = FACE_OUTER_BOUND( '', #164, .T. );
#108 = FACE_OUTER_BOUND( '', #165, .T. );
#109 = CYLINDRICAL_SURFACE( '', #166, 12.5000000000000 );
#110 = SURFACE_STYLE_USAGE( .BOTH., #167 );
#111 = FACE_OUTER_BOUND( '', #168, .T. );
#112 = FACE_OUTER_BOUND( '', #169, .T. );
#113 = CYLINDRICAL_SURFACE( '', #170, 15.1455000000000 );
#114 = SURFACE_STYLE_USAGE( .BOTH., #171 );
#115 = FACE_OUTER_BOUND( '', #172, .T. );
#116 = PLANE( '', #173 );
#117 = SURFACE_STYLE_USAGE( .BOTH., #174 );
#118 = FACE_OUTER_BOUND( '', #175, .T. );
#119 = PLANE( '', #176 );
#120 = SURFACE_STYLE_USAGE( .BOTH., #177 );
#121 = FACE_OUTER_BOUND( '', #178, .T. );
#122 = FACE_BOUND( '', #179, .T. );
#123 = PLANE( '', #180 );
#124 = SURFACE_STYLE_USAGE( .BOTH., #181 );
#125 = FACE_OUTER_BOUND( '', #182, .T. );
#126 = FACE_OUTER_BOUND( '', #183, .T. );
#127 = CYLINDRICAL_SURFACE( '', #184, 14.0000000000000 );
#128 = SURFACE_STYLE_USAGE( .BOTH., #185 );
#129 = FACE_BOUND( '', #186, .T. );
#130 = FACE_OUTER_BOUND( '', #187, .T. );
#131 = PLANE( '', #188 );
#132 = PRODUCT_CONTEXT( '', #24, 'mechanical' );
#133 = PRODUCT_DEFINITION_FORMATION_WITH_SPECIFIED_SOURCE( ' ', 'NONE', #65, .NOT_KNOWN. );
#134 = CLOSED_SHELL( '', ( #58, #50, #38, #60, #56, #48, #40, #62, #64, #44, #42, #54, #52, #46 ) );
#135 = CARTESIAN_POINT( '', ( 0.000000000000000, 0.000000000000000, 0.000000000000000 ) );
#136 = DIRECTION( '', ( 0.000000000000000, 0.000000000000000, 1.00000000000000 ) );
#137 = DIRECTION( '', ( 1.00000000000000, 0.000000000000000, 0.000000000000000 ) );
#138 =  ( LENGTH_UNIT(  )NAMED_UNIT( #74 )SI_UNIT( .MILLI., .METRE. ) );
#139 = SURFACE_SIDE_STYLE( '', ( #190 ) );
#140 = EDGE_LOOP( '', ( #191, #192, #193, #194 ) );
#141 = AXIS2_PLACEMENT_3D( '', #195, #196, #197 );
#142 = SURFACE_SIDE_STYLE( '', ( #198 ) );
#143 = EDGE_LOOP( '', ( #199, #200, #201, #202 ) );
#144 = AXIS2_PLACEMENT_3D( '', #203, #204, #205 );
#145 = SURFACE_SIDE_STYLE( '', ( #206 ) );
#146 = EDGE_LOOP( '', ( #207, #208, #209, #210 ) );
#147 = AXIS2_PLACEMENT_3D( '', #211, #212, #213 );
#148 = SURFACE_SIDE_STYLE( '', ( #214 ) );
#149 = EDGE_LOOP( '', ( #215 ) );
#150 = EDGE_LOOP( '', ( #216 ) );
#151 = AXIS2_PLACEMENT_3D( '', #217, #218, #219 );
#152 = SURFACE_SIDE_STYLE( '', ( #220 ) );
#153 = EDGE_LOOP( '', ( #221 ) );
#154 = EDGE_LOOP( '', ( #222 ) );
#155 = AXIS2_PLACEMENT_3D( '', #223, #224, #225 );
#156 = SURFACE_SIDE_STYLE( '', ( #226 ) );
#157 = EDGE_LOOP( '', ( #227, #228, #229, #230 ) );
#158 = AXIS2_PLACEMENT_3D( '', #231, #232, #233 );
#159 = SURFACE_SIDE_STYLE( '', ( #234 ) );
#160 = EDGE_LOOP( '', ( #235, #236, #237, #238, #239, #240 ) );
#161 = EDGE_LOOP( '', ( #241 ) );
#162 = AXIS2_PLACEMENT_3D( '', #242, #243, #244 );
#163 = SURFACE_SIDE_STYLE( '', ( #245 ) );
#164 = EDGE_LOOP( '', ( #246 ) );
#165 = EDGE_LOOP( '', ( #247 ) );
#166 = AXIS2_PLACEMENT_3D( '', #248, #249, #250 );
#167 = SURFACE_SIDE_STYLE( '', ( #251 ) );
#168 = EDGE_LOOP( '', ( #252 ) );
#169 = EDGE_LOOP( '', ( #253 ) );
#170 = AXIS2_PLACEMENT_3D( '', #254, #255, #256 );
#171 = SURFACE_SIDE_STYLE( '', ( #257 ) );
#172 = EDGE_LOOP( '', ( #258, #259, #260, #261 ) );
#173 = AXIS2_PLACEMENT_3D( '', #262, #263, #264 );
#174 = SURFACE_SIDE_STYLE( '', ( #265 ) );
#175 = EDGE_LOOP( '', ( #266, #267, #268, #269 ) );
#176 = AXIS2_PLACEMENT_3D( '', #270, #271, #272 );
#177 = SURFACE_SIDE_STYLE( '', ( #273 ) );
#178 = EDGE_LOOP( '', ( #274, #275, #276, #277, #278, #279 ) );
#179 = EDGE_LOOP( '', ( #280 ) );
#180 = AXIS2_PLACEMENT_3D( '', #281, #282, #283 );
#181 = SURFACE_SIDE_STYLE( '', ( #284 ) );
#182 = EDGE_LOOP( '', ( #285 ) );
#183 = EDGE_LOOP( '', ( #286 ) );
#184 = AXIS2_PLACEMENT_3D( '', #287, #288, #289 );
#185 = SURFACE_SIDE_STYLE( '', ( #290 ) );
#186 = EDGE_LOOP( '', ( #291 ) );
#187 = EDGE_LOOP( '', ( #292 ) );
#188 = AXIS2_PLACEMENT_3D( '', #293, #294, #295 );
#190 = SURFACE_STYLE_FILL_AREA( #296 );
#191 = ORIENTED_EDGE( '', *, *, #297, .T. );
#192 = ORIENTED_EDGE( '', *, *, #298, .T. );
#193 = ORIENTED_EDGE( '', *, *, #299, .F. );
#194 = ORIENTED_EDGE( '', *, *, #300, .T. );
#195 = CARTESIAN_POINT( '', ( 22.5166604983954, 26.0000000000000, 6.24500451351651E-014 ) );
#196 = DIRECTION( '', ( 0.866025403784438, 0.000000000000000, 0.500000000000001 ) );
#197 = DIRECTION( '', ( 0.500000000000001, 0.000000000000000, -0.866025403784438 ) );
#198 = SURFACE_STYLE_FILL_AREA( #301 );
#199 = ORIENTED_EDGE( '', *, *, #302, .T. );
#200 = ORIENTED_EDGE( '', *, *, #303, .T. );
#201 = ORIENTED_EDGE( '', *, *, #304, .F. );
#202 = ORIENTED_EDGE( '', *, *, #305, .T. );
#203 = CARTESIAN_POINT( '', ( -11.2583302491977, 26.0000000000000, 19.5000000000000 ) );
#204 = DIRECTION( '', ( -0.866025403784439, 0.000000000000000, 0.500000000000000 ) );
#205 = DIRECTION( '', ( 0.500000000000000, 0.000000000000000, 0.866025403784439 ) );
#206 = SURFACE_STYLE_FILL_AREA( #306 );
#207 = ORIENTED_EDGE( '', *, *, #299, .T. );
#208 = ORIENTED_EDGE( '', *, *, #307, .T. );
#209 = ORIENTED_EDGE( '', *, *, #308, .F. );
#210 = ORIENTED_EDGE( '', *, *, #309, .T. );
#211 = CARTESIAN_POINT( '', ( 11.2583302491977, 26.0000000000000, -19.5000000000000 ) );
#212 = DIRECTION( '', ( 0.866025403784439, 0.000000000000000, -0.500000000000000 ) );
#213 = DIRECTION( '', ( -0.499999999999999, 0.000000000000000, -0.866025403784439 ) );
#214 = SURFACE_STYLE_FILL_AREA( #310 );
#215 = ORIENTED_EDGE( '', *, *, #311, .F. );
#216 = ORIENTED_EDGE( '', *, *, #312, .T. );
#217 = CARTESIAN_POINT( '', ( 0.000000000000000, 0.000000000000000, 0.000000000000000 ) );
#218 = DIRECTION( '', ( -0.000000000000000, -1.00000000000000, -0.000000000000000 ) );
#219 = DIRECTION( '', ( 0.000000000000000, 0.000000000000000, -1.00000000000000 ) );
#220 = SURFACE_STYLE_FILL_AREA( #313 );
#221 = ORIENTED_EDGE( '', *, *, #314, .T. );
#222 = ORIENTED_EDGE( '', *, *, #315, .T. );
#223 = CARTESIAN_POINT( '', ( 0.000000000000000, 21.3360000000000, 0.000000000000000 ) );
#224 = DIRECTION( '', ( 0.000000000000000, 1.00000000000000, 0.000000000000000 ) );
#225 = DIRECTION( '', ( 0.000000000000000, 0.000000000000000, 1.00000000000000 ) );
#226 = SURFACE_STYLE_FILL_AREA( #316 );
#227 = ORIENTED_EDGE( '', *, *, #317, .T. );
#228 = ORIENTED_EDGE( '', *, *, #318, .T. );
#229 = ORIENTED_EDGE( '', *, *, #302, .F. );
#230 = ORIENTED_EDGE( '', *, *, #319, .T. );
#231 = CARTESIAN_POINT( '', ( -22.5166604983954, 26.0000000000000, 0.000000000000000 ) );
#232 = DIRECTION( '', ( -0.866025403784438, 0.000000000000000, -0.500000000000000 ) );
#233 = DIRECTION( '', ( -0.500000000000000, 0.000000000000000, 0.866025403784438 ) );
#234 = SURFACE_STYLE_FILL_AREA( #320 );
#235 = ORIENTED_EDGE( '', *, *, #321, .F. );
#236 = ORIENTED_EDGE( '', *, *, #307, .F. );
#237 = ORIENTED_EDGE( '', *, *, #298, .F. );
#238 = ORIENTED_EDGE( '', *, *, #322, .F. );
#239 = ORIENTED_EDGE( '', *, *, #303, .F. );
#240 = ORIENTED_EDGE( '', *, *, #318, .F. );
#241 = ORIENTED_EDGE( '', *, *, #312, .F. );
#242 = CARTESIAN_POINT( '', ( 0.000000000000000, 0.000000000000000, 0.000000000000000 ) );
#243 = DIRECTION( '', ( 0.000000000000000, -1.00000000000000, 0.000000000000000 ) );
#244 = DIRECTION( '', ( 0.000000000000000, 0.000000000000000, -1.00000000000000 ) );
#245 = SURFACE_STYLE_FILL_AREA( #323 );
#246 = ORIENTED_EDGE( '', *, *, #314, .F. );
#247 = ORIENTED_EDGE( '', *, *, #324, .F. );
#248 = CARTESIAN_POINT( '', ( 0.000000000000000, -44.8809208324014, 0.000000000000000 ) );
#249 = DIRECTION( '', ( -0.000000000000000, -1.00000000000000, -0.000000000000000 ) );
#250 = DIRECTION( '', ( 0.000000000000000, 0.000000000000000, 1.00000000000000 ) );
#251 = SURFACE_STYLE_FILL_AREA( #325 );
#252 = ORIENTED_EDGE( '', *, *, #315, .F. );
#253 = ORIENTED_EDGE( '', *, *, #311, .T. );
#254 = CARTESIAN_POINT( '', ( 0.000000000000000, 0.000000000000000, 0.000000000000000 ) );
#255 = DIRECTION( '', ( -0.000000000000000, -1.00000000000000, -0.000000000000000 ) );
#256 = DIRECTION( '', ( 0.000000000000000, 0.000000000000000, -1.00000000000000 ) );
#257 = SURFACE_STYLE_FILL_AREA( #326 );
#258 = ORIENTED_EDGE( '', *, *, #304, .T. );
#259 = ORIENTED_EDGE( '', *, *, #322, .T. );
#260 = ORIENTED_EDGE( '', *, *, #297, .F. );
#261 = ORIENTED_EDGE( '', *, *, #327, .T. );
#262 = CARTESIAN_POINT( '', ( 11.2583302491976, 26.0000000000000, 19.5000000000000 ) );
#263 = DIRECTION( '', ( -1.38675193729584E-015, 0.000000000000000, 1.00000000000000 ) );
#264 = DIRECTION( '', ( 1.00000000000000, 0.000000000000000, 1.38675193729584E-015 ) );
#265 = SURFACE_STYLE_FILL_AREA( #328 );
#266 = ORIENTED_EDGE( '', *, *, #308, .T. );
#267 = ORIENTED_EDGE( '', *, *, #321, .T. );
#268 = ORIENTED_EDGE( '', *, *, #317, .F. );
#269 = ORIENTED_EDGE( '', *, *, #329, .T. );
#270 = CARTESIAN_POINT( '', ( -11.2583302491977, 26.0000000000000, -19.5000000000000 ) );
#271 = DIRECTION( '', ( 1.54083548588427E-015, 0.000000000000000, -1.00000000000000 ) );
#272 = DIRECTION( '', ( -1.00000000000000, 0.000000000000000, -1.54083548588427E-015 ) );
#273 = SURFACE_STYLE_FILL_AREA( #330 );
#274 = ORIENTED_EDGE( '', *, *, #327, .F. );
#275 = ORIENTED_EDGE( '', *, *, #300, .F. );
#276 = ORIENTED_EDGE( '', *, *, #309, .F. );
#277 = ORIENTED_EDGE( '', *, *, #329, .F. );
#278 = ORIENTED_EDGE( '', *, *, #319, .F. );
#279 = ORIENTED_EDGE( '', *, *, #305, .F. );
#280 = ORIENTED_EDGE( '', *, *, #331, .T. );
#281 = CARTESIAN_POINT( '', ( 0.000000000000000, 26.0000000000000, 0.000000000000000 ) );
#282 = DIRECTION( '', ( 0.000000000000000, -1.00000000000000, 0.000000000000000 ) );
#283 = DIRECTION( '', ( 0.000000000000000, 0.000000000000000, -1.00000000000000 ) );
#284 = SURFACE_STYLE_FILL_AREA( #332 );
#285 = ORIENTED_EDGE( '', *, *, #333, .T. );
#286 = ORIENTED_EDGE( '', *, *, #331, .F. );
#287 = CARTESIAN_POINT( '', ( -1.60461921527854E-014, 69.0000000000000, 1.99493199737333E-014 ) );
#288 = DIRECTION( '', ( -0.000000000000000, 1.00000000000000, -0.000000000000000 ) );
#289 = DIRECTION( '', ( 0.000000000000000, 0.000000000000000, -1.00000000000000 ) );
#290 = SURFACE_STYLE_FILL_AREA( #334 );
#291 = ORIENTED_EDGE( '', *, *, #324, .T. );
#292 = ORIENTED_EDGE( '', *, *, #333, .F. );
#293 = CARTESIAN_POINT( '', ( -1.60461921527854E-014, 69.0000000000000, 1.99493199737333E-014 ) );
#294 = DIRECTION( '', ( 0.000000000000000, -1.00000000000000, 0.000000000000000 ) );
#295 = DIRECTION( '', ( 0.000000000000000, 0.000000000000000, -1.00000000000000 ) );
#296 = FILL_AREA_STYLE( '', ( #335 ) );
#297 = EDGE_CURVE( '', #336, #337, #338, .T. );
#298 = EDGE_CURVE( '', #337, #339, #340, .T. );
#299 = EDGE_CURVE( '', #341, #339, #342, .T. );
#300 = EDGE_CURVE( '', #341, #336, #343, .T. );
#301 = FILL_AREA_STYLE( '', ( #344 ) );
#302 = EDGE_CURVE( '', #345, #346, #347, .T. );
#303 = EDGE_CURVE( '', #346, #348, #349, .T. );
#304 = EDGE_CURVE( '', #350, #348, #351, .T. );
#305 = EDGE_CURVE( '', #350, #345, #352, .T. );
#306 = FILL_AREA_STYLE( '', ( #353 ) );
#307 = EDGE_CURVE( '', #339, #354, #355, .T. );
#308 = EDGE_CURVE( '', #356, #354, #357, .T. );
#309 = EDGE_CURVE( '', #356, #341, #358, .T. );
#310 = FILL_AREA_STYLE( '', ( #359 ) );
#311 = EDGE_CURVE( '', #360, #360, #361, .T. );
#312 = EDGE_CURVE( '', #362, #362, #363, .T. );
#313 = FILL_AREA_STYLE( '', ( #364 ) );
#314 = EDGE_CURVE( '', #365, #365, #366, .T. );
#315 = EDGE_CURVE( '', #367, #367, #368, .T. );
#316 = FILL_AREA_STYLE( '', ( #369 ) );
#317 = EDGE_CURVE( '', #370, #371, #372, .T. );
#318 = EDGE_CURVE( '', #371, #346, #373, .T. );
#319 = EDGE_CURVE( '', #345, #370, #374, .T. );
#320 = FILL_AREA_STYLE( '', ( #375 ) );
#321 = EDGE_CURVE( '', #354, #371, #376, .T. );
#322 = EDGE_CURVE( '', #348, #337, #377, .T. );
#323 = FILL_AREA_STYLE( '', ( #378 ) );
#324 = EDGE_CURVE( '', #379, #379, #380, .T. );
#325 = FILL_AREA_STYLE( '', ( #381 ) );
#326 = FILL_AREA_STYLE( '', ( #382 ) );
#327 = EDGE_CURVE( '', #336, #350, #383, .T. );
#328 = FILL_AREA_STYLE( '', ( #384 ) );
#329 = EDGE_CURVE( '', #370, #356, #385, .T. );
#330 = FILL_AREA_STYLE( '', ( #386 ) );
#331 = EDGE_CURVE( '', #387, #387, #388, .T. );
#332 = FILL_AREA_STYLE( '', ( #389 ) );
#333 = EDGE_CURVE( '', #390, #390, #391, .T. );
#334 = FILL_AREA_STYLE( '', ( #392 ) );
#335 = FILL_AREA_STYLE_COLOUR( '', #393 );
#336 = VERTEX_POINT( '', #394 );
#337 = VERTEX_POINT( '', #395 );
#338 = LINE( '', #396, #397 );
#339 = VERTEX_POINT( '', #398 );
#340 = LINE( '', #399, #400 );
#341 = VERTEX_POINT( '', #401 );
#342 = LINE( '', #402, #403 );
#343 = LINE( '', #404, #405 );
#344 = FILL_AREA_STYLE_COLOUR( '', #406 );
#345 = VERTEX_POINT( '', #407 );
#346 = VERTEX_POINT( '', #408 );
#347 = LINE( '', #409, #410 );
#348 = VERTEX_POINT( '', #411 );
#349 = LINE( '', #412, #413 );
#350 = VERTEX_POINT( '', #414 );
#351 = LINE( '', #415, #416 );
#352 = LINE( '', #417, #418 );
#353 = FILL_AREA_STYLE_COLOUR( '', #419 );
#354 = VERTEX_POINT( '', #420 );
#355 = LINE( '', #421, #422 );
#356 = VERTEX_POINT( '', #423 );
#357 = LINE( '', #424, #425 );
#358 = LINE( '', #426, #427 );
#359 = FILL_AREA_STYLE_COLOUR( '', #428 );
#360 = VERTEX_POINT( '', #429 );
#361 = CIRCLE( '', #430, 15.1455000000000 );
#362 = VERTEX_POINT( '', #431 );
#363 = CIRCLE( '', #432, 15.1455000000000 );
#364 = FILL_AREA_STYLE_COLOUR( '', #433 );
#365 = VERTEX_POINT( '', #434 );
#366 = CIRCLE( '', #435, 12.5000000000000 );
#367 = VERTEX_POINT( '', #436 );
#368 = CIRCLE( '', #437, 15.1455000000000 );
#369 = FILL_AREA_STYLE_COLOUR( '', #438 );
#370 = VERTEX_POINT( '', #439 );
#371 = VERTEX_POINT( '', #440 );
#372 = LINE( '', #441, #442 );
#373 = LINE( '', #443, #444 );
#374 = LINE( '', #445, #446 );
#375 = FILL_AREA_STYLE_COLOUR( '', #447 );
#376 = LINE( '', #448, #449 );
#377 = LINE( '', #450, #451 );
#378 = FILL_AREA_STYLE_COLOUR( '', #452 );
#379 = VERTEX_POINT( '', #453 );
#380 = CIRCLE( '', #454, 12.5000000000000 );
#381 = FILL_AREA_STYLE_COLOUR( '', #455 );
#382 = FILL_AREA_STYLE_COLOUR( '', #456 );
#383 = LINE( '', #457, #458 );
#384 = FILL_AREA_STYLE_COLOUR( '', #459 );
#385 = LINE( '', #460, #461 );
#386 = FILL_AREA_STYLE_COLOUR( '', #462 );
#387 = VERTEX_POINT( '', #463 );
#388 = CIRCLE( '', #464, 14.0000000000000 );
#389 = FILL_AREA_STYLE_COLOUR( '', #465 );
#390 = VERTEX_POINT( '', #466 );
#391 = CIRCLE( '', #467, 14.0000000000000 );
#392 = FILL_AREA_STYLE_COLOUR( '', #468 );
#393 = COLOUR_RGB( '', 0.898039221763611, 0.000000000000000, 0.000000000000000 );
#394 = CARTESIAN_POINT( '', ( 11.2583302491976, 26.0000000000000, 19.5000000000000 ) );
#395 = CARTESIAN_POINT( '', ( 11.2583302491976, 0.000000000000000, 19.5000000000000 ) );
#396 = CARTESIAN_POINT( '', ( 11.2583302491976, 26.0000000000000, 19.5000000000000 ) );
#397 = VECTOR( '', #469, 1000.00000000000 );
#398 = CARTESIAN_POINT( '', ( 22.5166604983954, 0.000000000000000, 6.24500451351651E-014 ) );
#399 = CARTESIAN_POINT( '', ( 22.5166604983954, 0.000000000000000, 6.24500451351651E-014 ) );
#400 = VECTOR( '', #470, 999.999999999999 );
#401 = CARTESIAN_POINT( '', ( 22.5166604983954, 26.0000000000000, 0.000000000000000 ) );
#402 = CARTESIAN_POINT( '', ( 22.5166604983954, 26.0000000000000, 6.24500451351651E-014 ) );
#403 = VECTOR( '', #471, 1000.00000000000 );
#404 = CARTESIAN_POINT( '', ( 16.8874953737965, 26.0000000000000, 9.75000000000000 ) );
#405 = VECTOR( '', #472, 999.999999999999 );
#406 = COLOUR_RGB( '', 0.898039221763611, 0.000000000000000, 0.000000000000000 );
#407 = CARTESIAN_POINT( '', ( -22.5166604983954, 26.0000000000000, 3.46944695195362E-015 ) );
#408 = CARTESIAN_POINT( '', ( -22.5166604983954, 0.000000000000000, 0.000000000000000 ) );
#409 = CARTESIAN_POINT( '', ( -22.5166604983954, 26.0000000000000, 0.000000000000000 ) );
#410 = VECTOR( '', #473, 1000.00000000000 );
#411 = CARTESIAN_POINT( '', ( -11.2583302491977, 0.000000000000000, 19.5000000000000 ) );
#412 = CARTESIAN_POINT( '', ( -11.2583302491977, 0.000000000000000, 19.5000000000000 ) );
#413 = VECTOR( '', #474, 1000.00000000000 );
#414 = CARTESIAN_POINT( '', ( -11.2583302491977, 26.0000000000000, 19.5000000000000 ) );
#415 = CARTESIAN_POINT( '', ( -11.2583302491977, 26.0000000000000, 19.5000000000000 ) );
#416 = VECTOR( '', #475, 1000.00000000000 );
#417 = CARTESIAN_POINT( '', ( -16.8874953737965, 26.0000000000000, 9.75000000000000 ) );
#418 = VECTOR( '', #476, 1000.00000000000 );
#419 = COLOUR_RGB( '', 0.898039221763611, 0.000000000000000, 0.000000000000000 );
#420 = CARTESIAN_POINT( '', ( 11.2583302491977, 0.000000000000000, -19.5000000000000 ) );
#421 = CARTESIAN_POINT( '', ( 11.2583302491977, 0.000000000000000, -19.5000000000000 ) );
#422 = VECTOR( '', #477, 1000.00000000000 );
#423 = CARTESIAN_POINT( '', ( 11.2583302491977, 26.0000000000000, -19.5000000000000 ) );
#424 = CARTESIAN_POINT( '', ( 11.2583302491977, 26.0000000000000, -19.5000000000000 ) );
#425 = VECTOR( '', #478, 1000.00000000000 );
#426 = CARTESIAN_POINT( '', ( 16.8874953737965, 26.0000000000000, -9.75000000000000 ) );
#427 = VECTOR( '', #479, 1000.00000000000 );
#428 = COLOUR_RGB( '', 0.396078437566757, 0.941176474094391, 0.450980395078659 );
#429 = CARTESIAN_POINT( '', ( 0.000000000000000, 19.0500000000000, -15.1455000000000 ) );
#430 = AXIS2_PLACEMENT_3D( '', #480, #481, #482 );
#431 = CARTESIAN_POINT( '', ( 0.000000000000000, 0.000000000000000, -15.1455000000000 ) );
#432 = AXIS2_PLACEMENT_3D( '', #483, #484, #485 );
#433 = COLOUR_RGB( '', 0.898039221763611, 0.000000000000000, 0.000000000000000 );
#434 = CARTESIAN_POINT( '', ( 0.000000000000000, 21.3360000000000, 12.5000000000000 ) );
#435 = AXIS2_PLACEMENT_3D( '', #486, #487, #488 );
#436 = CARTESIAN_POINT( '', ( 0.000000000000000, 21.3360000000000, -15.1455000000000 ) );
#437 = AXIS2_PLACEMENT_3D( '', #489, #490, #491 );
#438 = COLOUR_RGB( '', 0.898039221763611, 0.000000000000000, 0.000000000000000 );
#439 = CARTESIAN_POINT( '', ( -11.2583302491977, 26.0000000000000, -19.5000000000000 ) );
#440 = CARTESIAN_POINT( '', ( -11.2583302491977, 0.000000000000000, -19.5000000000000 ) );
#441 = CARTESIAN_POINT( '', ( -11.2583302491977, 26.0000000000000, -19.5000000000000 ) );
#442 = VECTOR( '', #492, 1000.00000000000 );
#443 = CARTESIAN_POINT( '', ( -22.5166604983954, 0.000000000000000, 0.000000000000000 ) );
#444 = VECTOR( '', #493, 999.999999999999 );
#445 = CARTESIAN_POINT( '', ( -16.8874953737965, 26.0000000000000, -9.75000000000000 ) );
#446 = VECTOR( '', #494, 999.999999999999 );
#447 = COLOUR_RGB( '', 0.898039221763611, 0.000000000000000, 0.000000000000000 );
#448 = CARTESIAN_POINT( '', ( -11.2583302491977, 0.000000000000000, -19.5000000000000 ) );
#449 = VECTOR( '', #495, 1000.00000000000 );
#450 = CARTESIAN_POINT( '', ( 11.2583302491976, 0.000000000000000, 19.5000000000000 ) );
#451 = VECTOR( '', #496, 1000.00000000000 );
#452 = COLOUR_RGB( '', 0.898039221763611, 0.000000000000000, 0.000000000000000 );
#453 = CARTESIAN_POINT( '', ( 0.000000000000000, 69.0000000000000, -12.5000000000000 ) );
#454 = AXIS2_PLACEMENT_3D( '', #497, #498, #499 );
#455 = COLOUR_RGB( '', 0.898039221763611, 0.000000000000000, 0.000000000000000 );
#456 = COLOUR_RGB( '', 0.898039221763611, 0.000000000000000, 0.000000000000000 );
#457 = CARTESIAN_POINT( '', ( -2.70416627772690E-014, 26.0000000000000, 19.5000000000000 ) );
#458 = VECTOR( '', #500, 1000.00000000000 );
#459 = COLOUR_RGB( '', 0.898039221763611, 0.000000000000000, 0.000000000000000 );
#460 = CARTESIAN_POINT( '', ( 3.00462919747431E-014, 26.0000000000000, -19.5000000000000 ) );
#461 = VECTOR( '', #501, 1000.00000000000 );
#462 = COLOUR_RGB( '', 0.898039221763611, 0.000000000000000, 0.000000000000000 );
#463 = CARTESIAN_POINT( '', ( -1.60461921527854E-014, 26.0000000000000, -14.0000000000000 ) );
#464 = AXIS2_PLACEMENT_3D( '', #502, #503, #504 );
#465 = COLOUR_RGB( '', 0.898039221763611, 0.000000000000000, 0.000000000000000 );
#466 = CARTESIAN_POINT( '', ( -1.60461921527854E-014, 69.0000000000000, -14.0000000000000 ) );
#467 = AXIS2_PLACEMENT_3D( '', #505, #506, #507 );
#468 = COLOUR_RGB( '', 0.898039221763611, 0.000000000000000, 0.000000000000000 );
#469 = DIRECTION( '', ( 0.000000000000000, -1.00000000000000, 0.000000000000000 ) );
#470 = DIRECTION( '', ( 0.500000000000000, 0.000000000000000, -0.866025403784438 ) );
#471 = DIRECTION( '', ( 0.000000000000000, -1.00000000000000, 0.000000000000000 ) );
#472 = DIRECTION( '', ( -0.500000000000000, 0.000000000000000, 0.866025403784438 ) );
#473 = DIRECTION( '', ( 0.000000000000000, -1.00000000000000, 0.000000000000000 ) );
#474 = DIRECTION( '', ( 0.500000000000000, 0.000000000000000, 0.866025403784439 ) );
#475 = DIRECTION( '', ( 0.000000000000000, -1.00000000000000, 0.000000000000000 ) );
#476 = DIRECTION( '', ( -0.500000000000000, 0.000000000000000, -0.866025403784439 ) );
#477 = DIRECTION( '', ( -0.499999999999999, 0.000000000000000, -0.866025403784439 ) );
#478 = DIRECTION( '', ( 0.000000000000000, -1.00000000000000, 0.000000000000000 ) );
#479 = DIRECTION( '', ( 0.499999999999999, 0.000000000000000, 0.866025403784439 ) );
#480 = CARTESIAN_POINT( '', ( 0.000000000000000, 19.0500000000000, 0.000000000000000 ) );
#481 = DIRECTION( '', ( 0.000000000000000, -1.00000000000000, 0.000000000000000 ) );
#482 = DIRECTION( '', ( 0.000000000000000, 0.000000000000000, -1.00000000000000 ) );
#483 = CARTESIAN_POINT( '', ( 0.000000000000000, 0.000000000000000, 0.000000000000000 ) );
#484 = DIRECTION( '', ( 0.000000000000000, -1.00000000000000, 0.000000000000000 ) );
#485 = DIRECTION( '', ( 0.000000000000000, 0.000000000000000, -1.00000000000000 ) );
#486 = CARTESIAN_POINT( '', ( 0.000000000000000, 21.3360000000000, 0.000000000000000 ) );
#487 = DIRECTION( '', ( 0.000000000000000, 1.00000000000000, 0.000000000000000 ) );
#488 = DIRECTION( '', ( 0.000000000000000, 0.000000000000000, 1.00000000000000 ) );
#489 = CARTESIAN_POINT( '', ( 0.000000000000000, 21.3360000000000, 0.000000000000000 ) );
#490 = DIRECTION( '', ( 0.000000000000000, -1.00000000000000, 0.000000000000000 ) );
#491 = DIRECTION( '', ( 0.000000000000000, 0.000000000000000, -1.00000000000000 ) );
#492 = DIRECTION( '', ( 0.000000000000000, -1.00000000000000, 0.000000000000000 ) );
#493 = DIRECTION( '', ( -0.500000000000000, 0.000000000000000, 0.866025403784438 ) );
#494 = DIRECTION( '', ( 0.500000000000000, 0.000000000000000, -0.866025403784438 ) );
#495 = DIRECTION( '', ( -1.00000000000000, 0.000000000000000, -1.54083548588427E-015 ) );
#496 = DIRECTION( '', ( 1.00000000000000, 0.000000000000000, 1.38675193729584E-015 ) );
#497 = CARTESIAN_POINT( '', ( 0.000000000000000, 69.0000000000000, 0.000000000000000 ) );
#498 = DIRECTION( '', ( 0.000000000000000, -1.00000000000000, 0.000000000000000 ) );
#499 = DIRECTION( '', ( 0.000000000000000, 0.000000000000000, -1.00000000000000 ) );
#500 = DIRECTION( '', ( -1.00000000000000, 0.000000000000000, -1.38675193729584E-015 ) );
#501 = DIRECTION( '', ( 1.00000000000000, 0.000000000000000, 1.54083548588427E-015 ) );
#502 = CARTESIAN_POINT( '', ( -1.60461921527854E-014, 26.0000000000000, 1.99493199737333E-014 ) );
#503 = DIRECTION( '', ( 0.000000000000000, -1.00000000000000, 0.000000000000000 ) );
#504 = DIRECTION( '', ( 0.000000000000000, 0.000000000000000, -1.00000000000000 ) );
#505 = CARTESIAN_POINT( '', ( -1.60461921527854E-014, 69.0000000000000, 1.99493199737333E-014 ) );
#506 = DIRECTION( '', ( 0.000000000000000, -1.00000000000000, 0.000000000000000 ) );
#507 = DIRECTION( '', ( 0.000000000000000, 0.000000000000000, -1.00000000000000 ) );
ENDSEC;
END-ISO-10303-21;
