ISO-10303-21;
HEADER;
FILE_DESCRIPTION( ( 'Unknown' ), '1' );
FILE_NAME( '//Server/ofimatica/alfredo/Alfredo2/ISOTUBI/PZAS3D/FICHATECNICA/NUMEPRESS/generico 3D/F27R1-2DN15.stp', 'Unknown', ( 'Unknown' ), ( 'Unknown' ), 'PSStep 14.0', 'Unknown', '  ' );
FILE_SCHEMA( ( 'AUTOMOTIVE_DESIGN { 1 0 10303 214 1 1 1 1 }' ) );
ENDSEC;
DATA;
#1 = MECHANICAL_DESIGN_GEOMETRIC_PRESENTATION_REPRESENTATION( ' ', ( #10, #11, #12, #13, #14, #15, #16, #17, #18, #19, #20, #21, #22, #23, #24 ), #6 );
#2 = PRODUCT_DEFINITION_CONTEXT( '', #25, 'design' );
#3 = APPLICATION_PROTOCOL_DEFINITION( 'international standard', 'automotive_design', 2001, #25 );
#4 = PRODUCT_CATEGORY_RELATIONSHIP( 'NONE', 'NONE', #26, #27 );
#5 = SHAPE_DEFINITION_REPRESENTATION( #28, #29 );
#6 =  ( GEOMETRIC_REPRESENTATION_CONTEXT( 3 )GLOBAL_UNCERTAINTY_ASSIGNED_CONTEXT( ( #32 ) )GLOBAL_UNIT_ASSIGNED_CONTEXT( ( #34, #35, #36 ) )REPRESENTATION_CONTEXT( 'NONE', 'WORKSPACE' ) );
#10 = STYLED_ITEM( '', ( #38 ), #39 );
#11 = STYLED_ITEM( '', ( #40 ), #41 );
#12 = STYLED_ITEM( '', ( #42 ), #43 );
#13 = STYLED_ITEM( '', ( #44 ), #45 );
#14 = STYLED_ITEM( '', ( #46 ), #47 );
#15 = STYLED_ITEM( '', ( #48 ), #49 );
#16 = STYLED_ITEM( '', ( #50 ), #51 );
#17 = STYLED_ITEM( '', ( #52 ), #53 );
#18 = STYLED_ITEM( '', ( #54 ), #55 );
#19 = STYLED_ITEM( '', ( #56 ), #57 );
#20 = STYLED_ITEM( '', ( #58 ), #59 );
#21 = STYLED_ITEM( '', ( #60 ), #61 );
#22 = STYLED_ITEM( '', ( #62 ), #63 );
#23 = STYLED_ITEM( '', ( #64 ), #65 );
#24 = STYLED_ITEM( '', ( #66 ), #67 );
#25 = APPLICATION_CONTEXT( 'core data for automotive mechanical design processes' );
#26 = PRODUCT_CATEGORY( 'part', 'NONE' );
#27 = PRODUCT_RELATED_PRODUCT_CATEGORY( 'detail', ' ', ( #68 ) );
#28 = PRODUCT_DEFINITION_SHAPE( 'NONE', 'NONE', #69 );
#29 = ADVANCED_BREP_SHAPE_REPRESENTATION( '1', ( #70, #71 ), #6 );
#32 = UNCERTAINTY_MEASURE_WITH_UNIT( LENGTH_MEASURE( 0.00100000000000000 ), #34, '', '' );
#34 =  ( CONVERSION_BASED_UNIT( 'MILLIMETRE', #74 )LENGTH_UNIT(  )NAMED_UNIT( #77 ) );
#35 =  ( NAMED_UNIT( #79 )PLANE_ANGLE_UNIT(  )SI_UNIT( $, .RADIAN. ) );
#36 =  ( NAMED_UNIT( #79 )SI_UNIT( $, .STERADIAN. )SOLID_ANGLE_UNIT(  ) );
#38 = PRESENTATION_STYLE_ASSIGNMENT( ( #85 ) );
#39 = ADVANCED_FACE( '', ( #86, #87 ), #88, .F. );
#40 = PRESENTATION_STYLE_ASSIGNMENT( ( #89 ) );
#41 = ADVANCED_FACE( '', ( #90 ), #91, .F. );
#42 = PRESENTATION_STYLE_ASSIGNMENT( ( #92 ) );
#43 = ADVANCED_FACE( '', ( #93, #94 ), #95, .T. );
#44 = PRESENTATION_STYLE_ASSIGNMENT( ( #96 ) );
#45 = ADVANCED_FACE( '', ( #97, #98 ), #99, .F. );
#46 = PRESENTATION_STYLE_ASSIGNMENT( ( #100 ) );
#47 = ADVANCED_FACE( '', ( #101, #102 ), #103, .T. );
#48 = PRESENTATION_STYLE_ASSIGNMENT( ( #104 ) );
#49 = ADVANCED_FACE( '', ( #105 ), #106, .F. );
#50 = PRESENTATION_STYLE_ASSIGNMENT( ( #107 ) );
#51 = ADVANCED_FACE( '', ( #108, #109 ), #110, .F. );
#52 = PRESENTATION_STYLE_ASSIGNMENT( ( #111 ) );
#53 = ADVANCED_FACE( '', ( #112 ), #113, .F. );
#54 = PRESENTATION_STYLE_ASSIGNMENT( ( #114 ) );
#55 = ADVANCED_FACE( '', ( #115, #116 ), #117, .T. );
#56 = PRESENTATION_STYLE_ASSIGNMENT( ( #118 ) );
#57 = ADVANCED_FACE( '', ( #119, #120 ), #121, .T. );
#58 = PRESENTATION_STYLE_ASSIGNMENT( ( #122 ) );
#59 = ADVANCED_FACE( '', ( #123 ), #124, .F. );
#60 = PRESENTATION_STYLE_ASSIGNMENT( ( #125 ) );
#61 = ADVANCED_FACE( '', ( #126 ), #127, .F. );
#62 = PRESENTATION_STYLE_ASSIGNMENT( ( #128 ) );
#63 = ADVANCED_FACE( '', ( #129 ), #130, .F. );
#64 = PRESENTATION_STYLE_ASSIGNMENT( ( #131 ) );
#65 = ADVANCED_FACE( '', ( #132, #133 ), #134, .F. );
#66 = PRESENTATION_STYLE_ASSIGNMENT( ( #135 ) );
#67 = ADVANCED_FACE( '', ( #136, #137 ), #138, .F. );
#68 = PRODUCT( '1', '1', 'PART-1-DESC', ( #139 ) );
#69 = PRODUCT_DEFINITION( 'NONE', 'NONE', #140, #2 );
#70 = MANIFOLD_SOLID_BREP( '1', #141 );
#71 = AXIS2_PLACEMENT_3D( '', #142, #143, #144 );
#74 = LENGTH_MEASURE_WITH_UNIT( LENGTH_MEASURE( 1.00000000000000 ), #145 );
#77 = DIMENSIONAL_EXPONENTS( 1.00000000000000, 0.000000000000000, 0.000000000000000, 0.000000000000000, 0.000000000000000, 0.000000000000000, 0.000000000000000 );
#79 = DIMENSIONAL_EXPONENTS( 0.000000000000000, 0.000000000000000, 0.000000000000000, 0.000000000000000, 0.000000000000000, 0.000000000000000, 0.000000000000000 );
#85 = SURFACE_STYLE_USAGE( .BOTH., #146 );
#86 = FACE_OUTER_BOUND( '', #147, .T. );
#87 = FACE_BOUND( '', #148, .T. );
#88 = PLANE( '', #149 );
#89 = SURFACE_STYLE_USAGE( .BOTH., #150 );
#90 = FACE_OUTER_BOUND( '', #151, .T. );
#91 = PLANE( '', #152 );
#92 = SURFACE_STYLE_USAGE( .BOTH., #153 );
#93 = FACE_BOUND( '', #154, .T. );
#94 = FACE_OUTER_BOUND( '', #155, .T. );
#95 = CONICAL_SURFACE( '', #156, 10.6680000000000, 0.0312413936106985 );
#96 = SURFACE_STYLE_USAGE( .BOTH., #157 );
#97 = FACE_OUTER_BOUND( '', #158, .T. );
#98 = FACE_OUTER_BOUND( '', #159, .T. );
#99 = CYLINDRICAL_SURFACE( '', #160, 6.00000000000000 );
#100 = SURFACE_STYLE_USAGE( .BOTH., #161 );
#101 = FACE_BOUND( '', #162, .T. );
#102 = FACE_OUTER_BOUND( '', #163, .T. );
#103 = PLANE( '', #164 );
#104 = SURFACE_STYLE_USAGE( .BOTH., #165 );
#105 = FACE_OUTER_BOUND( '', #166, .T. );
#106 = PLANE( '', #167 );
#107 = SURFACE_STYLE_USAGE( .BOTH., #168 );
#108 = FACE_OUTER_BOUND( '', #169, .T. );
#109 = FACE_OUTER_BOUND( '', #170, .T. );
#110 = CYLINDRICAL_SURFACE( '', #171, 8.00000000000000 );
#111 = SURFACE_STYLE_USAGE( .BOTH., #172 );
#112 = FACE_OUTER_BOUND( '', #173, .T. );
#113 = PLANE( '', #174 );
#114 = SURFACE_STYLE_USAGE( .BOTH., #175 );
#115 = FACE_OUTER_BOUND( '', #176, .T. );
#116 = FACE_OUTER_BOUND( '', #177, .T. );
#117 = CYLINDRICAL_SURFACE( '', #178, 7.50000000000000 );
#118 = SURFACE_STYLE_USAGE( .BOTH., #179 );
#119 = FACE_OUTER_BOUND( '', #180, .T. );
#120 = FACE_BOUND( '', #181, .T. );
#121 = PLANE( '', #182 );
#122 = SURFACE_STYLE_USAGE( .BOTH., #183 );
#123 = FACE_OUTER_BOUND( '', #184, .T. );
#124 = PLANE( '', #185 );
#125 = SURFACE_STYLE_USAGE( .BOTH., #186 );
#126 = FACE_OUTER_BOUND( '', #187, .T. );
#127 = PLANE( '', #188 );
#128 = SURFACE_STYLE_USAGE( .BOTH., #189 );
#129 = FACE_OUTER_BOUND( '', #190, .T. );
#130 = PLANE( '', #191 );
#131 = SURFACE_STYLE_USAGE( .BOTH., #192 );
#132 = FACE_OUTER_BOUND( '', #193, .T. );
#133 = FACE_BOUND( '', #194, .T. );
#134 = PLANE( '', #195 );
#135 = SURFACE_STYLE_USAGE( .BOTH., #196 );
#136 = FACE_BOUND( '', #197, .T. );
#137 = FACE_OUTER_BOUND( '', #198, .T. );
#138 = PLANE( '', #199 );
#139 = PRODUCT_CONTEXT( '', #25, 'mechanical' );
#140 = PRODUCT_DEFINITION_FORMATION_WITH_SPECIFIED_SOURCE( ' ', 'NONE', #68, .NOT_KNOWN. );
#141 = CLOSED_SHELL( '', ( #47, #53, #39, #61, #51, #45, #43, #55, #65, #63, #57, #41, #59, #49, #67 ) );
#142 = CARTESIAN_POINT( '', ( 0.000000000000000, 0.000000000000000, 0.000000000000000 ) );
#143 = DIRECTION( '', ( 0.000000000000000, 0.000000000000000, 1.00000000000000 ) );
#144 = DIRECTION( '', ( 1.00000000000000, 0.000000000000000, 0.000000000000000 ) );
#145 =  ( LENGTH_UNIT(  )NAMED_UNIT( #77 )SI_UNIT( .MILLI., .METRE. ) );
#146 = SURFACE_SIDE_STYLE( '', ( #201 ) );
#147 = EDGE_LOOP( '', ( #202, #203, #204, #205, #206, #207 ) );
#148 = EDGE_LOOP( '', ( #208 ) );
#149 = AXIS2_PLACEMENT_3D( '', #209, #210, #211 );
#150 = SURFACE_SIDE_STYLE( '', ( #212 ) );
#151 = EDGE_LOOP( '', ( #213, #214, #215, #216 ) );
#152 = AXIS2_PLACEMENT_3D( '', #217, #218, #219 );
#153 = SURFACE_SIDE_STYLE( '', ( #220 ) );
#154 = EDGE_LOOP( '', ( #221 ) );
#155 = EDGE_LOOP( '', ( #222 ) );
#156 = AXIS2_PLACEMENT_3D( '', #223, #224, #225 );
#157 = SURFACE_SIDE_STYLE( '', ( #226 ) );
#158 = EDGE_LOOP( '', ( #227 ) );
#159 = EDGE_LOOP( '', ( #228 ) );
#160 = AXIS2_PLACEMENT_3D( '', #229, #230, #231 );
#161 = SURFACE_SIDE_STYLE( '', ( #232 ) );
#162 = EDGE_LOOP( '', ( #233 ) );
#163 = EDGE_LOOP( '', ( #234 ) );
#164 = AXIS2_PLACEMENT_3D( '', #235, #236, #237 );
#165 = SURFACE_SIDE_STYLE( '', ( #238 ) );
#166 = EDGE_LOOP( '', ( #239, #240, #241, #242 ) );
#167 = AXIS2_PLACEMENT_3D( '', #243, #244, #245 );
#168 = SURFACE_SIDE_STYLE( '', ( #246 ) );
#169 = EDGE_LOOP( '', ( #247 ) );
#170 = EDGE_LOOP( '', ( #248 ) );
#171 = AXIS2_PLACEMENT_3D( '', #249, #250, #251 );
#172 = SURFACE_SIDE_STYLE( '', ( #252 ) );
#173 = EDGE_LOOP( '', ( #253, #254, #255, #256 ) );
#174 = AXIS2_PLACEMENT_3D( '', #257, #258, #259 );
#175 = SURFACE_SIDE_STYLE( '', ( #260 ) );
#176 = EDGE_LOOP( '', ( #261 ) );
#177 = EDGE_LOOP( '', ( #262 ) );
#178 = AXIS2_PLACEMENT_3D( '', #263, #264, #265 );
#179 = SURFACE_SIDE_STYLE( '', ( #266 ) );
#180 = EDGE_LOOP( '', ( #267, #268, #269, #270, #271, #272 ) );
#181 = EDGE_LOOP( '', ( #273 ) );
#182 = AXIS2_PLACEMENT_3D( '', #274, #275, #276 );
#183 = SURFACE_SIDE_STYLE( '', ( #277 ) );
#184 = EDGE_LOOP( '', ( #278, #279, #280, #281 ) );
#185 = AXIS2_PLACEMENT_3D( '', #282, #283, #284 );
#186 = SURFACE_SIDE_STYLE( '', ( #285 ) );
#187 = EDGE_LOOP( '', ( #286, #287, #288, #289 ) );
#188 = AXIS2_PLACEMENT_3D( '', #290, #291, #292 );
#189 = SURFACE_SIDE_STYLE( '', ( #293 ) );
#190 = EDGE_LOOP( '', ( #294, #295, #296, #297 ) );
#191 = AXIS2_PLACEMENT_3D( '', #298, #299, #300 );
#192 = SURFACE_SIDE_STYLE( '', ( #301 ) );
#193 = EDGE_LOOP( '', ( #302 ) );
#194 = EDGE_LOOP( '', ( #303 ) );
#195 = AXIS2_PLACEMENT_3D( '', #304, #305, #306 );
#196 = SURFACE_SIDE_STYLE( '', ( #307 ) );
#197 = EDGE_LOOP( '', ( #308 ) );
#198 = EDGE_LOOP( '', ( #309 ) );
#199 = AXIS2_PLACEMENT_3D( '', #310, #311, #312 );
#201 = SURFACE_STYLE_FILL_AREA( #313 );
#202 = ORIENTED_EDGE( '', *, *, #314, .F. );
#203 = ORIENTED_EDGE( '', *, *, #315, .F. );
#204 = ORIENTED_EDGE( '', *, *, #316, .F. );
#205 = ORIENTED_EDGE( '', *, *, #317, .F. );
#206 = ORIENTED_EDGE( '', *, *, #318, .F. );
#207 = ORIENTED_EDGE( '', *, *, #319, .F. );
#208 = ORIENTED_EDGE( '', *, *, #320, .F. );
#209 = CARTESIAN_POINT( '', ( 0.000000000000000, 0.000000000000000, 0.000000000000000 ) );
#210 = DIRECTION( '', ( 0.000000000000000, 1.00000000000000, 0.000000000000000 ) );
#211 = DIRECTION( '', ( 0.000000000000000, 0.000000000000000, 1.00000000000000 ) );
#212 = SURFACE_STYLE_FILL_AREA( #321 );
#213 = ORIENTED_EDGE( '', *, *, #322, .F. );
#214 = ORIENTED_EDGE( '', *, *, #323, .T. );
#215 = ORIENTED_EDGE( '', *, *, #324, .T. );
#216 = ORIENTED_EDGE( '', *, *, #318, .T. );
#217 = CARTESIAN_POINT( '', ( 6.63952809568070, 7.00000000000000, 11.5000000000000 ) );
#218 = DIRECTION( '', ( -0.866025403784439, 0.000000000000000, -0.500000000000000 ) );
#219 = DIRECTION( '', ( -0.500000000000000, 0.000000000000000, 0.866025403784439 ) );
#220 = SURFACE_STYLE_FILL_AREA( #325 );
#221 = ORIENTED_EDGE( '', *, *, #326, .F. );
#222 = ORIENTED_EDGE( '', *, *, #320, .T. );
#223 = CARTESIAN_POINT( '', ( 0.000000000000000, 0.255240000000000, 0.000000000000000 ) );
#224 = DIRECTION( '', ( -0.000000000000000, 1.00000000000000, -0.000000000000000 ) );
#225 = DIRECTION( '', ( 0.000000000000000, 0.000000000000000, 1.00000000000000 ) );
#226 = SURFACE_STYLE_FILL_AREA( #327 );
#227 = ORIENTED_EDGE( '', *, *, #328, .T. );
#228 = ORIENTED_EDGE( '', *, *, #329, .F. );
#229 = CARTESIAN_POINT( '', ( 6.93889390390723E-015, 2.04696243185652, 1.34441069388203E-014 ) );
#230 = DIRECTION( '', ( -0.000000000000000, -1.00000000000000, -0.000000000000000 ) );
#231 = DIRECTION( '', ( 0.000000000000000, 0.000000000000000, 1.00000000000000 ) );
#232 = SURFACE_STYLE_FILL_AREA( #330 );
#233 = ORIENTED_EDGE( '', *, *, #331, .T. );
#234 = ORIENTED_EDGE( '', *, *, #326, .T. );
#235 = CARTESIAN_POINT( '', ( 0.000000000000000, -15.0000000000000, 0.000000000000000 ) );
#236 = DIRECTION( '', ( 0.000000000000000, -1.00000000000000, 0.000000000000000 ) );
#237 = DIRECTION( '', ( 0.000000000000000, 0.000000000000000, -1.00000000000000 ) );
#238 = SURFACE_STYLE_FILL_AREA( #332 );
#239 = ORIENTED_EDGE( '', *, *, #333, .F. );
#240 = ORIENTED_EDGE( '', *, *, #334, .T. );
#241 = ORIENTED_EDGE( '', *, *, #335, .T. );
#242 = ORIENTED_EDGE( '', *, *, #316, .T. );
#243 = CARTESIAN_POINT( '', ( 6.63952809568069, 7.00000000000000, -11.5000000000000 ) );
#244 = DIRECTION( '', ( 1.56763262476921E-015, 0.000000000000000, 1.00000000000000 ) );
#245 = DIRECTION( '', ( 1.00000000000000, 0.000000000000000, -1.56763262476921E-015 ) );
#246 = SURFACE_STYLE_FILL_AREA( #336 );
#247 = ORIENTED_EDGE( '', *, *, #337, .T. );
#248 = ORIENTED_EDGE( '', *, *, #331, .F. );
#249 = CARTESIAN_POINT( '', ( 0.000000000000000, 3.00000000000000, 0.000000000000000 ) );
#250 = DIRECTION( '', ( -0.000000000000000, 1.00000000000000, -0.000000000000000 ) );
#251 = DIRECTION( '', ( 0.000000000000000, 0.000000000000000, -1.00000000000000 ) );
#252 = SURFACE_STYLE_FILL_AREA( #338 );
#253 = ORIENTED_EDGE( '', *, *, #324, .F. );
#254 = ORIENTED_EDGE( '', *, *, #339, .T. );
#255 = ORIENTED_EDGE( '', *, *, #340, .T. );
#256 = ORIENTED_EDGE( '', *, *, #319, .T. );
#257 = CARTESIAN_POINT( '', ( -6.63952809568065, 7.00000000000000, 11.5000000000000 ) );
#258 = DIRECTION( '', ( -1.82890472889742E-015, 0.000000000000000, -1.00000000000000 ) );
#259 = DIRECTION( '', ( -1.00000000000000, 0.000000000000000, 1.82890472889742E-015 ) );
#260 = SURFACE_STYLE_FILL_AREA( #341 );
#261 = ORIENTED_EDGE( '', *, *, #342, .T. );
#262 = ORIENTED_EDGE( '', *, *, #343, .T. );
#263 = CARTESIAN_POINT( '', ( 0.000000000000000, 45.0000000000000, 0.000000000000000 ) );
#264 = DIRECTION( '', ( -0.000000000000000, 1.00000000000000, -0.000000000000000 ) );
#265 = DIRECTION( '', ( 0.000000000000000, 0.000000000000000, -1.00000000000000 ) );
#266 = SURFACE_STYLE_FILL_AREA( #344 );
#267 = ORIENTED_EDGE( '', *, *, #339, .F. );
#268 = ORIENTED_EDGE( '', *, *, #323, .F. );
#269 = ORIENTED_EDGE( '', *, *, #345, .F. );
#270 = ORIENTED_EDGE( '', *, *, #334, .F. );
#271 = ORIENTED_EDGE( '', *, *, #346, .F. );
#272 = ORIENTED_EDGE( '', *, *, #347, .F. );
#273 = ORIENTED_EDGE( '', *, *, #342, .F. );
#274 = CARTESIAN_POINT( '', ( 0.000000000000000, 7.00000000000000, 0.000000000000000 ) );
#275 = DIRECTION( '', ( 0.000000000000000, 1.00000000000000, 0.000000000000000 ) );
#276 = DIRECTION( '', ( 0.000000000000000, 0.000000000000000, 1.00000000000000 ) );
#277 = SURFACE_STYLE_FILL_AREA( #348 );
#278 = ORIENTED_EDGE( '', *, *, #335, .F. );
#279 = ORIENTED_EDGE( '', *, *, #345, .T. );
#280 = ORIENTED_EDGE( '', *, *, #322, .T. );
#281 = ORIENTED_EDGE( '', *, *, #317, .T. );
#282 = CARTESIAN_POINT( '', ( 13.2790561913614, 7.00000000000000, -3.46944695195362E-015 ) );
#283 = DIRECTION( '', ( -0.866025403784438, 0.000000000000000, 0.500000000000000 ) );
#284 = DIRECTION( '', ( 0.500000000000000, 0.000000000000000, 0.866025403784438 ) );
#285 = SURFACE_STYLE_FILL_AREA( #349 );
#286 = ORIENTED_EDGE( '', *, *, #340, .F. );
#287 = ORIENTED_EDGE( '', *, *, #347, .T. );
#288 = ORIENTED_EDGE( '', *, *, #350, .T. );
#289 = ORIENTED_EDGE( '', *, *, #314, .T. );
#290 = CARTESIAN_POINT( '', ( -13.2790561913614, 7.00000000000000, 3.81639164714897E-014 ) );
#291 = DIRECTION( '', ( 0.866025403784438, 0.000000000000000, -0.500000000000001 ) );
#292 = DIRECTION( '', ( -0.500000000000001, 0.000000000000000, -0.866025403784438 ) );
#293 = SURFACE_STYLE_FILL_AREA( #351 );
#294 = ORIENTED_EDGE( '', *, *, #350, .F. );
#295 = ORIENTED_EDGE( '', *, *, #346, .T. );
#296 = ORIENTED_EDGE( '', *, *, #333, .T. );
#297 = ORIENTED_EDGE( '', *, *, #315, .T. );
#298 = CARTESIAN_POINT( '', ( -6.63952809568071, 7.00000000000000, -11.5000000000000 ) );
#299 = DIRECTION( '', ( 0.866025403784439, 0.000000000000000, 0.500000000000000 ) );
#300 = DIRECTION( '', ( 0.499999999999999, 0.000000000000000, -0.866025403784439 ) );
#301 = SURFACE_STYLE_FILL_AREA( #352 );
#302 = ORIENTED_EDGE( '', *, *, #337, .F. );
#303 = ORIENTED_EDGE( '', *, *, #328, .F. );
#304 = CARTESIAN_POINT( '', ( 0.000000000000000, 3.00000000000000, 0.000000000000000 ) );
#305 = DIRECTION( '', ( 0.000000000000000, 1.00000000000000, 0.000000000000000 ) );
#306 = DIRECTION( '', ( 0.000000000000000, 0.000000000000000, 1.00000000000000 ) );
#307 = SURFACE_STYLE_FILL_AREA( #353 );
#308 = ORIENTED_EDGE( '', *, *, #329, .T. );
#309 = ORIENTED_EDGE( '', *, *, #343, .F. );
#310 = CARTESIAN_POINT( '', ( 0.000000000000000, 45.0000000000000, 0.000000000000000 ) );
#311 = DIRECTION( '', ( 0.000000000000000, -1.00000000000000, 0.000000000000000 ) );
#312 = DIRECTION( '', ( 0.000000000000000, 0.000000000000000, -1.00000000000000 ) );
#313 = FILL_AREA_STYLE( '', ( #354 ) );
#314 = EDGE_CURVE( '', #355, #356, #357, .T. );
#315 = EDGE_CURVE( '', #358, #355, #359, .T. );
#316 = EDGE_CURVE( '', #360, #358, #361, .T. );
#317 = EDGE_CURVE( '', #362, #360, #363, .T. );
#318 = EDGE_CURVE( '', #364, #362, #365, .T. );
#319 = EDGE_CURVE( '', #356, #364, #366, .T. );
#320 = EDGE_CURVE( '', #367, #367, #368, .F. );
#321 = FILL_AREA_STYLE( '', ( #369 ) );
#322 = EDGE_CURVE( '', #370, #362, #371, .T. );
#323 = EDGE_CURVE( '', #370, #372, #373, .T. );
#324 = EDGE_CURVE( '', #372, #364, #374, .T. );
#325 = FILL_AREA_STYLE( '', ( #375 ) );
#326 = EDGE_CURVE( '', #376, #376, #377, .T. );
#327 = FILL_AREA_STYLE( '', ( #378 ) );
#328 = EDGE_CURVE( '', #379, #379, #380, .F. );
#329 = EDGE_CURVE( '', #381, #381, #382, .T. );
#330 = FILL_AREA_STYLE( '', ( #383 ) );
#331 = EDGE_CURVE( '', #384, #384, #385, .F. );
#332 = FILL_AREA_STYLE( '', ( #386 ) );
#333 = EDGE_CURVE( '', #387, #358, #388, .T. );
#334 = EDGE_CURVE( '', #387, #389, #390, .T. );
#335 = EDGE_CURVE( '', #389, #360, #391, .T. );
#336 = FILL_AREA_STYLE( '', ( #392 ) );
#337 = EDGE_CURVE( '', #393, #393, #394, .T. );
#338 = FILL_AREA_STYLE( '', ( #395 ) );
#339 = EDGE_CURVE( '', #372, #396, #397, .T. );
#340 = EDGE_CURVE( '', #396, #356, #398, .T. );
#341 = FILL_AREA_STYLE( '', ( #399 ) );
#342 = EDGE_CURVE( '', #400, #400, #401, .T. );
#343 = EDGE_CURVE( '', #402, #402, #403, .T. );
#344 = FILL_AREA_STYLE( '', ( #404 ) );
#345 = EDGE_CURVE( '', #389, #370, #405, .T. );
#346 = EDGE_CURVE( '', #406, #387, #407, .T. );
#347 = EDGE_CURVE( '', #396, #406, #408, .T. );
#348 = FILL_AREA_STYLE( '', ( #409 ) );
#349 = FILL_AREA_STYLE( '', ( #410 ) );
#350 = EDGE_CURVE( '', #406, #355, #411, .T. );
#351 = FILL_AREA_STYLE( '', ( #412 ) );
#352 = FILL_AREA_STYLE( '', ( #413 ) );
#353 = FILL_AREA_STYLE( '', ( #414 ) );
#354 = FILL_AREA_STYLE_COLOUR( '', #415 );
#355 = VERTEX_POINT( '', #416 );
#356 = VERTEX_POINT( '', #417 );
#357 = LINE( '', #418, #419 );
#358 = VERTEX_POINT( '', #420 );
#359 = LINE( '', #421, #422 );
#360 = VERTEX_POINT( '', #423 );
#361 = LINE( '', #424, #425 );
#362 = VERTEX_POINT( '', #426 );
#363 = LINE( '', #427, #428 );
#364 = VERTEX_POINT( '', #429 );
#365 = LINE( '', #430, #431 );
#366 = LINE( '', #432, #433 );
#367 = VERTEX_POINT( '', #434 );
#368 = CIRCLE( '', #435, 10.6600233513906 );
#369 = FILL_AREA_STYLE_COLOUR( '', #436 );
#370 = VERTEX_POINT( '', #437 );
#371 = LINE( '', #438, #439 );
#372 = VERTEX_POINT( '', #440 );
#373 = LINE( '', #441, #442 );
#374 = LINE( '', #443, #444 );
#375 = FILL_AREA_STYLE_COLOUR( '', #445 );
#376 = VERTEX_POINT( '', #446 );
#377 = CIRCLE( '', #447, 10.1912499258288 );
#378 = FILL_AREA_STYLE_COLOUR( '', #448 );
#379 = VERTEX_POINT( '', #449 );
#380 = CIRCLE( '', #450, 6.00000000000000 );
#381 = VERTEX_POINT( '', #451 );
#382 = CIRCLE( '', #452, 6.00000000000000 );
#383 = FILL_AREA_STYLE_COLOUR( '', #453 );
#384 = VERTEX_POINT( '', #454 );
#385 = CIRCLE( '', #455, 8.00000000000000 );
#386 = FILL_AREA_STYLE_COLOUR( '', #456 );
#387 = VERTEX_POINT( '', #457 );
#388 = LINE( '', #458, #459 );
#389 = VERTEX_POINT( '', #460 );
#390 = LINE( '', #461, #462 );
#391 = LINE( '', #463, #464 );
#392 = FILL_AREA_STYLE_COLOUR( '', #465 );
#393 = VERTEX_POINT( '', #466 );
#394 = CIRCLE( '', #467, 8.00000000000000 );
#395 = FILL_AREA_STYLE_COLOUR( '', #468 );
#396 = VERTEX_POINT( '', #469 );
#397 = LINE( '', #470, #471 );
#398 = LINE( '', #472, #473 );
#399 = FILL_AREA_STYLE_COLOUR( '', #474 );
#400 = VERTEX_POINT( '', #475 );
#401 = CIRCLE( '', #476, 7.50000000000000 );
#402 = VERTEX_POINT( '', #477 );
#403 = CIRCLE( '', #478, 7.50000000000000 );
#404 = FILL_AREA_STYLE_COLOUR( '', #479 );
#405 = LINE( '', #480, #481 );
#406 = VERTEX_POINT( '', #482 );
#407 = LINE( '', #483, #484 );
#408 = LINE( '', #485, #486 );
#409 = FILL_AREA_STYLE_COLOUR( '', #487 );
#410 = FILL_AREA_STYLE_COLOUR( '', #488 );
#411 = LINE( '', #489, #490 );
#412 = FILL_AREA_STYLE_COLOUR( '', #491 );
#413 = FILL_AREA_STYLE_COLOUR( '', #492 );
#414 = FILL_AREA_STYLE_COLOUR( '', #493 );
#415 = COLOUR_RGB( '', 0.752941191196442, 0.752941191196442, 0.752941191196442 );
#416 = CARTESIAN_POINT( '', ( -13.2790561913614, 0.000000000000000, 3.81639164714897E-014 ) );
#417 = CARTESIAN_POINT( '', ( -6.63952809568065, 0.000000000000000, 11.5000000000000 ) );
#418 = CARTESIAN_POINT( '', ( -13.2790561913614, 0.000000000000000, 3.81639164714897E-014 ) );
#419 = VECTOR( '', #494, 999.999999999999 );
#420 = CARTESIAN_POINT( '', ( -6.63952809568071, 0.000000000000000, -11.5000000000000 ) );
#421 = CARTESIAN_POINT( '', ( -6.63952809568071, 0.000000000000000, -11.5000000000000 ) );
#422 = VECTOR( '', #495, 1000.00000000000 );
#423 = CARTESIAN_POINT( '', ( 6.63952809568069, 0.000000000000000, -11.5000000000000 ) );
#424 = CARTESIAN_POINT( '', ( 6.63952809568069, 0.000000000000000, -11.5000000000000 ) );
#425 = VECTOR( '', #496, 1000.00000000000 );
#426 = CARTESIAN_POINT( '', ( 13.2790561913614, 0.000000000000000, -5.20417042793042E-015 ) );
#427 = CARTESIAN_POINT( '', ( 13.2790561913614, 0.000000000000000, -3.46944695195362E-015 ) );
#428 = VECTOR( '', #497, 999.999999999999 );
#429 = CARTESIAN_POINT( '', ( 6.63952809568070, 0.000000000000000, 11.5000000000000 ) );
#430 = CARTESIAN_POINT( '', ( 6.63952809568070, 0.000000000000000, 11.5000000000000 ) );
#431 = VECTOR( '', #498, 1000.00000000000 );
#432 = CARTESIAN_POINT( '', ( -6.63952809568065, 0.000000000000000, 11.5000000000000 ) );
#433 = VECTOR( '', #499, 1000.00000000000 );
#434 = CARTESIAN_POINT( '', ( 0.000000000000000, 0.000000000000000, 10.6600233513906 ) );
#435 = AXIS2_PLACEMENT_3D( '', #500, #501, #502 );
#436 = COLOUR_RGB( '', 0.752941191196442, 0.752941191196442, 0.752941191196442 );
#437 = CARTESIAN_POINT( '', ( 13.2790561913614, 7.00000000000000, -5.20417042793042E-015 ) );
#438 = CARTESIAN_POINT( '', ( 13.2790561913614, 7.00000000000000, -5.20417042793042E-015 ) );
#439 = VECTOR( '', #503, 1000.00000000000 );
#440 = CARTESIAN_POINT( '', ( 6.63952809568070, 7.00000000000000, 11.5000000000000 ) );
#441 = CARTESIAN_POINT( '', ( 9.95929214352104, 7.00000000000000, 5.75000000000000 ) );
#442 = VECTOR( '', #504, 1000.00000000000 );
#443 = CARTESIAN_POINT( '', ( 6.63952809568070, 7.00000000000000, 11.5000000000000 ) );
#444 = VECTOR( '', #505, 1000.00000000000 );
#445 = COLOUR_RGB( '', 0.396078437566757, 0.941176474094391, 0.450980395078659 );
#446 = CARTESIAN_POINT( '', ( 0.000000000000000, -15.0000000000000, -10.1912499258288 ) );
#447 = AXIS2_PLACEMENT_3D( '', #506, #507, #508 );
#448 = COLOUR_RGB( '', 0.752941191196442, 0.752941191196442, 0.752941191196442 );
#449 = CARTESIAN_POINT( '', ( 6.93889390390723E-015, 3.00000000000000, 6.00000000000001 ) );
#450 = AXIS2_PLACEMENT_3D( '', #509, #510, #511 );
#451 = CARTESIAN_POINT( '', ( 6.93889390390723E-015, 45.0000000000000, -5.99999999999999 ) );
#452 = AXIS2_PLACEMENT_3D( '', #512, #513, #514 );
#453 = COLOUR_RGB( '', 0.752941191196442, 0.752941191196442, 0.752941191196442 );
#454 = CARTESIAN_POINT( '', ( 0.000000000000000, -15.0000000000000, -8.00000000000000 ) );
#455 = AXIS2_PLACEMENT_3D( '', #515, #516, #517 );
#456 = COLOUR_RGB( '', 0.752941191196442, 0.752941191196442, 0.752941191196442 );
#457 = CARTESIAN_POINT( '', ( -6.63952809568071, 7.00000000000000, -11.5000000000000 ) );
#458 = CARTESIAN_POINT( '', ( -6.63952809568071, 7.00000000000000, -11.5000000000000 ) );
#459 = VECTOR( '', #518, 1000.00000000000 );
#460 = CARTESIAN_POINT( '', ( 6.63952809568068, 7.00000000000000, -11.5000000000000 ) );
#461 = CARTESIAN_POINT( '', ( -1.80277751848459E-014, 7.00000000000000, -11.5000000000000 ) );
#462 = VECTOR( '', #519, 1000.00000000000 );
#463 = CARTESIAN_POINT( '', ( 6.63952809568069, 7.00000000000000, -11.5000000000000 ) );
#464 = VECTOR( '', #520, 1000.00000000000 );
#465 = COLOUR_RGB( '', 0.752941191196442, 0.752941191196442, 0.752941191196442 );
#466 = CARTESIAN_POINT( '', ( 8.00000000000000, 3.00000000000000, 0.000000000000000 ) );
#467 = AXIS2_PLACEMENT_3D( '', #521, #522, #523 );
#468 = COLOUR_RGB( '', 0.752941191196442, 0.752941191196442, 0.752941191196442 );
#469 = CARTESIAN_POINT( '', ( -6.63952809568065, 7.00000000000000, 11.5000000000000 ) );
#470 = CARTESIAN_POINT( '', ( 2.10324043823204E-014, 7.00000000000000, 11.5000000000000 ) );
#471 = VECTOR( '', #524, 1000.00000000000 );
#472 = CARTESIAN_POINT( '', ( -6.63952809568065, 7.00000000000000, 11.5000000000000 ) );
#473 = VECTOR( '', #525, 1000.00000000000 );
#474 = COLOUR_RGB( '', 0.752941191196442, 0.752941191196442, 0.752941191196442 );
#475 = CARTESIAN_POINT( '', ( 0.000000000000000, 7.00000000000000, 7.50000000000000 ) );
#476 = AXIS2_PLACEMENT_3D( '', #526, #527, #528 );
#477 = CARTESIAN_POINT( '', ( 0.000000000000000, 45.0000000000000, -7.50000000000000 ) );
#478 = AXIS2_PLACEMENT_3D( '', #529, #530, #531 );
#479 = COLOUR_RGB( '', 0.752941191196442, 0.752941191196442, 0.752941191196442 );
#480 = CARTESIAN_POINT( '', ( 9.95929214352104, 7.00000000000000, -5.75000000000000 ) );
#481 = VECTOR( '', #532, 999.999999999999 );
#482 = CARTESIAN_POINT( '', ( -13.2790561913614, 7.00000000000000, 3.81639164714897E-014 ) );
#483 = CARTESIAN_POINT( '', ( -9.95929214352104, 7.00000000000000, -5.75000000000000 ) );
#484 = VECTOR( '', #533, 1000.00000000000 );
#485 = CARTESIAN_POINT( '', ( -9.95929214352102, 7.00000000000000, 5.75000000000000 ) );
#486 = VECTOR( '', #534, 999.999999999999 );
#487 = COLOUR_RGB( '', 0.752941191196442, 0.752941191196442, 0.752941191196442 );
#488 = COLOUR_RGB( '', 0.752941191196442, 0.752941191196442, 0.752941191196442 );
#489 = CARTESIAN_POINT( '', ( -13.2790561913614, 7.00000000000000, 3.81639164714897E-014 ) );
#490 = VECTOR( '', #535, 1000.00000000000 );
#491 = COLOUR_RGB( '', 0.752941191196442, 0.752941191196442, 0.752941191196442 );
#492 = COLOUR_RGB( '', 0.752941191196442, 0.752941191196442, 0.752941191196442 );
#493 = COLOUR_RGB( '', 0.752941191196442, 0.752941191196442, 0.752941191196442 );
#494 = DIRECTION( '', ( 0.500000000000001, 0.000000000000000, 0.866025403784438 ) );
#495 = DIRECTION( '', ( -0.499999999999999, 0.000000000000000, 0.866025403784439 ) );
#496 = DIRECTION( '', ( -1.00000000000000, 0.000000000000000, 1.56763262476921E-015 ) );
#497 = DIRECTION( '', ( -0.500000000000000, 0.000000000000000, -0.866025403784438 ) );
#498 = DIRECTION( '', ( 0.500000000000000, 0.000000000000000, -0.866025403784439 ) );
#499 = DIRECTION( '', ( 1.00000000000000, 0.000000000000000, -1.82890472889742E-015 ) );
#500 = CARTESIAN_POINT( '', ( 0.000000000000000, 0.000000000000000, 0.000000000000000 ) );
#501 = DIRECTION( '', ( 0.000000000000000, 1.00000000000000, 0.000000000000000 ) );
#502 = DIRECTION( '', ( 0.000000000000000, 0.000000000000000, 1.00000000000000 ) );
#503 = DIRECTION( '', ( 0.000000000000000, -1.00000000000000, 0.000000000000000 ) );
#504 = DIRECTION( '', ( -0.500000000000000, 0.000000000000000, 0.866025403784439 ) );
#505 = DIRECTION( '', ( 0.000000000000000, -1.00000000000000, 0.000000000000000 ) );
#506 = CARTESIAN_POINT( '', ( 0.000000000000000, -15.0000000000000, 0.000000000000000 ) );
#507 = DIRECTION( '', ( 0.000000000000000, -1.00000000000000, 0.000000000000000 ) );
#508 = DIRECTION( '', ( 0.000000000000000, 0.000000000000000, -1.00000000000000 ) );
#509 = CARTESIAN_POINT( '', ( 6.93889390390723E-015, 3.00000000000000, 1.34441069388203E-014 ) );
#510 = DIRECTION( '', ( 0.000000000000000, 1.00000000000000, 0.000000000000000 ) );
#511 = DIRECTION( '', ( 0.000000000000000, 0.000000000000000, 1.00000000000000 ) );
#512 = CARTESIAN_POINT( '', ( 6.93889390390723E-015, 45.0000000000000, 1.34441069388203E-014 ) );
#513 = DIRECTION( '', ( 0.000000000000000, -1.00000000000000, 0.000000000000000 ) );
#514 = DIRECTION( '', ( 0.000000000000000, 0.000000000000000, -1.00000000000000 ) );
#515 = CARTESIAN_POINT( '', ( 0.000000000000000, -15.0000000000000, 0.000000000000000 ) );
#516 = DIRECTION( '', ( 0.000000000000000, -1.00000000000000, 0.000000000000000 ) );
#517 = DIRECTION( '', ( 0.000000000000000, 0.000000000000000, -1.00000000000000 ) );
#518 = DIRECTION( '', ( 0.000000000000000, -1.00000000000000, 0.000000000000000 ) );
#519 = DIRECTION( '', ( 1.00000000000000, 0.000000000000000, -1.56763262476921E-015 ) );
#520 = DIRECTION( '', ( 0.000000000000000, -1.00000000000000, 0.000000000000000 ) );
#521 = CARTESIAN_POINT( '', ( 0.000000000000000, 3.00000000000000, 0.000000000000000 ) );
#522 = DIRECTION( '', ( -0.000000000000000, 1.00000000000000, 0.000000000000000 ) );
#523 = DIRECTION( '', ( 1.00000000000000, 0.000000000000000, 0.000000000000000 ) );
#524 = DIRECTION( '', ( -1.00000000000000, 0.000000000000000, 1.82890472889742E-015 ) );
#525 = DIRECTION( '', ( 0.000000000000000, -1.00000000000000, 0.000000000000000 ) );
#526 = CARTESIAN_POINT( '', ( 0.000000000000000, 7.00000000000000, 0.000000000000000 ) );
#527 = DIRECTION( '', ( 0.000000000000000, 1.00000000000000, 0.000000000000000 ) );
#528 = DIRECTION( '', ( 0.000000000000000, 0.000000000000000, 1.00000000000000 ) );
#529 = CARTESIAN_POINT( '', ( 0.000000000000000, 45.0000000000000, 0.000000000000000 ) );
#530 = DIRECTION( '', ( 0.000000000000000, -1.00000000000000, 0.000000000000000 ) );
#531 = DIRECTION( '', ( 0.000000000000000, 0.000000000000000, -1.00000000000000 ) );
#532 = DIRECTION( '', ( 0.500000000000000, 0.000000000000000, 0.866025403784438 ) );
#533 = DIRECTION( '', ( 0.499999999999999, 0.000000000000000, -0.866025403784439 ) );
#534 = DIRECTION( '', ( -0.500000000000001, 0.000000000000000, -0.866025403784438 ) );
#535 = DIRECTION( '', ( 0.000000000000000, -1.00000000000000, 0.000000000000000 ) );
ENDSEC;
END-ISO-10303-21;
