ISO-10303-21;
HEADER;
FILE_DESCRIPTION( ( 'Unknown' ), '1' );
FILE_NAME( '//Server/ofimatica/alfredo/Alfredo2/ISOTUBI/PZAS3D/FICHATECNICA/NUMEPRESS/generico 3D/F27R1-2DN22.stp', 'Unknown', ( 'Unknown' ), ( 'Unknown' ), 'PSStep 14.0', 'Unknown', '  ' );
FILE_SCHEMA( ( 'AUTOMOTIVE_DESIGN { 1 0 10303 214 1 1 1 1 }' ) );
ENDSEC;
DATA;
#1 = MECHANICAL_DESIGN_GEOMETRIC_PRESENTATION_REPRESENTATION( ' ', ( #10, #11, #12, #13, #14, #15, #16, #17, #18, #19, #20, #21, #22, #23, #24 ), #6 );
#2 = PRODUCT_DEFINITION_CONTEXT( '', #25, 'design' );
#3 = APPLICATION_PROTOCOL_DEFINITION( 'international standard', 'automotive_design', 2001, #25 );
#4 = PRODUCT_CATEGORY_RELATIONSHIP( 'NONE', 'NONE', #26, #27 );
#5 = SHAPE_DEFINITION_REPRESENTATION( #28, #29 );
#6 =  ( GEOMETRIC_REPRESENTATION_CONTEXT( 3 )GLOBAL_UNCERTAINTY_ASSIGNED_CONTEXT( ( #32 ) )GLOBAL_UNIT_ASSIGNED_CONTEXT( ( #34, #35, #36 ) )REPRESENTATION_CONTEXT( 'NONE', 'WORKSPACE' ) );
#10 = STYLED_ITEM( '', ( #38 ), #39 );
#11 = STYLED_ITEM( '', ( #40 ), #41 );
#12 = STYLED_ITEM( '', ( #42 ), #43 );
#13 = STYLED_ITEM( '', ( #44 ), #45 );
#14 = STYLED_ITEM( '', ( #46 ), #47 );
#15 = STYLED_ITEM( '', ( #48 ), #49 );
#16 = STYLED_ITEM( '', ( #50 ), #51 );
#17 = STYLED_ITEM( '', ( #52 ), #53 );
#18 = STYLED_ITEM( '', ( #54 ), #55 );
#19 = STYLED_ITEM( '', ( #56 ), #57 );
#20 = STYLED_ITEM( '', ( #58 ), #59 );
#21 = STYLED_ITEM( '', ( #60 ), #61 );
#22 = STYLED_ITEM( '', ( #62 ), #63 );
#23 = STYLED_ITEM( '', ( #64 ), #65 );
#24 = STYLED_ITEM( '', ( #66 ), #67 );
#25 = APPLICATION_CONTEXT( 'core data for automotive mechanical design processes' );
#26 = PRODUCT_CATEGORY( 'part', 'NONE' );
#27 = PRODUCT_RELATED_PRODUCT_CATEGORY( 'detail', ' ', ( #68 ) );
#28 = PRODUCT_DEFINITION_SHAPE( 'NONE', 'NONE', #69 );
#29 = ADVANCED_BREP_SHAPE_REPRESENTATION( '1', ( #70, #71 ), #6 );
#32 = UNCERTAINTY_MEASURE_WITH_UNIT( LENGTH_MEASURE( 0.00100000000000000 ), #34, '', '' );
#34 =  ( CONVERSION_BASED_UNIT( 'MILLIMETRE', #74 )LENGTH_UNIT(  )NAMED_UNIT( #77 ) );
#35 =  ( NAMED_UNIT( #79 )PLANE_ANGLE_UNIT(  )SI_UNIT( $, .RADIAN. ) );
#36 =  ( NAMED_UNIT( #79 )SI_UNIT( $, .STERADIAN. )SOLID_ANGLE_UNIT(  ) );
#38 = PRESENTATION_STYLE_ASSIGNMENT( ( #85 ) );
#39 = ADVANCED_FACE( '', ( #86 ), #87, .F. );
#40 = PRESENTATION_STYLE_ASSIGNMENT( ( #88 ) );
#41 = ADVANCED_FACE( '', ( #89 ), #90, .F. );
#42 = PRESENTATION_STYLE_ASSIGNMENT( ( #91 ) );
#43 = ADVANCED_FACE( '', ( #92, #93 ), #94, .T. );
#44 = PRESENTATION_STYLE_ASSIGNMENT( ( #95 ) );
#45 = ADVANCED_FACE( '', ( #96, #97 ), #98, .T. );
#46 = PRESENTATION_STYLE_ASSIGNMENT( ( #99 ) );
#47 = ADVANCED_FACE( '', ( #100, #101 ), #102, .T. );
#48 = PRESENTATION_STYLE_ASSIGNMENT( ( #103 ) );
#49 = ADVANCED_FACE( '', ( #104, #105 ), #106, .T. );
#50 = PRESENTATION_STYLE_ASSIGNMENT( ( #107 ) );
#51 = ADVANCED_FACE( '', ( #108 ), #109, .F. );
#52 = PRESENTATION_STYLE_ASSIGNMENT( ( #110 ) );
#53 = ADVANCED_FACE( '', ( #111, #112 ), #113, .F. );
#54 = PRESENTATION_STYLE_ASSIGNMENT( ( #114 ) );
#55 = ADVANCED_FACE( '', ( #115, #116 ), #117, .F. );
#56 = PRESENTATION_STYLE_ASSIGNMENT( ( #118 ) );
#57 = ADVANCED_FACE( '', ( #119, #120 ), #121, .F. );
#58 = PRESENTATION_STYLE_ASSIGNMENT( ( #122 ) );
#59 = ADVANCED_FACE( '', ( #123 ), #124, .F. );
#60 = PRESENTATION_STYLE_ASSIGNMENT( ( #125 ) );
#61 = ADVANCED_FACE( '', ( #126 ), #127, .F. );
#62 = PRESENTATION_STYLE_ASSIGNMENT( ( #128 ) );
#63 = ADVANCED_FACE( '', ( #129, #130 ), #131, .F. );
#64 = PRESENTATION_STYLE_ASSIGNMENT( ( #132 ) );
#65 = ADVANCED_FACE( '', ( #133 ), #134, .F. );
#66 = PRESENTATION_STYLE_ASSIGNMENT( ( #135 ) );
#67 = ADVANCED_FACE( '', ( #136, #137 ), #138, .F. );
#68 = PRODUCT( '1', '1', 'PART-1-DESC', ( #139 ) );
#69 = PRODUCT_DEFINITION( 'NONE', 'NONE', #140, #2 );
#70 = MANIFOLD_SOLID_BREP( '1', #141 );
#71 = AXIS2_PLACEMENT_3D( '', #142, #143, #144 );
#74 = LENGTH_MEASURE_WITH_UNIT( LENGTH_MEASURE( 1.00000000000000 ), #145 );
#77 = DIMENSIONAL_EXPONENTS( 1.00000000000000, 0.000000000000000, 0.000000000000000, 0.000000000000000, 0.000000000000000, 0.000000000000000, 0.000000000000000 );
#79 = DIMENSIONAL_EXPONENTS( 0.000000000000000, 0.000000000000000, 0.000000000000000, 0.000000000000000, 0.000000000000000, 0.000000000000000, 0.000000000000000 );
#85 = SURFACE_STYLE_USAGE( .BOTH., #146 );
#86 = FACE_OUTER_BOUND( '', #147, .T. );
#87 = PLANE( '', #148 );
#88 = SURFACE_STYLE_USAGE( .BOTH., #149 );
#89 = FACE_OUTER_BOUND( '', #150, .T. );
#90 = PLANE( '', #151 );
#91 = SURFACE_STYLE_USAGE( .BOTH., #152 );
#92 = FACE_OUTER_BOUND( '', #153, .T. );
#93 = FACE_OUTER_BOUND( '', #154, .T. );
#94 = CYLINDRICAL_SURFACE( '', #155, 11.0000000000000 );
#95 = SURFACE_STYLE_USAGE( .BOTH., #156 );
#96 = FACE_BOUND( '', #157, .T. );
#97 = FACE_OUTER_BOUND( '', #158, .T. );
#98 = CONICAL_SURFACE( '', #159, 10.6680000000000, 0.0312413936106985 );
#99 = SURFACE_STYLE_USAGE( .BOTH., #160 );
#100 = FACE_OUTER_BOUND( '', #161, .T. );
#101 = FACE_BOUND( '', #162, .T. );
#102 = PLANE( '', #163 );
#103 = SURFACE_STYLE_USAGE( .BOTH., #164 );
#104 = FACE_BOUND( '', #165, .T. );
#105 = FACE_OUTER_BOUND( '', #166, .T. );
#106 = PLANE( '', #167 );
#107 = SURFACE_STYLE_USAGE( .BOTH., #168 );
#108 = FACE_OUTER_BOUND( '', #169, .T. );
#109 = PLANE( '', #170 );
#110 = SURFACE_STYLE_USAGE( .BOTH., #171 );
#111 = FACE_OUTER_BOUND( '', #172, .T. );
#112 = FACE_OUTER_BOUND( '', #173, .T. );
#113 = CYLINDRICAL_SURFACE( '', #174, 9.50000000000000 );
#114 = SURFACE_STYLE_USAGE( .BOTH., #175 );
#115 = FACE_OUTER_BOUND( '', #176, .T. );
#116 = FACE_BOUND( '', #177, .T. );
#117 = CONICAL_SURFACE( '', #178, 8.00000000000000, 0.785398163397448 );
#118 = SURFACE_STYLE_USAGE( .BOTH., #179 );
#119 = FACE_OUTER_BOUND( '', #180, .T. );
#120 = FACE_OUTER_BOUND( '', #181, .T. );
#121 = CYLINDRICAL_SURFACE( '', #182, 8.00000000000000 );
#122 = SURFACE_STYLE_USAGE( .BOTH., #183 );
#123 = FACE_OUTER_BOUND( '', #184, .T. );
#124 = PLANE( '', #185 );
#125 = SURFACE_STYLE_USAGE( .BOTH., #186 );
#126 = FACE_OUTER_BOUND( '', #187, .T. );
#127 = PLANE( '', #188 );
#128 = SURFACE_STYLE_USAGE( .BOTH., #189 );
#129 = FACE_OUTER_BOUND( '', #190, .T. );
#130 = FACE_BOUND( '', #191, .T. );
#131 = PLANE( '', #192 );
#132 = SURFACE_STYLE_USAGE( .BOTH., #193 );
#133 = FACE_OUTER_BOUND( '', #194, .T. );
#134 = PLANE( '', #195 );
#135 = SURFACE_STYLE_USAGE( .BOTH., #196 );
#136 = FACE_BOUND( '', #197, .T. );
#137 = FACE_OUTER_BOUND( '', #198, .T. );
#138 = PLANE( '', #199 );
#139 = PRODUCT_CONTEXT( '', #25, 'mechanical' );
#140 = PRODUCT_DEFINITION_FORMATION_WITH_SPECIFIED_SOURCE( ' ', 'NONE', #68, .NOT_KNOWN. );
#141 = CLOSED_SHELL( '', ( #49, #47, #41, #51, #57, #53, #45, #55, #39, #59, #63, #61, #65, #43, #67 ) );
#142 = CARTESIAN_POINT( '', ( 0.000000000000000, 0.000000000000000, 0.000000000000000 ) );
#143 = DIRECTION( '', ( 0.000000000000000, 0.000000000000000, 1.00000000000000 ) );
#144 = DIRECTION( '', ( 1.00000000000000, 0.000000000000000, 0.000000000000000 ) );
#145 =  ( LENGTH_UNIT(  )NAMED_UNIT( #77 )SI_UNIT( .MILLI., .METRE. ) );
#146 = SURFACE_SIDE_STYLE( '', ( #201 ) );
#147 = EDGE_LOOP( '', ( #202, #203, #204, #205 ) );
#148 = AXIS2_PLACEMENT_3D( '', #206, #207, #208 );
#149 = SURFACE_SIDE_STYLE( '', ( #209 ) );
#150 = EDGE_LOOP( '', ( #210, #211, #212, #213 ) );
#151 = AXIS2_PLACEMENT_3D( '', #214, #215, #216 );
#152 = SURFACE_SIDE_STYLE( '', ( #217 ) );
#153 = EDGE_LOOP( '', ( #218 ) );
#154 = EDGE_LOOP( '', ( #219 ) );
#155 = AXIS2_PLACEMENT_3D( '', #220, #221, #222 );
#156 = SURFACE_SIDE_STYLE( '', ( #223 ) );
#157 = EDGE_LOOP( '', ( #224 ) );
#158 = EDGE_LOOP( '', ( #225 ) );
#159 = AXIS2_PLACEMENT_3D( '', #226, #227, #228 );
#160 = SURFACE_SIDE_STYLE( '', ( #229 ) );
#161 = EDGE_LOOP( '', ( #230, #231, #232, #233, #234, #235 ) );
#162 = EDGE_LOOP( '', ( #236 ) );
#163 = AXIS2_PLACEMENT_3D( '', #237, #238, #239 );
#164 = SURFACE_SIDE_STYLE( '', ( #240 ) );
#165 = EDGE_LOOP( '', ( #241 ) );
#166 = EDGE_LOOP( '', ( #242 ) );
#167 = AXIS2_PLACEMENT_3D( '', #243, #244, #245 );
#168 = SURFACE_SIDE_STYLE( '', ( #246 ) );
#169 = EDGE_LOOP( '', ( #247, #248, #249, #250 ) );
#170 = AXIS2_PLACEMENT_3D( '', #251, #252, #253 );
#171 = SURFACE_SIDE_STYLE( '', ( #254 ) );
#172 = EDGE_LOOP( '', ( #255 ) );
#173 = EDGE_LOOP( '', ( #256 ) );
#174 = AXIS2_PLACEMENT_3D( '', #257, #258, #259 );
#175 = SURFACE_SIDE_STYLE( '', ( #260 ) );
#176 = EDGE_LOOP( '', ( #261 ) );
#177 = EDGE_LOOP( '', ( #262 ) );
#178 = AXIS2_PLACEMENT_3D( '', #263, #264, #265 );
#179 = SURFACE_SIDE_STYLE( '', ( #266 ) );
#180 = EDGE_LOOP( '', ( #267 ) );
#181 = EDGE_LOOP( '', ( #268 ) );
#182 = AXIS2_PLACEMENT_3D( '', #269, #270, #271 );
#183 = SURFACE_SIDE_STYLE( '', ( #272 ) );
#184 = EDGE_LOOP( '', ( #273, #274, #275, #276 ) );
#185 = AXIS2_PLACEMENT_3D( '', #277, #278, #279 );
#186 = SURFACE_SIDE_STYLE( '', ( #280 ) );
#187 = EDGE_LOOP( '', ( #281, #282, #283, #284 ) );
#188 = AXIS2_PLACEMENT_3D( '', #285, #286, #287 );
#189 = SURFACE_SIDE_STYLE( '', ( #288 ) );
#190 = EDGE_LOOP( '', ( #289, #290, #291, #292, #293, #294 ) );
#191 = EDGE_LOOP( '', ( #295 ) );
#192 = AXIS2_PLACEMENT_3D( '', #296, #297, #298 );
#193 = SURFACE_SIDE_STYLE( '', ( #299 ) );
#194 = EDGE_LOOP( '', ( #300, #301, #302, #303 ) );
#195 = AXIS2_PLACEMENT_3D( '', #304, #305, #306 );
#196 = SURFACE_SIDE_STYLE( '', ( #307 ) );
#197 = EDGE_LOOP( '', ( #308 ) );
#198 = EDGE_LOOP( '', ( #309 ) );
#199 = AXIS2_PLACEMENT_3D( '', #310, #311, #312 );
#201 = SURFACE_STYLE_FILL_AREA( #313 );
#202 = ORIENTED_EDGE( '', *, *, #314, .T. );
#203 = ORIENTED_EDGE( '', *, *, #315, .T. );
#204 = ORIENTED_EDGE( '', *, *, #316, .F. );
#205 = ORIENTED_EDGE( '', *, *, #317, .T. );
#206 = CARTESIAN_POINT( '', ( 6.63952809568070, 7.00000000000000, 11.5000000000000 ) );
#207 = DIRECTION( '', ( -0.866025403784439, 0.000000000000000, -0.500000000000000 ) );
#208 = DIRECTION( '', ( -0.500000000000000, 0.000000000000000, 0.866025403784439 ) );
#209 = SURFACE_STYLE_FILL_AREA( #318 );
#210 = ORIENTED_EDGE( '', *, *, #319, .T. );
#211 = ORIENTED_EDGE( '', *, *, #320, .T. );
#212 = ORIENTED_EDGE( '', *, *, #314, .F. );
#213 = ORIENTED_EDGE( '', *, *, #321, .T. );
#214 = CARTESIAN_POINT( '', ( -6.63952809568065, 7.00000000000000, 11.5000000000000 ) );
#215 = DIRECTION( '', ( -1.82890472889742E-015, 0.000000000000000, -1.00000000000000 ) );
#216 = DIRECTION( '', ( -1.00000000000000, 0.000000000000000, 1.82890472889742E-015 ) );
#217 = SURFACE_STYLE_FILL_AREA( #322 );
#218 = ORIENTED_EDGE( '', *, *, #323, .T. );
#219 = ORIENTED_EDGE( '', *, *, #324, .T. );
#220 = CARTESIAN_POINT( '', ( 0.000000000000000, 45.0000000000000, 0.000000000000000 ) );
#221 = DIRECTION( '', ( -0.000000000000000, 1.00000000000000, -0.000000000000000 ) );
#222 = DIRECTION( '', ( 0.000000000000000, 0.000000000000000, -1.00000000000000 ) );
#223 = SURFACE_STYLE_FILL_AREA( #325 );
#224 = ORIENTED_EDGE( '', *, *, #326, .F. );
#225 = ORIENTED_EDGE( '', *, *, #327, .T. );
#226 = CARTESIAN_POINT( '', ( 0.000000000000000, 0.255240000000000, 0.000000000000000 ) );
#227 = DIRECTION( '', ( -0.000000000000000, 1.00000000000000, -0.000000000000000 ) );
#228 = DIRECTION( '', ( 0.000000000000000, 0.000000000000000, 1.00000000000000 ) );
#229 = SURFACE_STYLE_FILL_AREA( #328 );
#230 = ORIENTED_EDGE( '', *, *, #321, .F. );
#231 = ORIENTED_EDGE( '', *, *, #317, .F. );
#232 = ORIENTED_EDGE( '', *, *, #329, .F. );
#233 = ORIENTED_EDGE( '', *, *, #330, .F. );
#234 = ORIENTED_EDGE( '', *, *, #331, .F. );
#235 = ORIENTED_EDGE( '', *, *, #332, .F. );
#236 = ORIENTED_EDGE( '', *, *, #323, .F. );
#237 = CARTESIAN_POINT( '', ( 0.000000000000000, 7.00000000000000, 0.000000000000000 ) );
#238 = DIRECTION( '', ( 0.000000000000000, 1.00000000000000, 0.000000000000000 ) );
#239 = DIRECTION( '', ( 0.000000000000000, 0.000000000000000, 1.00000000000000 ) );
#240 = SURFACE_STYLE_FILL_AREA( #333 );
#241 = ORIENTED_EDGE( '', *, *, #334, .T. );
#242 = ORIENTED_EDGE( '', *, *, #326, .T. );
#243 = CARTESIAN_POINT( '', ( 0.000000000000000, -15.0000000000000, 0.000000000000000 ) );
#244 = DIRECTION( '', ( 0.000000000000000, -1.00000000000000, 0.000000000000000 ) );
#245 = DIRECTION( '', ( 0.000000000000000, 0.000000000000000, -1.00000000000000 ) );
#246 = SURFACE_STYLE_FILL_AREA( #335 );
#247 = ORIENTED_EDGE( '', *, *, #336, .T. );
#248 = ORIENTED_EDGE( '', *, *, #337, .T. );
#249 = ORIENTED_EDGE( '', *, *, #319, .F. );
#250 = ORIENTED_EDGE( '', *, *, #332, .T. );
#251 = CARTESIAN_POINT( '', ( -13.2790561913614, 7.00000000000000, 3.81639164714897E-014 ) );
#252 = DIRECTION( '', ( 0.866025403784438, 0.000000000000000, -0.500000000000001 ) );
#253 = DIRECTION( '', ( -0.500000000000001, 0.000000000000000, -0.866025403784438 ) );
#254 = SURFACE_STYLE_FILL_AREA( #338 );
#255 = ORIENTED_EDGE( '', *, *, #339, .T. );
#256 = ORIENTED_EDGE( '', *, *, #340, .F. );
#257 = CARTESIAN_POINT( '', ( 6.93889390390723E-015, 2.04696243185652, 1.34441069388203E-014 ) );
#258 = DIRECTION( '', ( -0.000000000000000, -1.00000000000000, -0.000000000000000 ) );
#259 = DIRECTION( '', ( 0.000000000000000, 0.000000000000000, 1.00000000000000 ) );
#260 = SURFACE_STYLE_FILL_AREA( #341 );
#261 = ORIENTED_EDGE( '', *, *, #339, .F. );
#262 = ORIENTED_EDGE( '', *, *, #342, .F. );
#263 = CARTESIAN_POINT( '', ( 0.000000000000000, 1.50000000000000, 0.000000000000000 ) );
#264 = DIRECTION( '', ( -0.000000000000000, 1.00000000000000, -0.000000000000000 ) );
#265 = DIRECTION( '', ( 0.000000000000000, 0.000000000000000, 1.00000000000000 ) );
#266 = SURFACE_STYLE_FILL_AREA( #343 );
#267 = ORIENTED_EDGE( '', *, *, #342, .T. );
#268 = ORIENTED_EDGE( '', *, *, #334, .F. );
#269 = CARTESIAN_POINT( '', ( 0.000000000000000, 3.00000000000000, 0.000000000000000 ) );
#270 = DIRECTION( '', ( -0.000000000000000, 1.00000000000000, -0.000000000000000 ) );
#271 = DIRECTION( '', ( 0.000000000000000, 0.000000000000000, -1.00000000000000 ) );
#272 = SURFACE_STYLE_FILL_AREA( #344 );
#273 = ORIENTED_EDGE( '', *, *, #345, .T. );
#274 = ORIENTED_EDGE( '', *, *, #346, .T. );
#275 = ORIENTED_EDGE( '', *, *, #336, .F. );
#276 = ORIENTED_EDGE( '', *, *, #331, .T. );
#277 = CARTESIAN_POINT( '', ( -6.63952809568071, 7.00000000000000, -11.5000000000000 ) );
#278 = DIRECTION( '', ( 0.866025403784439, 0.000000000000000, 0.500000000000000 ) );
#279 = DIRECTION( '', ( 0.499999999999999, 0.000000000000000, -0.866025403784439 ) );
#280 = SURFACE_STYLE_FILL_AREA( #347 );
#281 = ORIENTED_EDGE( '', *, *, #348, .T. );
#282 = ORIENTED_EDGE( '', *, *, #349, .T. );
#283 = ORIENTED_EDGE( '', *, *, #345, .F. );
#284 = ORIENTED_EDGE( '', *, *, #330, .T. );
#285 = CARTESIAN_POINT( '', ( 6.63952809568069, 7.00000000000000, -11.5000000000000 ) );
#286 = DIRECTION( '', ( 1.56763262476921E-015, 0.000000000000000, 1.00000000000000 ) );
#287 = DIRECTION( '', ( 1.00000000000000, 0.000000000000000, -1.56763262476921E-015 ) );
#288 = SURFACE_STYLE_FILL_AREA( #350 );
#289 = ORIENTED_EDGE( '', *, *, #337, .F. );
#290 = ORIENTED_EDGE( '', *, *, #346, .F. );
#291 = ORIENTED_EDGE( '', *, *, #349, .F. );
#292 = ORIENTED_EDGE( '', *, *, #351, .F. );
#293 = ORIENTED_EDGE( '', *, *, #315, .F. );
#294 = ORIENTED_EDGE( '', *, *, #320, .F. );
#295 = ORIENTED_EDGE( '', *, *, #327, .F. );
#296 = CARTESIAN_POINT( '', ( 0.000000000000000, 0.000000000000000, 0.000000000000000 ) );
#297 = DIRECTION( '', ( 0.000000000000000, 1.00000000000000, 0.000000000000000 ) );
#298 = DIRECTION( '', ( 0.000000000000000, 0.000000000000000, 1.00000000000000 ) );
#299 = SURFACE_STYLE_FILL_AREA( #352 );
#300 = ORIENTED_EDGE( '', *, *, #316, .T. );
#301 = ORIENTED_EDGE( '', *, *, #351, .T. );
#302 = ORIENTED_EDGE( '', *, *, #348, .F. );
#303 = ORIENTED_EDGE( '', *, *, #329, .T. );
#304 = CARTESIAN_POINT( '', ( 13.2790561913614, 7.00000000000000, -3.46944695195362E-015 ) );
#305 = DIRECTION( '', ( -0.866025403784438, 0.000000000000000, 0.500000000000000 ) );
#306 = DIRECTION( '', ( 0.500000000000000, 0.000000000000000, 0.866025403784438 ) );
#307 = SURFACE_STYLE_FILL_AREA( #353 );
#308 = ORIENTED_EDGE( '', *, *, #340, .T. );
#309 = ORIENTED_EDGE( '', *, *, #324, .F. );
#310 = CARTESIAN_POINT( '', ( 0.000000000000000, 45.0000000000000, 0.000000000000000 ) );
#311 = DIRECTION( '', ( 0.000000000000000, -1.00000000000000, 0.000000000000000 ) );
#312 = DIRECTION( '', ( 0.000000000000000, 0.000000000000000, -1.00000000000000 ) );
#313 = FILL_AREA_STYLE( '', ( #354 ) );
#314 = EDGE_CURVE( '', #355, #356, #357, .T. );
#315 = EDGE_CURVE( '', #356, #358, #359, .T. );
#316 = EDGE_CURVE( '', #360, #358, #361, .T. );
#317 = EDGE_CURVE( '', #360, #355, #362, .T. );
#318 = FILL_AREA_STYLE( '', ( #363 ) );
#319 = EDGE_CURVE( '', #364, #365, #366, .T. );
#320 = EDGE_CURVE( '', #365, #356, #367, .T. );
#321 = EDGE_CURVE( '', #355, #364, #368, .T. );
#322 = FILL_AREA_STYLE( '', ( #369 ) );
#323 = EDGE_CURVE( '', #370, #370, #371, .T. );
#324 = EDGE_CURVE( '', #372, #372, #373, .T. );
#325 = FILL_AREA_STYLE( '', ( #374 ) );
#326 = EDGE_CURVE( '', #375, #375, #376, .T. );
#327 = EDGE_CURVE( '', #377, #377, #378, .F. );
#328 = FILL_AREA_STYLE( '', ( #379 ) );
#329 = EDGE_CURVE( '', #380, #360, #381, .T. );
#330 = EDGE_CURVE( '', #382, #380, #383, .T. );
#331 = EDGE_CURVE( '', #384, #382, #385, .T. );
#332 = EDGE_CURVE( '', #364, #384, #386, .T. );
#333 = FILL_AREA_STYLE( '', ( #387 ) );
#334 = EDGE_CURVE( '', #388, #388, #389, .F. );
#335 = FILL_AREA_STYLE( '', ( #390 ) );
#336 = EDGE_CURVE( '', #384, #391, #392, .T. );
#337 = EDGE_CURVE( '', #391, #365, #393, .T. );
#338 = FILL_AREA_STYLE( '', ( #394 ) );
#339 = EDGE_CURVE( '', #395, #395, #396, .F. );
#340 = EDGE_CURVE( '', #397, #397, #398, .T. );
#341 = FILL_AREA_STYLE( '', ( #399 ) );
#342 = EDGE_CURVE( '', #400, #400, #401, .T. );
#343 = FILL_AREA_STYLE( '', ( #402 ) );
#344 = FILL_AREA_STYLE( '', ( #403 ) );
#345 = EDGE_CURVE( '', #382, #404, #405, .T. );
#346 = EDGE_CURVE( '', #404, #391, #406, .T. );
#347 = FILL_AREA_STYLE( '', ( #407 ) );
#348 = EDGE_CURVE( '', #380, #408, #409, .T. );
#349 = EDGE_CURVE( '', #408, #404, #410, .T. );
#350 = FILL_AREA_STYLE( '', ( #411 ) );
#351 = EDGE_CURVE( '', #358, #408, #412, .T. );
#352 = FILL_AREA_STYLE( '', ( #413 ) );
#353 = FILL_AREA_STYLE( '', ( #414 ) );
#354 = FILL_AREA_STYLE_COLOUR( '', #415 );
#355 = VERTEX_POINT( '', #416 );
#356 = VERTEX_POINT( '', #417 );
#357 = LINE( '', #418, #419 );
#358 = VERTEX_POINT( '', #420 );
#359 = LINE( '', #421, #422 );
#360 = VERTEX_POINT( '', #423 );
#361 = LINE( '', #424, #425 );
#362 = LINE( '', #426, #427 );
#363 = FILL_AREA_STYLE_COLOUR( '', #428 );
#364 = VERTEX_POINT( '', #429 );
#365 = VERTEX_POINT( '', #430 );
#366 = LINE( '', #431, #432 );
#367 = LINE( '', #433, #434 );
#368 = LINE( '', #435, #436 );
#369 = FILL_AREA_STYLE_COLOUR( '', #437 );
#370 = VERTEX_POINT( '', #438 );
#371 = CIRCLE( '', #439, 11.0000000000000 );
#372 = VERTEX_POINT( '', #440 );
#373 = CIRCLE( '', #441, 11.0000000000000 );
#374 = FILL_AREA_STYLE_COLOUR( '', #442 );
#375 = VERTEX_POINT( '', #443 );
#376 = CIRCLE( '', #444, 10.1912499258288 );
#377 = VERTEX_POINT( '', #445 );
#378 = CIRCLE( '', #446, 10.6600233513906 );
#379 = FILL_AREA_STYLE_COLOUR( '', #447 );
#380 = VERTEX_POINT( '', #448 );
#381 = LINE( '', #449, #450 );
#382 = VERTEX_POINT( '', #451 );
#383 = LINE( '', #452, #453 );
#384 = VERTEX_POINT( '', #454 );
#385 = LINE( '', #455, #456 );
#386 = LINE( '', #457, #458 );
#387 = FILL_AREA_STYLE_COLOUR( '', #459 );
#388 = VERTEX_POINT( '', #460 );
#389 = CIRCLE( '', #461, 8.00000000000000 );
#390 = FILL_AREA_STYLE_COLOUR( '', #462 );
#391 = VERTEX_POINT( '', #463 );
#392 = LINE( '', #464, #465 );
#393 = LINE( '', #466, #467 );
#394 = FILL_AREA_STYLE_COLOUR( '', #468 );
#395 = VERTEX_POINT( '', #469 );
#396 = CIRCLE( '', #470, 9.50000000000000 );
#397 = VERTEX_POINT( '', #471 );
#398 = CIRCLE( '', #472, 9.50000000000000 );
#399 = FILL_AREA_STYLE_COLOUR( '', #473 );
#400 = VERTEX_POINT( '', #474 );
#401 = CIRCLE( '', #475, 8.00000000000000 );
#402 = FILL_AREA_STYLE_COLOUR( '', #476 );
#403 = FILL_AREA_STYLE_COLOUR( '', #477 );
#404 = VERTEX_POINT( '', #478 );
#405 = LINE( '', #479, #480 );
#406 = LINE( '', #481, #482 );
#407 = FILL_AREA_STYLE_COLOUR( '', #483 );
#408 = VERTEX_POINT( '', #484 );
#409 = LINE( '', #485, #486 );
#410 = LINE( '', #487, #488 );
#411 = FILL_AREA_STYLE_COLOUR( '', #489 );
#412 = LINE( '', #490, #491 );
#413 = FILL_AREA_STYLE_COLOUR( '', #492 );
#414 = FILL_AREA_STYLE_COLOUR( '', #493 );
#415 = COLOUR_RGB( '', 0.117647059261799, 0.749019622802734, 0.117647059261799 );
#416 = CARTESIAN_POINT( '', ( 6.63952809568070, 7.00000000000000, 11.5000000000000 ) );
#417 = CARTESIAN_POINT( '', ( 6.63952809568070, 0.000000000000000, 11.5000000000000 ) );
#418 = CARTESIAN_POINT( '', ( 6.63952809568070, 7.00000000000000, 11.5000000000000 ) );
#419 = VECTOR( '', #494, 1000.00000000000 );
#420 = CARTESIAN_POINT( '', ( 13.2790561913614, 0.000000000000000, -5.20417042793042E-015 ) );
#421 = CARTESIAN_POINT( '', ( 6.63952809568070, 0.000000000000000, 11.5000000000000 ) );
#422 = VECTOR( '', #495, 1000.00000000000 );
#423 = CARTESIAN_POINT( '', ( 13.2790561913614, 7.00000000000000, -6.07153216591882E-015 ) );
#424 = CARTESIAN_POINT( '', ( 13.2790561913614, 7.00000000000000, -5.20417042793042E-015 ) );
#425 = VECTOR( '', #496, 1000.00000000000 );
#426 = CARTESIAN_POINT( '', ( 9.95929214352104, 7.00000000000000, 5.75000000000000 ) );
#427 = VECTOR( '', #497, 1000.00000000000 );
#428 = COLOUR_RGB( '', 0.117647059261799, 0.749019622802734, 0.117647059261799 );
#429 = CARTESIAN_POINT( '', ( -6.63952809568065, 7.00000000000000, 11.5000000000000 ) );
#430 = CARTESIAN_POINT( '', ( -6.63952809568065, 0.000000000000000, 11.5000000000000 ) );
#431 = CARTESIAN_POINT( '', ( -6.63952809568065, 7.00000000000000, 11.5000000000000 ) );
#432 = VECTOR( '', #498, 1000.00000000000 );
#433 = CARTESIAN_POINT( '', ( -6.63952809568065, 0.000000000000000, 11.5000000000000 ) );
#434 = VECTOR( '', #499, 1000.00000000000 );
#435 = CARTESIAN_POINT( '', ( 2.10324043823204E-014, 7.00000000000000, 11.5000000000000 ) );
#436 = VECTOR( '', #500, 1000.00000000000 );
#437 = COLOUR_RGB( '', 0.117647059261799, 0.749019622802734, 0.117647059261799 );
#438 = CARTESIAN_POINT( '', ( 0.000000000000000, 7.00000000000000, 11.0000000000000 ) );
#439 = AXIS2_PLACEMENT_3D( '', #501, #502, #503 );
#440 = CARTESIAN_POINT( '', ( 0.000000000000000, 45.0000000000000, -11.0000000000000 ) );
#441 = AXIS2_PLACEMENT_3D( '', #504, #505, #506 );
#442 = COLOUR_RGB( '', 0.396078437566757, 0.941176474094391, 0.450980395078659 );
#443 = CARTESIAN_POINT( '', ( 0.000000000000000, -15.0000000000000, -10.1912499258288 ) );
#444 = AXIS2_PLACEMENT_3D( '', #507, #508, #509 );
#445 = CARTESIAN_POINT( '', ( 0.000000000000000, 0.000000000000000, 10.6600233513906 ) );
#446 = AXIS2_PLACEMENT_3D( '', #510, #511, #512 );
#447 = COLOUR_RGB( '', 0.117647059261799, 0.749019622802734, 0.117647059261799 );
#448 = CARTESIAN_POINT( '', ( 6.63952809568069, 7.00000000000000, -11.5000000000000 ) );
#449 = CARTESIAN_POINT( '', ( 9.95929214352104, 7.00000000000000, -5.75000000000000 ) );
#450 = VECTOR( '', #513, 999.999999999999 );
#451 = CARTESIAN_POINT( '', ( -6.63952809568071, 7.00000000000000, -11.5000000000000 ) );
#452 = CARTESIAN_POINT( '', ( -1.80277751848459E-014, 7.00000000000000, -11.5000000000000 ) );
#453 = VECTOR( '', #514, 1000.00000000000 );
#454 = CARTESIAN_POINT( '', ( -13.2790561913614, 7.00000000000000, 3.90312782094781E-014 ) );
#455 = CARTESIAN_POINT( '', ( -9.95929214352104, 7.00000000000000, -5.75000000000000 ) );
#456 = VECTOR( '', #515, 1000.00000000000 );
#457 = CARTESIAN_POINT( '', ( -9.95929214352102, 7.00000000000000, 5.75000000000000 ) );
#458 = VECTOR( '', #516, 999.999999999999 );
#459 = COLOUR_RGB( '', 0.117647059261799, 0.749019622802734, 0.117647059261799 );
#460 = CARTESIAN_POINT( '', ( 0.000000000000000, -15.0000000000000, -8.00000000000000 ) );
#461 = AXIS2_PLACEMENT_3D( '', #517, #518, #519 );
#462 = COLOUR_RGB( '', 0.117647059261799, 0.749019622802734, 0.117647059261799 );
#463 = CARTESIAN_POINT( '', ( -13.2790561913614, 0.000000000000000, 3.81639164714897E-014 ) );
#464 = CARTESIAN_POINT( '', ( -13.2790561913614, 7.00000000000000, 3.81639164714897E-014 ) );
#465 = VECTOR( '', #520, 1000.00000000000 );
#466 = CARTESIAN_POINT( '', ( -13.2790561913614, 0.000000000000000, 3.81639164714897E-014 ) );
#467 = VECTOR( '', #521, 999.999999999999 );
#468 = COLOUR_RGB( '', 0.117647059261799, 0.749019622802734, 0.117647059261799 );
#469 = CARTESIAN_POINT( '', ( 6.93889390390723E-015, 3.00000000000000, 9.50000000000001 ) );
#470 = AXIS2_PLACEMENT_3D( '', #522, #523, #524 );
#471 = CARTESIAN_POINT( '', ( 6.93889390390723E-015, 45.0000000000000, -9.49999999999999 ) );
#472 = AXIS2_PLACEMENT_3D( '', #525, #526, #527 );
#473 = COLOUR_RGB( '', 0.117647059261799, 0.749019622802734, 0.117647059261799 );
#474 = CARTESIAN_POINT( '', ( 0.000000000000000, 1.50000000000000, 8.00000000000000 ) );
#475 = AXIS2_PLACEMENT_3D( '', #528, #529, #530 );
#476 = COLOUR_RGB( '', 0.117647059261799, 0.749019622802734, 0.117647059261799 );
#477 = COLOUR_RGB( '', 0.117647059261799, 0.749019622802734, 0.117647059261799 );
#478 = CARTESIAN_POINT( '', ( -6.63952809568071, 0.000000000000000, -11.5000000000000 ) );
#479 = CARTESIAN_POINT( '', ( -6.63952809568071, 7.00000000000000, -11.5000000000000 ) );
#480 = VECTOR( '', #531, 1000.00000000000 );
#481 = CARTESIAN_POINT( '', ( -6.63952809568071, 0.000000000000000, -11.5000000000000 ) );
#482 = VECTOR( '', #532, 1000.00000000000 );
#483 = COLOUR_RGB( '', 0.117647059261799, 0.749019622802734, 0.117647059261799 );
#484 = CARTESIAN_POINT( '', ( 6.63952809568069, 0.000000000000000, -11.5000000000000 ) );
#485 = CARTESIAN_POINT( '', ( 6.63952809568069, 7.00000000000000, -11.5000000000000 ) );
#486 = VECTOR( '', #533, 1000.00000000000 );
#487 = CARTESIAN_POINT( '', ( 6.63952809568069, 0.000000000000000, -11.5000000000000 ) );
#488 = VECTOR( '', #534, 1000.00000000000 );
#489 = COLOUR_RGB( '', 0.117647059261799, 0.749019622802734, 0.117647059261799 );
#490 = CARTESIAN_POINT( '', ( 13.2790561913614, 0.000000000000000, -3.46944695195362E-015 ) );
#491 = VECTOR( '', #535, 999.999999999999 );
#492 = COLOUR_RGB( '', 0.117647059261799, 0.749019622802734, 0.117647059261799 );
#493 = COLOUR_RGB( '', 0.117647059261799, 0.749019622802734, 0.117647059261799 );
#494 = DIRECTION( '', ( 0.000000000000000, -1.00000000000000, 0.000000000000000 ) );
#495 = DIRECTION( '', ( 0.500000000000000, 0.000000000000000, -0.866025403784439 ) );
#496 = DIRECTION( '', ( 0.000000000000000, -1.00000000000000, 0.000000000000000 ) );
#497 = DIRECTION( '', ( -0.500000000000000, 0.000000000000000, 0.866025403784439 ) );
#498 = DIRECTION( '', ( 0.000000000000000, -1.00000000000000, 0.000000000000000 ) );
#499 = DIRECTION( '', ( 1.00000000000000, 0.000000000000000, -1.82890472889742E-015 ) );
#500 = DIRECTION( '', ( -1.00000000000000, 0.000000000000000, 1.82890472889742E-015 ) );
#501 = CARTESIAN_POINT( '', ( 0.000000000000000, 7.00000000000000, 0.000000000000000 ) );
#502 = DIRECTION( '', ( 0.000000000000000, 1.00000000000000, 0.000000000000000 ) );
#503 = DIRECTION( '', ( 0.000000000000000, 0.000000000000000, 1.00000000000000 ) );
#504 = CARTESIAN_POINT( '', ( 0.000000000000000, 45.0000000000000, 0.000000000000000 ) );
#505 = DIRECTION( '', ( 0.000000000000000, -1.00000000000000, 0.000000000000000 ) );
#506 = DIRECTION( '', ( 0.000000000000000, 0.000000000000000, -1.00000000000000 ) );
#507 = CARTESIAN_POINT( '', ( 0.000000000000000, -15.0000000000000, 0.000000000000000 ) );
#508 = DIRECTION( '', ( 0.000000000000000, -1.00000000000000, 0.000000000000000 ) );
#509 = DIRECTION( '', ( 0.000000000000000, 0.000000000000000, -1.00000000000000 ) );
#510 = CARTESIAN_POINT( '', ( 0.000000000000000, 0.000000000000000, 0.000000000000000 ) );
#511 = DIRECTION( '', ( 0.000000000000000, 1.00000000000000, 0.000000000000000 ) );
#512 = DIRECTION( '', ( 0.000000000000000, 0.000000000000000, 1.00000000000000 ) );
#513 = DIRECTION( '', ( 0.500000000000000, 0.000000000000000, 0.866025403784438 ) );
#514 = DIRECTION( '', ( 1.00000000000000, 0.000000000000000, -1.56763262476921E-015 ) );
#515 = DIRECTION( '', ( 0.499999999999999, 0.000000000000000, -0.866025403784439 ) );
#516 = DIRECTION( '', ( -0.500000000000001, 0.000000000000000, -0.866025403784438 ) );
#517 = CARTESIAN_POINT( '', ( 0.000000000000000, -15.0000000000000, 0.000000000000000 ) );
#518 = DIRECTION( '', ( 0.000000000000000, -1.00000000000000, 0.000000000000000 ) );
#519 = DIRECTION( '', ( 0.000000000000000, 0.000000000000000, -1.00000000000000 ) );
#520 = DIRECTION( '', ( 0.000000000000000, -1.00000000000000, 0.000000000000000 ) );
#521 = DIRECTION( '', ( 0.500000000000001, 0.000000000000000, 0.866025403784438 ) );
#522 = CARTESIAN_POINT( '', ( 6.93889390390723E-015, 3.00000000000000, 1.34441069388203E-014 ) );
#523 = DIRECTION( '', ( 0.000000000000000, 1.00000000000000, 0.000000000000000 ) );
#524 = DIRECTION( '', ( 0.000000000000000, 0.000000000000000, 1.00000000000000 ) );
#525 = CARTESIAN_POINT( '', ( 6.93889390390723E-015, 45.0000000000000, 1.34441069388203E-014 ) );
#526 = DIRECTION( '', ( 0.000000000000000, -1.00000000000000, 0.000000000000000 ) );
#527 = DIRECTION( '', ( 0.000000000000000, 0.000000000000000, -1.00000000000000 ) );
#528 = CARTESIAN_POINT( '', ( 0.000000000000000, 1.50000000000000, 0.000000000000000 ) );
#529 = DIRECTION( '', ( 0.000000000000000, 1.00000000000000, 0.000000000000000 ) );
#530 = DIRECTION( '', ( 0.000000000000000, 0.000000000000000, 1.00000000000000 ) );
#531 = DIRECTION( '', ( 0.000000000000000, -1.00000000000000, 0.000000000000000 ) );
#532 = DIRECTION( '', ( -0.499999999999999, 0.000000000000000, 0.866025403784439 ) );
#533 = DIRECTION( '', ( 0.000000000000000, -1.00000000000000, 0.000000000000000 ) );
#534 = DIRECTION( '', ( -1.00000000000000, 0.000000000000000, 1.56763262476921E-015 ) );
#535 = DIRECTION( '', ( -0.500000000000000, 0.000000000000000, -0.866025403784438 ) );
ENDSEC;
END-ISO-10303-21;
