ISO-10303-21;
HEADER;
FILE_DESCRIPTION( ( 'Unknown' ), '1' );
FILE_NAME( '//Server/ofimatica/alfredo/Alfredo2/ISOTUBI/PZAS3D/FICHATECNICA/NUMEPRESS/generico 3D/F27R3-4DN18.stp', 'Unknown', ( 'Unknown' ), ( 'Unknown' ), 'PSStep 14.0', 'Unknown', '  ' );
FILE_SCHEMA( ( 'AUTOMOTIVE_DESIGN { 1 0 10303 214 1 1 1 1 }' ) );
ENDSEC;
DATA;
#1 = MECHANICAL_DESIGN_GEOMETRIC_PRESENTATION_REPRESENTATION( ' ', ( #10, #11, #12, #13, #14, #15, #16, #17, #18, #19, #20, #21, #22 ), #6 );
#2 = PRODUCT_DEFINITION_CONTEXT( '', #23, 'design' );
#3 = APPLICATION_PROTOCOL_DEFINITION( 'international standard', 'automotive_design', 2001, #23 );
#4 = PRODUCT_CATEGORY_RELATIONSHIP( 'NONE', 'NONE', #24, #25 );
#5 = SHAPE_DEFINITION_REPRESENTATION( #26, #27 );
#6 =  ( GEOMETRIC_REPRESENTATION_CONTEXT( 3 )GLOBAL_UNCERTAINTY_ASSIGNED_CONTEXT( ( #30 ) )GLOBAL_UNIT_ASSIGNED_CONTEXT( ( #32, #33, #34 ) )REPRESENTATION_CONTEXT( 'NONE', 'WORKSPACE' ) );
#10 = STYLED_ITEM( '', ( #36 ), #37 );
#11 = STYLED_ITEM( '', ( #38 ), #39 );
#12 = STYLED_ITEM( '', ( #40 ), #41 );
#13 = STYLED_ITEM( '', ( #42 ), #43 );
#14 = STYLED_ITEM( '', ( #44 ), #45 );
#15 = STYLED_ITEM( '', ( #46 ), #47 );
#16 = STYLED_ITEM( '', ( #48 ), #49 );
#17 = STYLED_ITEM( '', ( #50 ), #51 );
#18 = STYLED_ITEM( '', ( #52 ), #53 );
#19 = STYLED_ITEM( '', ( #54 ), #55 );
#20 = STYLED_ITEM( '', ( #56 ), #57 );
#21 = STYLED_ITEM( '', ( #58 ), #59 );
#22 = STYLED_ITEM( '', ( #60 ), #61 );
#23 = APPLICATION_CONTEXT( 'core data for automotive mechanical design processes' );
#24 = PRODUCT_CATEGORY( 'part', 'NONE' );
#25 = PRODUCT_RELATED_PRODUCT_CATEGORY( 'detail', ' ', ( #62 ) );
#26 = PRODUCT_DEFINITION_SHAPE( 'NONE', 'NONE', #63 );
#27 = ADVANCED_BREP_SHAPE_REPRESENTATION( '1', ( #64, #65 ), #6 );
#30 = UNCERTAINTY_MEASURE_WITH_UNIT( LENGTH_MEASURE( 0.00100000000000000 ), #32, '', '' );
#32 =  ( CONVERSION_BASED_UNIT( 'MILLIMETRE', #68 )LENGTH_UNIT(  )NAMED_UNIT( #71 ) );
#33 =  ( NAMED_UNIT( #73 )PLANE_ANGLE_UNIT(  )SI_UNIT( $, .RADIAN. ) );
#34 =  ( NAMED_UNIT( #73 )SI_UNIT( $, .STERADIAN. )SOLID_ANGLE_UNIT(  ) );
#36 = PRESENTATION_STYLE_ASSIGNMENT( ( #79 ) );
#37 = ADVANCED_FACE( '', ( #80 ), #81, .F. );
#38 = PRESENTATION_STYLE_ASSIGNMENT( ( #82 ) );
#39 = ADVANCED_FACE( '', ( #83 ), #84, .F. );
#40 = PRESENTATION_STYLE_ASSIGNMENT( ( #85 ) );
#41 = ADVANCED_FACE( '', ( #86 ), #87, .F. );
#42 = PRESENTATION_STYLE_ASSIGNMENT( ( #88 ) );
#43 = ADVANCED_FACE( '', ( #89, #90 ), #91, .F. );
#44 = PRESENTATION_STYLE_ASSIGNMENT( ( #92 ) );
#45 = ADVANCED_FACE( '', ( #93, #94 ), #95, .T. );
#46 = PRESENTATION_STYLE_ASSIGNMENT( ( #96 ) );
#47 = ADVANCED_FACE( '', ( #97 ), #98, .F. );
#48 = PRESENTATION_STYLE_ASSIGNMENT( ( #99 ) );
#49 = ADVANCED_FACE( '', ( #100, #101 ), #102, .T. );
#50 = PRESENTATION_STYLE_ASSIGNMENT( ( #103 ) );
#51 = ADVANCED_FACE( '', ( #104, #105 ), #106, .T. );
#52 = PRESENTATION_STYLE_ASSIGNMENT( ( #107 ) );
#53 = ADVANCED_FACE( '', ( #108 ), #109, .F. );
#54 = PRESENTATION_STYLE_ASSIGNMENT( ( #110 ) );
#55 = ADVANCED_FACE( '', ( #111, #112 ), #113, .F. );
#56 = PRESENTATION_STYLE_ASSIGNMENT( ( #114 ) );
#57 = ADVANCED_FACE( '', ( #115, #116 ), #117, .T. );
#58 = PRESENTATION_STYLE_ASSIGNMENT( ( #118 ) );
#59 = ADVANCED_FACE( '', ( #119 ), #120, .F. );
#60 = PRESENTATION_STYLE_ASSIGNMENT( ( #121 ) );
#61 = ADVANCED_FACE( '', ( #122, #123 ), #124, .F. );
#62 = PRODUCT( '1', '1', 'PART-1-DESC', ( #125 ) );
#63 = PRODUCT_DEFINITION( 'NONE', 'NONE', #126, #2 );
#64 = MANIFOLD_SOLID_BREP( '1', #127 );
#65 = AXIS2_PLACEMENT_3D( '', #128, #129, #130 );
#68 = LENGTH_MEASURE_WITH_UNIT( LENGTH_MEASURE( 1.00000000000000 ), #131 );
#71 = DIMENSIONAL_EXPONENTS( 1.00000000000000, 0.000000000000000, 0.000000000000000, 0.000000000000000, 0.000000000000000, 0.000000000000000, 0.000000000000000 );
#73 = DIMENSIONAL_EXPONENTS( 0.000000000000000, 0.000000000000000, 0.000000000000000, 0.000000000000000, 0.000000000000000, 0.000000000000000, 0.000000000000000 );
#79 = SURFACE_STYLE_USAGE( .BOTH., #132 );
#80 = FACE_OUTER_BOUND( '', #133, .T. );
#81 = PLANE( '', #134 );
#82 = SURFACE_STYLE_USAGE( .BOTH., #135 );
#83 = FACE_OUTER_BOUND( '', #136, .T. );
#84 = PLANE( '', #137 );
#85 = SURFACE_STYLE_USAGE( .BOTH., #138 );
#86 = FACE_OUTER_BOUND( '', #139, .T. );
#87 = PLANE( '', #140 );
#88 = SURFACE_STYLE_USAGE( .BOTH., #141 );
#89 = FACE_BOUND( '', #142, .T. );
#90 = FACE_OUTER_BOUND( '', #143, .T. );
#91 = PLANE( '', #144 );
#92 = SURFACE_STYLE_USAGE( .BOTH., #145 );
#93 = FACE_BOUND( '', #146, .T. );
#94 = FACE_OUTER_BOUND( '', #147, .T. );
#95 = PLANE( '', #148 );
#96 = SURFACE_STYLE_USAGE( .BOTH., #149 );
#97 = FACE_OUTER_BOUND( '', #150, .T. );
#98 = PLANE( '', #151 );
#99 = SURFACE_STYLE_USAGE( .BOTH., #152 );
#100 = FACE_BOUND( '', #153, .T. );
#101 = FACE_OUTER_BOUND( '', #154, .T. );
#102 = CONICAL_SURFACE( '', #155, 13.3350000000000, 0.0312413936106985 );
#103 = SURFACE_STYLE_USAGE( .BOTH., #156 );
#104 = FACE_OUTER_BOUND( '', #157, .T. );
#105 = FACE_OUTER_BOUND( '', #158, .T. );
#106 = CYLINDRICAL_SURFACE( '', #159, 9.00000000000000 );
#107 = SURFACE_STYLE_USAGE( .BOTH., #160 );
#108 = FACE_OUTER_BOUND( '', #161, .T. );
#109 = PLANE( '', #162 );
#110 = SURFACE_STYLE_USAGE( .BOTH., #163 );
#111 = FACE_OUTER_BOUND( '', #164, .T. );
#112 = FACE_OUTER_BOUND( '', #165, .T. );
#113 = CYLINDRICAL_SURFACE( '', #166, 7.50000000000000 );
#114 = SURFACE_STYLE_USAGE( .BOTH., #167 );
#115 = FACE_BOUND( '', #168, .T. );
#116 = FACE_OUTER_BOUND( '', #169, .T. );
#117 = PLANE( '', #170 );
#118 = SURFACE_STYLE_USAGE( .BOTH., #171 );
#119 = FACE_OUTER_BOUND( '', #172, .T. );
#120 = PLANE( '', #173 );
#121 = SURFACE_STYLE_USAGE( .BOTH., #174 );
#122 = FACE_BOUND( '', #175, .T. );
#123 = FACE_OUTER_BOUND( '', #176, .T. );
#124 = PLANE( '', #177 );
#125 = PRODUCT_CONTEXT( '', #23, 'mechanical' );
#126 = PRODUCT_DEFINITION_FORMATION_WITH_SPECIFIED_SOURCE( ' ', 'NONE', #62, .NOT_KNOWN. );
#127 = CLOSED_SHELL( '', ( #45, #43, #39, #47, #55, #49, #57, #53, #37, #41, #59, #51, #61 ) );
#128 = CARTESIAN_POINT( '', ( 0.000000000000000, 0.000000000000000, 0.000000000000000 ) );
#129 = DIRECTION( '', ( 0.000000000000000, 0.000000000000000, 1.00000000000000 ) );
#130 = DIRECTION( '', ( 1.00000000000000, 0.000000000000000, 0.000000000000000 ) );
#131 =  ( LENGTH_UNIT(  )NAMED_UNIT( #71 )SI_UNIT( .MILLI., .METRE. ) );
#132 = SURFACE_SIDE_STYLE( '', ( #179 ) );
#133 = EDGE_LOOP( '', ( #180, #181, #182, #183 ) );
#134 = AXIS2_PLACEMENT_3D( '', #184, #185, #186 );
#135 = SURFACE_SIDE_STYLE( '', ( #187 ) );
#136 = EDGE_LOOP( '', ( #188, #189, #190, #191 ) );
#137 = AXIS2_PLACEMENT_3D( '', #192, #193, #194 );
#138 = SURFACE_SIDE_STYLE( '', ( #195 ) );
#139 = EDGE_LOOP( '', ( #196, #197, #198, #199 ) );
#140 = AXIS2_PLACEMENT_3D( '', #200, #201, #202 );
#141 = SURFACE_SIDE_STYLE( '', ( #203 ) );
#142 = EDGE_LOOP( '', ( #204 ) );
#143 = EDGE_LOOP( '', ( #205, #206, #207, #208, #209, #210 ) );
#144 = AXIS2_PLACEMENT_3D( '', #211, #212, #213 );
#145 = SURFACE_SIDE_STYLE( '', ( #214 ) );
#146 = EDGE_LOOP( '', ( #215 ) );
#147 = EDGE_LOOP( '', ( #216 ) );
#148 = AXIS2_PLACEMENT_3D( '', #217, #218, #219 );
#149 = SURFACE_SIDE_STYLE( '', ( #220 ) );
#150 = EDGE_LOOP( '', ( #221, #222, #223, #224 ) );
#151 = AXIS2_PLACEMENT_3D( '', #225, #226, #227 );
#152 = SURFACE_SIDE_STYLE( '', ( #228 ) );
#153 = EDGE_LOOP( '', ( #229 ) );
#154 = EDGE_LOOP( '', ( #230 ) );
#155 = AXIS2_PLACEMENT_3D( '', #231, #232, #233 );
#156 = SURFACE_SIDE_STYLE( '', ( #234 ) );
#157 = EDGE_LOOP( '', ( #235 ) );
#158 = EDGE_LOOP( '', ( #236 ) );
#159 = AXIS2_PLACEMENT_3D( '', #237, #238, #239 );
#160 = SURFACE_SIDE_STYLE( '', ( #240 ) );
#161 = EDGE_LOOP( '', ( #241, #242, #243, #244 ) );
#162 = AXIS2_PLACEMENT_3D( '', #245, #246, #247 );
#163 = SURFACE_SIDE_STYLE( '', ( #248 ) );
#164 = EDGE_LOOP( '', ( #249 ) );
#165 = EDGE_LOOP( '', ( #250 ) );
#166 = AXIS2_PLACEMENT_3D( '', #251, #252, #253 );
#167 = SURFACE_SIDE_STYLE( '', ( #254 ) );
#168 = EDGE_LOOP( '', ( #255 ) );
#169 = EDGE_LOOP( '', ( #256, #257, #258, #259, #260, #261 ) );
#170 = AXIS2_PLACEMENT_3D( '', #262, #263, #264 );
#171 = SURFACE_SIDE_STYLE( '', ( #265 ) );
#172 = EDGE_LOOP( '', ( #266, #267, #268, #269 ) );
#173 = AXIS2_PLACEMENT_3D( '', #270, #271, #272 );
#174 = SURFACE_SIDE_STYLE( '', ( #273 ) );
#175 = EDGE_LOOP( '', ( #274 ) );
#176 = EDGE_LOOP( '', ( #275 ) );
#177 = AXIS2_PLACEMENT_3D( '', #276, #277, #278 );
#179 = SURFACE_STYLE_FILL_AREA( #279 );
#180 = ORIENTED_EDGE( '', *, *, #280, .T. );
#181 = ORIENTED_EDGE( '', *, *, #281, .F. );
#182 = ORIENTED_EDGE( '', *, *, #282, .T. );
#183 = ORIENTED_EDGE( '', *, *, #283, .T. );
#184 = CARTESIAN_POINT( '', ( -8.80459165990266, 7.00000000000000, -12.7499999347776 ) );
#185 = DIRECTION( '', ( 0.866025403784439, 0.000000000000000, 0.500000000000000 ) );
#186 = DIRECTION( '', ( 0.499999999999999, 0.000000000000000, -0.866025403784439 ) );
#187 = SURFACE_STYLE_FILL_AREA( #284 );
#188 = ORIENTED_EDGE( '', *, *, #285, .T. );
#189 = ORIENTED_EDGE( '', *, *, #286, .F. );
#190 = ORIENTED_EDGE( '', *, *, #287, .T. );
#191 = ORIENTED_EDGE( '', *, *, #288, .T. );
#192 = CARTESIAN_POINT( '', ( -6.63952801181595, 7.00000000000000, 14.0000000148131 ) );
#193 = DIRECTION( '', ( -1.82890472889742E-015, 0.000000000000000, -1.00000000000000 ) );
#194 = DIRECTION( '', ( -1.00000000000000, 0.000000000000000, 1.82890472889742E-015 ) );
#195 = SURFACE_STYLE_FILL_AREA( #289 );
#196 = ORIENTED_EDGE( '', *, *, #290, .T. );
#197 = ORIENTED_EDGE( '', *, *, #283, .F. );
#198 = ORIENTED_EDGE( '', *, *, #291, .T. );
#199 = ORIENTED_EDGE( '', *, *, #292, .T. );
#200 = CARTESIAN_POINT( '', ( 6.63952801181599, 7.00000000000000, -14.0000000148131 ) );
#201 = DIRECTION( '', ( 1.56763262476921E-015, 0.000000000000000, 1.00000000000000 ) );
#202 = DIRECTION( '', ( 1.00000000000000, 0.000000000000000, -1.56763262476921E-015 ) );
#203 = SURFACE_STYLE_FILL_AREA( #293 );
#204 = ORIENTED_EDGE( '', *, *, #294, .F. );
#205 = ORIENTED_EDGE( '', *, *, #295, .F. );
#206 = ORIENTED_EDGE( '', *, *, #285, .F. );
#207 = ORIENTED_EDGE( '', *, *, #296, .F. );
#208 = ORIENTED_EDGE( '', *, *, #280, .F. );
#209 = ORIENTED_EDGE( '', *, *, #290, .F. );
#210 = ORIENTED_EDGE( '', *, *, #297, .F. );
#211 = CARTESIAN_POINT( '', ( 0.000000000000000, 0.000000000000000, 0.000000000000000 ) );
#212 = DIRECTION( '', ( 0.000000000000000, 1.00000000000000, 0.000000000000000 ) );
#213 = DIRECTION( '', ( 0.000000000000000, 0.000000000000000, 1.00000000000000 ) );
#214 = SURFACE_STYLE_FILL_AREA( #298 );
#215 = ORIENTED_EDGE( '', *, *, #299, .T. );
#216 = ORIENTED_EDGE( '', *, *, #300, .T. );
#217 = CARTESIAN_POINT( '', ( 0.000000000000000, -17.0000000000000, 0.000000000000000 ) );
#218 = DIRECTION( '', ( 0.000000000000000, -1.00000000000000, 0.000000000000000 ) );
#219 = DIRECTION( '', ( 0.000000000000000, 0.000000000000000, -1.00000000000000 ) );
#220 = SURFACE_STYLE_FILL_AREA( #301 );
#221 = ORIENTED_EDGE( '', *, *, #296, .T. );
#222 = ORIENTED_EDGE( '', *, *, #288, .F. );
#223 = ORIENTED_EDGE( '', *, *, #302, .T. );
#224 = ORIENTED_EDGE( '', *, *, #281, .T. );
#225 = CARTESIAN_POINT( '', ( -15.4441196717186, 7.00000000000000, 1.25000008003554 ) );
#226 = DIRECTION( '', ( 0.866025403784438, 0.000000000000000, -0.500000000000001 ) );
#227 = DIRECTION( '', ( -0.500000000000001, 0.000000000000000, -0.866025403784438 ) );
#228 = SURFACE_STYLE_FILL_AREA( #303 );
#229 = ORIENTED_EDGE( '', *, *, #300, .F. );
#230 = ORIENTED_EDGE( '', *, *, #294, .T. );
#231 = CARTESIAN_POINT( '', ( 0.000000000000000, 3.15490000000000, 0.000000000000000 ) );
#232 = DIRECTION( '', ( -0.000000000000000, 1.00000000000000, -0.000000000000000 ) );
#233 = DIRECTION( '', ( 0.000000000000000, 0.000000000000000, 1.00000000000000 ) );
#234 = SURFACE_STYLE_FILL_AREA( #304 );
#235 = ORIENTED_EDGE( '', *, *, #305, .T. );
#236 = ORIENTED_EDGE( '', *, *, #306, .T. );
#237 = CARTESIAN_POINT( '', ( 0.000000000000000, 47.0000000000000, 0.000000000000000 ) );
#238 = DIRECTION( '', ( -0.000000000000000, 1.00000000000000, -0.000000000000000 ) );
#239 = DIRECTION( '', ( 0.000000000000000, 0.000000000000000, -1.00000000000000 ) );
#240 = SURFACE_STYLE_FILL_AREA( #307 );
#241 = ORIENTED_EDGE( '', *, *, #295, .T. );
#242 = ORIENTED_EDGE( '', *, *, #308, .F. );
#243 = ORIENTED_EDGE( '', *, *, #309, .T. );
#244 = ORIENTED_EDGE( '', *, *, #286, .T. );
#245 = CARTESIAN_POINT( '', ( 8.80459165990266, 7.00000000000000, 12.7499999347776 ) );
#246 = DIRECTION( '', ( -0.866025403784439, 0.000000000000000, -0.500000000000000 ) );
#247 = DIRECTION( '', ( -0.500000000000000, 0.000000000000000, 0.866025403784439 ) );
#248 = SURFACE_STYLE_FILL_AREA( #310 );
#249 = ORIENTED_EDGE( '', *, *, #299, .F. );
#250 = ORIENTED_EDGE( '', *, *, #311, .F. );
#251 = CARTESIAN_POINT( '', ( 6.93889390390723E-015, 2.04696243185652, 1.34441069388203E-014 ) );
#252 = DIRECTION( '', ( -0.000000000000000, -1.00000000000000, -0.000000000000000 ) );
#253 = DIRECTION( '', ( 0.000000000000000, 0.000000000000000, 1.00000000000000 ) );
#254 = SURFACE_STYLE_FILL_AREA( #312 );
#255 = ORIENTED_EDGE( '', *, *, #305, .F. );
#256 = ORIENTED_EDGE( '', *, *, #287, .F. );
#257 = ORIENTED_EDGE( '', *, *, #309, .F. );
#258 = ORIENTED_EDGE( '', *, *, #313, .F. );
#259 = ORIENTED_EDGE( '', *, *, #291, .F. );
#260 = ORIENTED_EDGE( '', *, *, #282, .F. );
#261 = ORIENTED_EDGE( '', *, *, #302, .F. );
#262 = CARTESIAN_POINT( '', ( 0.000000000000000, 9.00000000000000, 0.000000000000000 ) );
#263 = DIRECTION( '', ( 0.000000000000000, 1.00000000000000, 0.000000000000000 ) );
#264 = DIRECTION( '', ( 0.000000000000000, 0.000000000000000, 1.00000000000000 ) );
#265 = SURFACE_STYLE_FILL_AREA( #314 );
#266 = ORIENTED_EDGE( '', *, *, #297, .T. );
#267 = ORIENTED_EDGE( '', *, *, #292, .F. );
#268 = ORIENTED_EDGE( '', *, *, #313, .T. );
#269 = ORIENTED_EDGE( '', *, *, #308, .T. );
#270 = CARTESIAN_POINT( '', ( 15.4441197008225, 7.00000000000000, -1.25000000000000 ) );
#271 = DIRECTION( '', ( -0.866025403784438, 0.000000000000000, 0.500000000000000 ) );
#272 = DIRECTION( '', ( 0.500000000000000, 0.000000000000000, 0.866025403784438 ) );
#273 = SURFACE_STYLE_FILL_AREA( #315 );
#274 = ORIENTED_EDGE( '', *, *, #311, .T. );
#275 = ORIENTED_EDGE( '', *, *, #306, .F. );
#276 = CARTESIAN_POINT( '', ( 0.000000000000000, 47.0000000000000, 0.000000000000000 ) );
#277 = DIRECTION( '', ( 0.000000000000000, -1.00000000000000, 0.000000000000000 ) );
#278 = DIRECTION( '', ( 0.000000000000000, 0.000000000000000, -1.00000000000000 ) );
#279 = FILL_AREA_STYLE( '', ( #316 ) );
#280 = EDGE_CURVE( '', #317, #318, #319, .T. );
#281 = EDGE_CURVE( '', #320, #318, #321, .T. );
#282 = EDGE_CURVE( '', #320, #322, #323, .T. );
#283 = EDGE_CURVE( '', #322, #317, #324, .T. );
#284 = FILL_AREA_STYLE( '', ( #325 ) );
#285 = EDGE_CURVE( '', #326, #327, #328, .T. );
#286 = EDGE_CURVE( '', #329, #327, #330, .T. );
#287 = EDGE_CURVE( '', #329, #331, #332, .T. );
#288 = EDGE_CURVE( '', #331, #326, #333, .T. );
#289 = FILL_AREA_STYLE( '', ( #334 ) );
#290 = EDGE_CURVE( '', #335, #317, #336, .T. );
#291 = EDGE_CURVE( '', #322, #337, #338, .T. );
#292 = EDGE_CURVE( '', #337, #335, #339, .T. );
#293 = FILL_AREA_STYLE( '', ( #340 ) );
#294 = EDGE_CURVE( '', #341, #341, #342, .F. );
#295 = EDGE_CURVE( '', #327, #343, #344, .T. );
#296 = EDGE_CURVE( '', #318, #326, #345, .T. );
#297 = EDGE_CURVE( '', #343, #335, #346, .T. );
#298 = FILL_AREA_STYLE( '', ( #347 ) );
#299 = EDGE_CURVE( '', #348, #348, #349, .F. );
#300 = EDGE_CURVE( '', #350, #350, #351, .T. );
#301 = FILL_AREA_STYLE( '', ( #352 ) );
#302 = EDGE_CURVE( '', #331, #320, #353, .T. );
#303 = FILL_AREA_STYLE( '', ( #354 ) );
#304 = FILL_AREA_STYLE( '', ( #355 ) );
#305 = EDGE_CURVE( '', #356, #356, #357, .T. );
#306 = EDGE_CURVE( '', #358, #358, #359, .T. );
#307 = FILL_AREA_STYLE( '', ( #360 ) );
#308 = EDGE_CURVE( '', #361, #343, #362, .T. );
#309 = EDGE_CURVE( '', #361, #329, #363, .T. );
#310 = FILL_AREA_STYLE( '', ( #364 ) );
#311 = EDGE_CURVE( '', #365, #365, #366, .T. );
#312 = FILL_AREA_STYLE( '', ( #367 ) );
#313 = EDGE_CURVE( '', #337, #361, #368, .T. );
#314 = FILL_AREA_STYLE( '', ( #369 ) );
#315 = FILL_AREA_STYLE( '', ( #370 ) );
#316 = FILL_AREA_STYLE_COLOUR( '', #371 );
#317 = VERTEX_POINT( '', #372 );
#318 = VERTEX_POINT( '', #373 );
#319 = LINE( '', #374, #375 );
#320 = VERTEX_POINT( '', #376 );
#321 = LINE( '', #377, #378 );
#322 = VERTEX_POINT( '', #379 );
#323 = LINE( '', #380, #381 );
#324 = LINE( '', #382, #383 );
#325 = FILL_AREA_STYLE_COLOUR( '', #384 );
#326 = VERTEX_POINT( '', #385 );
#327 = VERTEX_POINT( '', #386 );
#328 = LINE( '', #387, #388 );
#329 = VERTEX_POINT( '', #389 );
#330 = LINE( '', #390, #391 );
#331 = VERTEX_POINT( '', #392 );
#332 = LINE( '', #393, #394 );
#333 = LINE( '', #395, #396 );
#334 = FILL_AREA_STYLE_COLOUR( '', #397 );
#335 = VERTEX_POINT( '', #398 );
#336 = LINE( '', #399, #400 );
#337 = VERTEX_POINT( '', #401 );
#338 = LINE( '', #402, #403 );
#339 = LINE( '', #404, #405 );
#340 = FILL_AREA_STYLE_COLOUR( '', #406 );
#341 = VERTEX_POINT( '', #407 );
#342 = CIRCLE( '', #408, 13.2364044479797 );
#343 = VERTEX_POINT( '', #409 );
#344 = LINE( '', #410, #411 );
#345 = LINE( '', #412, #413 );
#346 = LINE( '', #414, #415 );
#347 = FILL_AREA_STYLE_COLOUR( '', #416 );
#348 = VERTEX_POINT( '', #417 );
#349 = CIRCLE( '', #418, 7.50000000000000 );
#350 = VERTEX_POINT( '', #419 );
#351 = CIRCLE( '', #420, 12.7051278990096 );
#352 = FILL_AREA_STYLE_COLOUR( '', #421 );
#353 = LINE( '', #422, #423 );
#354 = FILL_AREA_STYLE_COLOUR( '', #424 );
#355 = FILL_AREA_STYLE_COLOUR( '', #425 );
#356 = VERTEX_POINT( '', #426 );
#357 = CIRCLE( '', #427, 9.00000000000000 );
#358 = VERTEX_POINT( '', #428 );
#359 = CIRCLE( '', #429, 9.00000000000000 );
#360 = FILL_AREA_STYLE_COLOUR( '', #430 );
#361 = VERTEX_POINT( '', #431 );
#362 = LINE( '', #432, #433 );
#363 = LINE( '', #434, #435 );
#364 = FILL_AREA_STYLE_COLOUR( '', #436 );
#365 = VERTEX_POINT( '', #437 );
#366 = CIRCLE( '', #438, 7.50000000000000 );
#367 = FILL_AREA_STYLE_COLOUR( '', #439 );
#368 = LINE( '', #440, #441 );
#369 = FILL_AREA_STYLE_COLOUR( '', #442 );
#370 = FILL_AREA_STYLE_COLOUR( '', #443 );
#371 = COLOUR_RGB( '', 0.576470613479614, 0.000000000000000, 0.827450990676880 );
#372 = CARTESIAN_POINT( '', ( -8.08290377720712, 0.000000000000000, -14.0000000148131 ) );
#373 = CARTESIAN_POINT( '', ( -16.1658075544142, 0.000000000000000, 4.65122731996281E-014 ) );
#374 = CARTESIAN_POINT( '', ( -8.80459165990266, 0.000000000000000, -12.7499999347776 ) );
#375 = VECTOR( '', #444, 1000.00000000000 );
#376 = CARTESIAN_POINT( '', ( -16.1658075544142, 9.00000000000000, 4.29344060304260E-014 ) );
#377 = CARTESIAN_POINT( '', ( -16.1658075544142, 7.00000000000000, 4.42354486374086E-014 ) );
#378 = VECTOR( '', #445, 1000.00000000000 );
#379 = CARTESIAN_POINT( '', ( -8.08290377720712, 9.00000000000000, -14.0000000148131 ) );
#380 = CARTESIAN_POINT( '', ( -12.1243557077430, 9.00000000000000, -6.99999993477756 ) );
#381 = VECTOR( '', #446, 1000.00000000000 );
#382 = CARTESIAN_POINT( '', ( -8.08290377720712, 7.00000000000000, -14.0000000148131 ) );
#383 = VECTOR( '', #447, 1000.00000000000 );
#384 = COLOUR_RGB( '', 0.576470613479614, 0.000000000000000, 0.827450990676880 );
#385 = CARTESIAN_POINT( '', ( -8.08290377720705, 0.000000000000000, 14.0000000148131 ) );
#386 = CARTESIAN_POINT( '', ( 8.08290377720711, 0.000000000000000, 14.0000000148131 ) );
#387 = CARTESIAN_POINT( '', ( -6.63952801181595, 0.000000000000000, 14.0000000148131 ) );
#388 = VECTOR( '', #448, 1000.00000000000 );
#389 = CARTESIAN_POINT( '', ( 8.08290377720711, 9.00000000000000, 14.0000000148131 ) );
#390 = CARTESIAN_POINT( '', ( 8.08290377720711, 7.00000000000000, 14.0000000148131 ) );
#391 = VECTOR( '', #449, 1000.00000000000 );
#392 = CARTESIAN_POINT( '', ( -8.08290377720705, 9.00000000000000, 14.0000000148131 ) );
#393 = CARTESIAN_POINT( '', ( 8.38647185636671E-008, 9.00000000000000, 14.0000000148131 ) );
#394 = VECTOR( '', #450, 1000.00000000000 );
#395 = CARTESIAN_POINT( '', ( -8.08290377720705, 7.00000000000000, 14.0000000148131 ) );
#396 = VECTOR( '', #451, 1000.00000000000 );
#397 = COLOUR_RGB( '', 0.576470613479614, 0.000000000000000, 0.827450990676880 );
#398 = CARTESIAN_POINT( '', ( 8.08290376010240, 0.000000000000000, -14.0000000148131 ) );
#399 = CARTESIAN_POINT( '', ( 6.63952801181599, 0.000000000000000, -14.0000000148131 ) );
#400 = VECTOR( '', #452, 1000.00000000000 );
#401 = CARTESIAN_POINT( '', ( 8.08290376010240, 9.00000000000000, -14.0000000148131 ) );
#402 = CARTESIAN_POINT( '', ( -8.38647140411549E-008, 9.00000000000000, -14.0000000148131 ) );
#403 = VECTOR( '', #453, 1000.00000000000 );
#404 = CARTESIAN_POINT( '', ( 8.08290376010240, 7.00000000000000, -14.0000000148131 ) );
#405 = VECTOR( '', #454, 1000.00000000000 );
#406 = COLOUR_RGB( '', 0.576470613479614, 0.000000000000000, 0.827450990676880 );
#407 = CARTESIAN_POINT( '', ( 0.000000000000000, 0.000000000000000, 13.2364044479797 ) );
#408 = AXIS2_PLACEMENT_3D( '', #455, #456, #457 );
#409 = CARTESIAN_POINT( '', ( 16.1658075458618, 0.000000000000000, 1.48130910749417E-008 ) );
#410 = CARTESIAN_POINT( '', ( 8.80459165990266, 0.000000000000000, 12.7499999347776 ) );
#411 = VECTOR( '', #458, 1000.00000000000 );
#412 = CARTESIAN_POINT( '', ( -15.4441196717186, 0.000000000000000, 1.25000008003554 ) );
#413 = VECTOR( '', #459, 999.999999999999 );
#414 = CARTESIAN_POINT( '', ( 15.4441197008225, 0.000000000000000, -1.25000000000000 ) );
#415 = VECTOR( '', #460, 999.999999999999 );
#416 = COLOUR_RGB( '', 0.576470613479614, 0.000000000000000, 0.827450990676880 );
#417 = CARTESIAN_POINT( '', ( 6.93889390390723E-015, -17.0000000000000, -7.49999999999999 ) );
#418 = AXIS2_PLACEMENT_3D( '', #461, #462, #463 );
#419 = CARTESIAN_POINT( '', ( 0.000000000000000, -17.0000000000000, -12.7051278990096 ) );
#420 = AXIS2_PLACEMENT_3D( '', #464, #465, #466 );
#421 = COLOUR_RGB( '', 0.576470613479614, 0.000000000000000, 0.827450990676880 );
#422 = CARTESIAN_POINT( '', ( -12.1243556238783, 9.00000000000000, 7.00000008003553 ) );
#423 = VECTOR( '', #467, 999.999999999999 );
#424 = COLOUR_RGB( '', 0.396078437566757, 0.941176474094391, 0.450980395078659 );
#425 = COLOUR_RGB( '', 0.576470613479614, 0.000000000000000, 0.827450990676880 );
#426 = CARTESIAN_POINT( '', ( 0.000000000000000, 9.00000000000000, 9.00000000000000 ) );
#427 = AXIS2_PLACEMENT_3D( '', #468, #469, #470 );
#428 = CARTESIAN_POINT( '', ( 0.000000000000000, 47.0000000000000, -9.00000000000000 ) );
#429 = AXIS2_PLACEMENT_3D( '', #471, #472, #473 );
#430 = COLOUR_RGB( '', 0.576470613479614, 0.000000000000000, 0.827450990676880 );
#431 = CARTESIAN_POINT( '', ( 16.1658075458618, 9.00000000000000, 1.48130884728564E-008 ) );
#432 = CARTESIAN_POINT( '', ( 16.1658075458618, 7.00000000000000, 1.48130886896969E-008 ) );
#433 = VECTOR( '', #474, 1000.00000000000 );
#434 = CARTESIAN_POINT( '', ( 12.1243557077430, 9.00000000000000, 6.99999993477759 ) );
#435 = VECTOR( '', #475, 1000.00000000000 );
#436 = COLOUR_RGB( '', 0.576470613479614, 0.000000000000000, 0.827450990676880 );
#437 = CARTESIAN_POINT( '', ( 6.93889390390723E-015, 47.0000000000000, -7.49999999999999 ) );
#438 = AXIS2_PLACEMENT_3D( '', #476, #477, #478 );
#439 = COLOUR_RGB( '', 0.576470613479614, 0.000000000000000, 0.827450990676880 );
#440 = CARTESIAN_POINT( '', ( 12.1243556529821, 9.00000000000000, -7.00000000000000 ) );
#441 = VECTOR( '', #479, 999.999999999999 );
#442 = COLOUR_RGB( '', 0.576470613479614, 0.000000000000000, 0.827450990676880 );
#443 = COLOUR_RGB( '', 0.576470613479614, 0.000000000000000, 0.827450990676880 );
#444 = DIRECTION( '', ( -0.499999999999999, 0.000000000000000, 0.866025403784439 ) );
#445 = DIRECTION( '', ( 0.000000000000000, -1.00000000000000, 0.000000000000000 ) );
#446 = DIRECTION( '', ( 0.499999999999999, 0.000000000000000, -0.866025403784439 ) );
#447 = DIRECTION( '', ( 0.000000000000000, -1.00000000000000, 0.000000000000000 ) );
#448 = DIRECTION( '', ( 1.00000000000000, 0.000000000000000, -1.82890472889742E-015 ) );
#449 = DIRECTION( '', ( 0.000000000000000, -1.00000000000000, 0.000000000000000 ) );
#450 = DIRECTION( '', ( -1.00000000000000, 0.000000000000000, 1.82890472889742E-015 ) );
#451 = DIRECTION( '', ( 0.000000000000000, -1.00000000000000, 0.000000000000000 ) );
#452 = DIRECTION( '', ( -1.00000000000000, 0.000000000000000, 1.56763262476921E-015 ) );
#453 = DIRECTION( '', ( 1.00000000000000, 0.000000000000000, -1.56763262476921E-015 ) );
#454 = DIRECTION( '', ( 0.000000000000000, -1.00000000000000, 0.000000000000000 ) );
#455 = CARTESIAN_POINT( '', ( 0.000000000000000, 0.000000000000000, 0.000000000000000 ) );
#456 = DIRECTION( '', ( 0.000000000000000, 1.00000000000000, 0.000000000000000 ) );
#457 = DIRECTION( '', ( 0.000000000000000, 0.000000000000000, 1.00000000000000 ) );
#458 = DIRECTION( '', ( 0.500000000000000, 0.000000000000000, -0.866025403784439 ) );
#459 = DIRECTION( '', ( 0.500000000000001, 0.000000000000000, 0.866025403784438 ) );
#460 = DIRECTION( '', ( -0.500000000000000, 0.000000000000000, -0.866025403784438 ) );
#461 = CARTESIAN_POINT( '', ( 6.93889390390723E-015, -17.0000000000000, 1.34441069388203E-014 ) );
#462 = DIRECTION( '', ( 0.000000000000000, -1.00000000000000, 0.000000000000000 ) );
#463 = DIRECTION( '', ( 0.000000000000000, 0.000000000000000, -1.00000000000000 ) );
#464 = CARTESIAN_POINT( '', ( 0.000000000000000, -17.0000000000000, 0.000000000000000 ) );
#465 = DIRECTION( '', ( 0.000000000000000, -1.00000000000000, 0.000000000000000 ) );
#466 = DIRECTION( '', ( 0.000000000000000, 0.000000000000000, -1.00000000000000 ) );
#467 = DIRECTION( '', ( -0.500000000000001, 0.000000000000000, -0.866025403784438 ) );
#468 = CARTESIAN_POINT( '', ( 0.000000000000000, 9.00000000000000, 0.000000000000000 ) );
#469 = DIRECTION( '', ( 0.000000000000000, 1.00000000000000, 0.000000000000000 ) );
#470 = DIRECTION( '', ( 0.000000000000000, 0.000000000000000, 1.00000000000000 ) );
#471 = CARTESIAN_POINT( '', ( 0.000000000000000, 47.0000000000000, 0.000000000000000 ) );
#472 = DIRECTION( '', ( 0.000000000000000, -1.00000000000000, 0.000000000000000 ) );
#473 = DIRECTION( '', ( 0.000000000000000, 0.000000000000000, -1.00000000000000 ) );
#474 = DIRECTION( '', ( 0.000000000000000, -1.00000000000000, 0.000000000000000 ) );
#475 = DIRECTION( '', ( -0.500000000000000, 0.000000000000000, 0.866025403784439 ) );
#476 = CARTESIAN_POINT( '', ( 6.93889390390723E-015, 47.0000000000000, 1.34441069388203E-014 ) );
#477 = DIRECTION( '', ( 0.000000000000000, -1.00000000000000, 0.000000000000000 ) );
#478 = DIRECTION( '', ( 0.000000000000000, 0.000000000000000, -1.00000000000000 ) );
#479 = DIRECTION( '', ( 0.500000000000000, 0.000000000000000, 0.866025403784438 ) );
ENDSEC;
END-ISO-10303-21;
