ISO-10303-21;
HEADER;
FILE_DESCRIPTION( ( 'Unknown' ), '1' );
FILE_NAME( '//Server/ofimatica/alfredo/Alfredo2/ISOTUBI/PZAS3D/FICHATECNICA/NUMEPRESS/generico 3D/F27R3-4DN22.stp', 'Unknown', ( 'Unknown' ), ( 'Unknown' ), 'PSStep 14.0', 'Unknown', '  ' );
FILE_SCHEMA( ( 'AUTOMOTIVE_DESIGN { 1 0 10303 214 1 1 1 1 }' ) );
ENDSEC;
DATA;
#1 = MECHANICAL_DESIGN_GEOMETRIC_PRESENTATION_REPRESENTATION( ' ', ( #10, #11, #12, #13, #14, #15, #16, #17, #18, #19, #20, #21, #22, #23, #24 ), #6 );
#2 = PRODUCT_DEFINITION_CONTEXT( '', #25, 'design' );
#3 = APPLICATION_PROTOCOL_DEFINITION( 'international standard', 'automotive_design', 2001, #25 );
#4 = PRODUCT_CATEGORY_RELATIONSHIP( 'NONE', 'NONE', #26, #27 );
#5 = SHAPE_DEFINITION_REPRESENTATION( #28, #29 );
#6 =  ( GEOMETRIC_REPRESENTATION_CONTEXT( 3 )GLOBAL_UNCERTAINTY_ASSIGNED_CONTEXT( ( #32 ) )GLOBAL_UNIT_ASSIGNED_CONTEXT( ( #34, #35, #36 ) )REPRESENTATION_CONTEXT( 'NONE', 'WORKSPACE' ) );
#10 = STYLED_ITEM( '', ( #38 ), #39 );
#11 = STYLED_ITEM( '', ( #40 ), #41 );
#12 = STYLED_ITEM( '', ( #42 ), #43 );
#13 = STYLED_ITEM( '', ( #44 ), #45 );
#14 = STYLED_ITEM( '', ( #46 ), #47 );
#15 = STYLED_ITEM( '', ( #48 ), #49 );
#16 = STYLED_ITEM( '', ( #50 ), #51 );
#17 = STYLED_ITEM( '', ( #52 ), #53 );
#18 = STYLED_ITEM( '', ( #54 ), #55 );
#19 = STYLED_ITEM( '', ( #56 ), #57 );
#20 = STYLED_ITEM( '', ( #58 ), #59 );
#21 = STYLED_ITEM( '', ( #60 ), #61 );
#22 = STYLED_ITEM( '', ( #62 ), #63 );
#23 = STYLED_ITEM( '', ( #64 ), #65 );
#24 = STYLED_ITEM( '', ( #66 ), #67 );
#25 = APPLICATION_CONTEXT( 'core data for automotive mechanical design processes' );
#26 = PRODUCT_CATEGORY( 'part', 'NONE' );
#27 = PRODUCT_RELATED_PRODUCT_CATEGORY( 'detail', ' ', ( #68 ) );
#28 = PRODUCT_DEFINITION_SHAPE( 'NONE', 'NONE', #69 );
#29 = ADVANCED_BREP_SHAPE_REPRESENTATION( '1', ( #70, #71 ), #6 );
#32 = UNCERTAINTY_MEASURE_WITH_UNIT( LENGTH_MEASURE( 0.00100000000000000 ), #34, '', '' );
#34 =  ( CONVERSION_BASED_UNIT( 'MILLIMETRE', #74 )LENGTH_UNIT(  )NAMED_UNIT( #77 ) );
#35 =  ( NAMED_UNIT( #79 )PLANE_ANGLE_UNIT(  )SI_UNIT( $, .RADIAN. ) );
#36 =  ( NAMED_UNIT( #79 )SI_UNIT( $, .STERADIAN. )SOLID_ANGLE_UNIT(  ) );
#38 = PRESENTATION_STYLE_ASSIGNMENT( ( #85 ) );
#39 = ADVANCED_FACE( '', ( #86, #87 ), #88, .F. );
#40 = PRESENTATION_STYLE_ASSIGNMENT( ( #89 ) );
#41 = ADVANCED_FACE( '', ( #90 ), #91, .F. );
#42 = PRESENTATION_STYLE_ASSIGNMENT( ( #92 ) );
#43 = ADVANCED_FACE( '', ( #93 ), #94, .F. );
#44 = PRESENTATION_STYLE_ASSIGNMENT( ( #95 ) );
#45 = ADVANCED_FACE( '', ( #96, #97 ), #98, .F. );
#46 = PRESENTATION_STYLE_ASSIGNMENT( ( #99 ) );
#47 = ADVANCED_FACE( '', ( #100, #101 ), #102, .T. );
#48 = PRESENTATION_STYLE_ASSIGNMENT( ( #103 ) );
#49 = ADVANCED_FACE( '', ( #104 ), #105, .F. );
#50 = PRESENTATION_STYLE_ASSIGNMENT( ( #106 ) );
#51 = ADVANCED_FACE( '', ( #107, #108 ), #109, .T. );
#52 = PRESENTATION_STYLE_ASSIGNMENT( ( #110 ) );
#53 = ADVANCED_FACE( '', ( #111, #112 ), #113, .F. );
#54 = PRESENTATION_STYLE_ASSIGNMENT( ( #114 ) );
#55 = ADVANCED_FACE( '', ( #115, #116 ), #117, .T. );
#56 = PRESENTATION_STYLE_ASSIGNMENT( ( #118 ) );
#57 = ADVANCED_FACE( '', ( #119 ), #120, .F. );
#58 = PRESENTATION_STYLE_ASSIGNMENT( ( #121 ) );
#59 = ADVANCED_FACE( '', ( #122 ), #123, .F. );
#60 = PRESENTATION_STYLE_ASSIGNMENT( ( #124 ) );
#61 = ADVANCED_FACE( '', ( #125, #126 ), #127, .F. );
#62 = PRESENTATION_STYLE_ASSIGNMENT( ( #128 ) );
#63 = ADVANCED_FACE( '', ( #129, #130 ), #131, .T. );
#64 = PRESENTATION_STYLE_ASSIGNMENT( ( #132 ) );
#65 = ADVANCED_FACE( '', ( #133 ), #134, .F. );
#66 = PRESENTATION_STYLE_ASSIGNMENT( ( #135 ) );
#67 = ADVANCED_FACE( '', ( #136, #137 ), #138, .F. );
#68 = PRODUCT( '1', '1', 'PART-1-DESC', ( #139 ) );
#69 = PRODUCT_DEFINITION( 'NONE', 'NONE', #140, #2 );
#70 = MANIFOLD_SOLID_BREP( '1', #141 );
#71 = AXIS2_PLACEMENT_3D( '', #142, #143, #144 );
#74 = LENGTH_MEASURE_WITH_UNIT( LENGTH_MEASURE( 1.00000000000000 ), #145 );
#77 = DIMENSIONAL_EXPONENTS( 1.00000000000000, 0.000000000000000, 0.000000000000000, 0.000000000000000, 0.000000000000000, 0.000000000000000, 0.000000000000000 );
#79 = DIMENSIONAL_EXPONENTS( 0.000000000000000, 0.000000000000000, 0.000000000000000, 0.000000000000000, 0.000000000000000, 0.000000000000000, 0.000000000000000 );
#85 = SURFACE_STYLE_USAGE( .BOTH., #146 );
#86 = FACE_BOUND( '', #147, .T. );
#87 = FACE_OUTER_BOUND( '', #148, .T. );
#88 = PLANE( '', #149 );
#89 = SURFACE_STYLE_USAGE( .BOTH., #150 );
#90 = FACE_OUTER_BOUND( '', #151, .T. );
#91 = PLANE( '', #152 );
#92 = SURFACE_STYLE_USAGE( .BOTH., #153 );
#93 = FACE_OUTER_BOUND( '', #154, .T. );
#94 = PLANE( '', #155 );
#95 = SURFACE_STYLE_USAGE( .BOTH., #156 );
#96 = FACE_OUTER_BOUND( '', #157, .T. );
#97 = FACE_OUTER_BOUND( '', #158, .T. );
#98 = CYLINDRICAL_SURFACE( '', #159, 10.0000000000000 );
#99 = SURFACE_STYLE_USAGE( .BOTH., #160 );
#100 = FACE_BOUND( '', #161, .T. );
#101 = FACE_OUTER_BOUND( '', #162, .T. );
#102 = PLANE( '', #163 );
#103 = SURFACE_STYLE_USAGE( .BOTH., #164 );
#104 = FACE_OUTER_BOUND( '', #165, .T. );
#105 = PLANE( '', #166 );
#106 = SURFACE_STYLE_USAGE( .BOTH., #167 );
#107 = FACE_BOUND( '', #168, .T. );
#108 = FACE_OUTER_BOUND( '', #169, .T. );
#109 = PLANE( '', #170 );
#110 = SURFACE_STYLE_USAGE( .BOTH., #171 );
#111 = FACE_BOUND( '', #172, .T. );
#112 = FACE_OUTER_BOUND( '', #173, .T. );
#113 = PLANE( '', #174 );
#114 = SURFACE_STYLE_USAGE( .BOTH., #175 );
#115 = FACE_BOUND( '', #176, .T. );
#116 = FACE_OUTER_BOUND( '', #177, .T. );
#117 = CONICAL_SURFACE( '', #178, 13.3350000000000, 0.0312413936106985 );
#118 = SURFACE_STYLE_USAGE( .BOTH., #179 );
#119 = FACE_OUTER_BOUND( '', #180, .T. );
#120 = PLANE( '', #181 );
#121 = SURFACE_STYLE_USAGE( .BOTH., #182 );
#122 = FACE_OUTER_BOUND( '', #183, .T. );
#123 = PLANE( '', #184 );
#124 = SURFACE_STYLE_USAGE( .BOTH., #185 );
#125 = FACE_BOUND( '', #186, .T. );
#126 = FACE_OUTER_BOUND( '', #187, .T. );
#127 = PLANE( '', #188 );
#128 = SURFACE_STYLE_USAGE( .BOTH., #189 );
#129 = FACE_OUTER_BOUND( '', #190, .T. );
#130 = FACE_OUTER_BOUND( '', #191, .T. );
#131 = CYLINDRICAL_SURFACE( '', #192, 11.0000000000000 );
#132 = SURFACE_STYLE_USAGE( .BOTH., #193 );
#133 = FACE_OUTER_BOUND( '', #194, .T. );
#134 = PLANE( '', #195 );
#135 = SURFACE_STYLE_USAGE( .BOTH., #196 );
#136 = FACE_OUTER_BOUND( '', #197, .T. );
#137 = FACE_OUTER_BOUND( '', #198, .T. );
#138 = CYLINDRICAL_SURFACE( '', #199, 9.50000000000000 );
#139 = PRODUCT_CONTEXT( '', #25, 'mechanical' );
#140 = PRODUCT_DEFINITION_FORMATION_WITH_SPECIFIED_SOURCE( ' ', 'NONE', #68, .NOT_KNOWN. );
#141 = CLOSED_SHELL( '', ( #41, #47, #57, #51, #55, #39, #43, #59, #49, #63, #53, #61, #65, #45, #67 ) );
#142 = CARTESIAN_POINT( '', ( 0.000000000000000, 0.000000000000000, 0.000000000000000 ) );
#143 = DIRECTION( '', ( 0.000000000000000, 0.000000000000000, 1.00000000000000 ) );
#144 = DIRECTION( '', ( 1.00000000000000, 0.000000000000000, 0.000000000000000 ) );
#145 =  ( LENGTH_UNIT(  )NAMED_UNIT( #77 )SI_UNIT( .MILLI., .METRE. ) );
#146 = SURFACE_SIDE_STYLE( '', ( #201 ) );
#147 = EDGE_LOOP( '', ( #202 ) );
#148 = EDGE_LOOP( '', ( #203, #204, #205, #206, #207, #208 ) );
#149 = AXIS2_PLACEMENT_3D( '', #209, #210, #211 );
#150 = SURFACE_SIDE_STYLE( '', ( #212 ) );
#151 = EDGE_LOOP( '', ( #213, #214, #215, #216 ) );
#152 = AXIS2_PLACEMENT_3D( '', #217, #218, #219 );
#153 = SURFACE_SIDE_STYLE( '', ( #220 ) );
#154 = EDGE_LOOP( '', ( #221, #222, #223, #224 ) );
#155 = AXIS2_PLACEMENT_3D( '', #225, #226, #227 );
#156 = SURFACE_SIDE_STYLE( '', ( #228 ) );
#157 = EDGE_LOOP( '', ( #229 ) );
#158 = EDGE_LOOP( '', ( #230 ) );
#159 = AXIS2_PLACEMENT_3D( '', #231, #232, #233 );
#160 = SURFACE_SIDE_STYLE( '', ( #234 ) );
#161 = EDGE_LOOP( '', ( #235 ) );
#162 = EDGE_LOOP( '', ( #236 ) );
#163 = AXIS2_PLACEMENT_3D( '', #237, #238, #239 );
#164 = SURFACE_SIDE_STYLE( '', ( #240 ) );
#165 = EDGE_LOOP( '', ( #241, #242, #243, #244 ) );
#166 = AXIS2_PLACEMENT_3D( '', #245, #246, #247 );
#167 = SURFACE_SIDE_STYLE( '', ( #248 ) );
#168 = EDGE_LOOP( '', ( #249 ) );
#169 = EDGE_LOOP( '', ( #250, #251, #252, #253, #254, #255 ) );
#170 = AXIS2_PLACEMENT_3D( '', #256, #257, #258 );
#171 = SURFACE_SIDE_STYLE( '', ( #259 ) );
#172 = EDGE_LOOP( '', ( #260 ) );
#173 = EDGE_LOOP( '', ( #261 ) );
#174 = AXIS2_PLACEMENT_3D( '', #262, #263, #264 );
#175 = SURFACE_SIDE_STYLE( '', ( #265 ) );
#176 = EDGE_LOOP( '', ( #266 ) );
#177 = EDGE_LOOP( '', ( #267 ) );
#178 = AXIS2_PLACEMENT_3D( '', #268, #269, #270 );
#179 = SURFACE_SIDE_STYLE( '', ( #271 ) );
#180 = EDGE_LOOP( '', ( #272, #273, #274, #275 ) );
#181 = AXIS2_PLACEMENT_3D( '', #276, #277, #278 );
#182 = SURFACE_SIDE_STYLE( '', ( #279 ) );
#183 = EDGE_LOOP( '', ( #280, #281, #282, #283 ) );
#184 = AXIS2_PLACEMENT_3D( '', #284, #285, #286 );
#185 = SURFACE_SIDE_STYLE( '', ( #287 ) );
#186 = EDGE_LOOP( '', ( #288 ) );
#187 = EDGE_LOOP( '', ( #289 ) );
#188 = AXIS2_PLACEMENT_3D( '', #290, #291, #292 );
#189 = SURFACE_SIDE_STYLE( '', ( #293 ) );
#190 = EDGE_LOOP( '', ( #294 ) );
#191 = EDGE_LOOP( '', ( #295 ) );
#192 = AXIS2_PLACEMENT_3D( '', #296, #297, #298 );
#193 = SURFACE_SIDE_STYLE( '', ( #299 ) );
#194 = EDGE_LOOP( '', ( #300, #301, #302, #303 ) );
#195 = AXIS2_PLACEMENT_3D( '', #304, #305, #306 );
#196 = SURFACE_SIDE_STYLE( '', ( #307 ) );
#197 = EDGE_LOOP( '', ( #308 ) );
#198 = EDGE_LOOP( '', ( #309 ) );
#199 = AXIS2_PLACEMENT_3D( '', #310, #311, #312 );
#201 = SURFACE_STYLE_FILL_AREA( #313 );
#202 = ORIENTED_EDGE( '', *, *, #314, .F. );
#203 = ORIENTED_EDGE( '', *, *, #315, .F. );
#204 = ORIENTED_EDGE( '', *, *, #316, .F. );
#205 = ORIENTED_EDGE( '', *, *, #317, .F. );
#206 = ORIENTED_EDGE( '', *, *, #318, .F. );
#207 = ORIENTED_EDGE( '', *, *, #319, .F. );
#208 = ORIENTED_EDGE( '', *, *, #320, .F. );
#209 = CARTESIAN_POINT( '', ( 0.000000000000000, 0.000000000000000, 0.000000000000000 ) );
#210 = DIRECTION( '', ( 0.000000000000000, 1.00000000000000, 0.000000000000000 ) );
#211 = DIRECTION( '', ( 0.000000000000000, 0.000000000000000, 1.00000000000000 ) );
#212 = SURFACE_STYLE_FILL_AREA( #321 );
#213 = ORIENTED_EDGE( '', *, *, #316, .T. );
#214 = ORIENTED_EDGE( '', *, *, #322, .F. );
#215 = ORIENTED_EDGE( '', *, *, #323, .T. );
#216 = ORIENTED_EDGE( '', *, *, #324, .T. );
#217 = CARTESIAN_POINT( '', ( -6.63952801181595, 7.00000000000000, 14.0000000148131 ) );
#218 = DIRECTION( '', ( -1.82890472889742E-015, 0.000000000000000, -1.00000000000000 ) );
#219 = DIRECTION( '', ( -1.00000000000000, 0.000000000000000, 1.82890472889742E-015 ) );
#220 = SURFACE_STYLE_FILL_AREA( #325 );
#221 = ORIENTED_EDGE( '', *, *, #315, .T. );
#222 = ORIENTED_EDGE( '', *, *, #326, .F. );
#223 = ORIENTED_EDGE( '', *, *, #327, .T. );
#224 = ORIENTED_EDGE( '', *, *, #322, .T. );
#225 = CARTESIAN_POINT( '', ( 8.80459165990266, 7.00000000000000, 12.7499999347776 ) );
#226 = DIRECTION( '', ( -0.866025403784439, 0.000000000000000, -0.500000000000000 ) );
#227 = DIRECTION( '', ( -0.500000000000000, 0.000000000000000, 0.866025403784439 ) );
#228 = SURFACE_STYLE_FILL_AREA( #328 );
#229 = ORIENTED_EDGE( '', *, *, #329, .T. );
#230 = ORIENTED_EDGE( '', *, *, #330, .F. );
#231 = CARTESIAN_POINT( '', ( 0.000000000000000, 3.00000000000000, 0.000000000000000 ) );
#232 = DIRECTION( '', ( -0.000000000000000, 1.00000000000000, -0.000000000000000 ) );
#233 = DIRECTION( '', ( 0.000000000000000, 0.000000000000000, -1.00000000000000 ) );
#234 = SURFACE_STYLE_FILL_AREA( #331 );
#235 = ORIENTED_EDGE( '', *, *, #330, .T. );
#236 = ORIENTED_EDGE( '', *, *, #332, .T. );
#237 = CARTESIAN_POINT( '', ( 0.000000000000000, -17.0000000000000, 0.000000000000000 ) );
#238 = DIRECTION( '', ( 0.000000000000000, -1.00000000000000, 0.000000000000000 ) );
#239 = DIRECTION( '', ( 0.000000000000000, 0.000000000000000, -1.00000000000000 ) );
#240 = SURFACE_STYLE_FILL_AREA( #333 );
#241 = ORIENTED_EDGE( '', *, *, #320, .T. );
#242 = ORIENTED_EDGE( '', *, *, #334, .F. );
#243 = ORIENTED_EDGE( '', *, *, #335, .T. );
#244 = ORIENTED_EDGE( '', *, *, #326, .T. );
#245 = CARTESIAN_POINT( '', ( 15.4441197008225, 7.00000000000000, -1.25000000000000 ) );
#246 = DIRECTION( '', ( -0.866025403784438, 0.000000000000000, 0.500000000000000 ) );
#247 = DIRECTION( '', ( 0.500000000000000, 0.000000000000000, 0.866025403784438 ) );
#248 = SURFACE_STYLE_FILL_AREA( #336 );
#249 = ORIENTED_EDGE( '', *, *, #337, .F. );
#250 = ORIENTED_EDGE( '', *, *, #323, .F. );
#251 = ORIENTED_EDGE( '', *, *, #327, .F. );
#252 = ORIENTED_EDGE( '', *, *, #335, .F. );
#253 = ORIENTED_EDGE( '', *, *, #338, .F. );
#254 = ORIENTED_EDGE( '', *, *, #339, .F. );
#255 = ORIENTED_EDGE( '', *, *, #340, .F. );
#256 = CARTESIAN_POINT( '', ( 0.000000000000000, 9.00000000000000, 0.000000000000000 ) );
#257 = DIRECTION( '', ( 0.000000000000000, 1.00000000000000, 0.000000000000000 ) );
#258 = DIRECTION( '', ( 0.000000000000000, 0.000000000000000, 1.00000000000000 ) );
#259 = SURFACE_STYLE_FILL_AREA( #341 );
#260 = ORIENTED_EDGE( '', *, *, #342, .T. );
#261 = ORIENTED_EDGE( '', *, *, #343, .F. );
#262 = CARTESIAN_POINT( '', ( 0.000000000000000, 47.0000000000000, 0.000000000000000 ) );
#263 = DIRECTION( '', ( 0.000000000000000, -1.00000000000000, 0.000000000000000 ) );
#264 = DIRECTION( '', ( 0.000000000000000, 0.000000000000000, -1.00000000000000 ) );
#265 = SURFACE_STYLE_FILL_AREA( #344 );
#266 = ORIENTED_EDGE( '', *, *, #332, .F. );
#267 = ORIENTED_EDGE( '', *, *, #314, .T. );
#268 = CARTESIAN_POINT( '', ( 0.000000000000000, 3.15490000000000, 0.000000000000000 ) );
#269 = DIRECTION( '', ( -0.000000000000000, 1.00000000000000, -0.000000000000000 ) );
#270 = DIRECTION( '', ( 0.000000000000000, 0.000000000000000, 1.00000000000000 ) );
#271 = SURFACE_STYLE_FILL_AREA( #345 );
#272 = ORIENTED_EDGE( '', *, *, #317, .T. );
#273 = ORIENTED_EDGE( '', *, *, #324, .F. );
#274 = ORIENTED_EDGE( '', *, *, #340, .T. );
#275 = ORIENTED_EDGE( '', *, *, #346, .T. );
#276 = CARTESIAN_POINT( '', ( -15.4441196717186, 7.00000000000000, 1.25000008003554 ) );
#277 = DIRECTION( '', ( 0.866025403784438, 0.000000000000000, -0.500000000000001 ) );
#278 = DIRECTION( '', ( -0.500000000000001, 0.000000000000000, -0.866025403784438 ) );
#279 = SURFACE_STYLE_FILL_AREA( #347 );
#280 = ORIENTED_EDGE( '', *, *, #319, .T. );
#281 = ORIENTED_EDGE( '', *, *, #348, .F. );
#282 = ORIENTED_EDGE( '', *, *, #338, .T. );
#283 = ORIENTED_EDGE( '', *, *, #334, .T. );
#284 = CARTESIAN_POINT( '', ( 6.63952801181599, 7.00000000000000, -14.0000000148131 ) );
#285 = DIRECTION( '', ( 1.56763262476921E-015, 0.000000000000000, 1.00000000000000 ) );
#286 = DIRECTION( '', ( 1.00000000000000, 0.000000000000000, -1.56763262476921E-015 ) );
#287 = SURFACE_STYLE_FILL_AREA( #349 );
#288 = ORIENTED_EDGE( '', *, *, #350, .T. );
#289 = ORIENTED_EDGE( '', *, *, #329, .F. );
#290 = CARTESIAN_POINT( '', ( 0.000000000000000, 5.00000000000000, 0.000000000000000 ) );
#291 = DIRECTION( '', ( 0.000000000000000, 1.00000000000000, 0.000000000000000 ) );
#292 = DIRECTION( '', ( 0.000000000000000, 0.000000000000000, 1.00000000000000 ) );
#293 = SURFACE_STYLE_FILL_AREA( #351 );
#294 = ORIENTED_EDGE( '', *, *, #337, .T. );
#295 = ORIENTED_EDGE( '', *, *, #343, .T. );
#296 = CARTESIAN_POINT( '', ( 0.000000000000000, 47.0000000000000, 0.000000000000000 ) );
#297 = DIRECTION( '', ( -0.000000000000000, 1.00000000000000, -0.000000000000000 ) );
#298 = DIRECTION( '', ( 0.000000000000000, 0.000000000000000, -1.00000000000000 ) );
#299 = SURFACE_STYLE_FILL_AREA( #352 );
#300 = ORIENTED_EDGE( '', *, *, #318, .T. );
#301 = ORIENTED_EDGE( '', *, *, #346, .F. );
#302 = ORIENTED_EDGE( '', *, *, #339, .T. );
#303 = ORIENTED_EDGE( '', *, *, #348, .T. );
#304 = CARTESIAN_POINT( '', ( -8.80459165990266, 7.00000000000000, -12.7499999347776 ) );
#305 = DIRECTION( '', ( 0.866025403784439, 0.000000000000000, 0.500000000000000 ) );
#306 = DIRECTION( '', ( 0.499999999999999, 0.000000000000000, -0.866025403784439 ) );
#307 = SURFACE_STYLE_FILL_AREA( #353 );
#308 = ORIENTED_EDGE( '', *, *, #350, .F. );
#309 = ORIENTED_EDGE( '', *, *, #342, .F. );
#310 = CARTESIAN_POINT( '', ( 6.93889390390723E-015, 2.04696243185652, 1.34441069388203E-014 ) );
#311 = DIRECTION( '', ( -0.000000000000000, -1.00000000000000, -0.000000000000000 ) );
#312 = DIRECTION( '', ( 0.000000000000000, 0.000000000000000, 1.00000000000000 ) );
#313 = FILL_AREA_STYLE( '', ( #354 ) );
#314 = EDGE_CURVE( '', #355, #355, #356, .F. );
#315 = EDGE_CURVE( '', #357, #358, #359, .T. );
#316 = EDGE_CURVE( '', #360, #357, #361, .T. );
#317 = EDGE_CURVE( '', #362, #360, #363, .T. );
#318 = EDGE_CURVE( '', #364, #362, #365, .T. );
#319 = EDGE_CURVE( '', #366, #364, #367, .T. );
#320 = EDGE_CURVE( '', #358, #366, #368, .T. );
#321 = FILL_AREA_STYLE( '', ( #369 ) );
#322 = EDGE_CURVE( '', #370, #357, #371, .T. );
#323 = EDGE_CURVE( '', #370, #372, #373, .T. );
#324 = EDGE_CURVE( '', #372, #360, #374, .T. );
#325 = FILL_AREA_STYLE( '', ( #375 ) );
#326 = EDGE_CURVE( '', #376, #358, #377, .T. );
#327 = EDGE_CURVE( '', #376, #370, #378, .T. );
#328 = FILL_AREA_STYLE( '', ( #379 ) );
#329 = EDGE_CURVE( '', #380, #380, #381, .T. );
#330 = EDGE_CURVE( '', #382, #382, #383, .T. );
#331 = FILL_AREA_STYLE( '', ( #384 ) );
#332 = EDGE_CURVE( '', #385, #385, #386, .T. );
#333 = FILL_AREA_STYLE( '', ( #387 ) );
#334 = EDGE_CURVE( '', #388, #366, #389, .T. );
#335 = EDGE_CURVE( '', #388, #376, #390, .T. );
#336 = FILL_AREA_STYLE( '', ( #391 ) );
#337 = EDGE_CURVE( '', #392, #392, #393, .T. );
#338 = EDGE_CURVE( '', #394, #388, #395, .T. );
#339 = EDGE_CURVE( '', #396, #394, #397, .T. );
#340 = EDGE_CURVE( '', #372, #396, #398, .T. );
#341 = FILL_AREA_STYLE( '', ( #399 ) );
#342 = EDGE_CURVE( '', #400, #400, #401, .T. );
#343 = EDGE_CURVE( '', #402, #402, #403, .T. );
#344 = FILL_AREA_STYLE( '', ( #404 ) );
#345 = FILL_AREA_STYLE( '', ( #405 ) );
#346 = EDGE_CURVE( '', #396, #362, #406, .T. );
#347 = FILL_AREA_STYLE( '', ( #407 ) );
#348 = EDGE_CURVE( '', #394, #364, #408, .T. );
#349 = FILL_AREA_STYLE( '', ( #409 ) );
#350 = EDGE_CURVE( '', #410, #410, #411, .T. );
#351 = FILL_AREA_STYLE( '', ( #412 ) );
#352 = FILL_AREA_STYLE( '', ( #413 ) );
#353 = FILL_AREA_STYLE( '', ( #414 ) );
#354 = FILL_AREA_STYLE_COLOUR( '', #415 );
#355 = VERTEX_POINT( '', #416 );
#356 = CIRCLE( '', #417, 13.2364044479797 );
#357 = VERTEX_POINT( '', #418 );
#358 = VERTEX_POINT( '', #419 );
#359 = LINE( '', #420, #421 );
#360 = VERTEX_POINT( '', #422 );
#361 = LINE( '', #423, #424 );
#362 = VERTEX_POINT( '', #425 );
#363 = LINE( '', #426, #427 );
#364 = VERTEX_POINT( '', #428 );
#365 = LINE( '', #429, #430 );
#366 = VERTEX_POINT( '', #431 );
#367 = LINE( '', #432, #433 );
#368 = LINE( '', #434, #435 );
#369 = FILL_AREA_STYLE_COLOUR( '', #436 );
#370 = VERTEX_POINT( '', #437 );
#371 = LINE( '', #438, #439 );
#372 = VERTEX_POINT( '', #440 );
#373 = LINE( '', #441, #442 );
#374 = LINE( '', #443, #444 );
#375 = FILL_AREA_STYLE_COLOUR( '', #445 );
#376 = VERTEX_POINT( '', #446 );
#377 = LINE( '', #447, #448 );
#378 = LINE( '', #449, #450 );
#379 = FILL_AREA_STYLE_COLOUR( '', #451 );
#380 = VERTEX_POINT( '', #452 );
#381 = CIRCLE( '', #453, 10.0000000000000 );
#382 = VERTEX_POINT( '', #454 );
#383 = CIRCLE( '', #455, 10.0000000000000 );
#384 = FILL_AREA_STYLE_COLOUR( '', #456 );
#385 = VERTEX_POINT( '', #457 );
#386 = CIRCLE( '', #458, 12.7051278990096 );
#387 = FILL_AREA_STYLE_COLOUR( '', #459 );
#388 = VERTEX_POINT( '', #460 );
#389 = LINE( '', #461, #462 );
#390 = LINE( '', #463, #464 );
#391 = FILL_AREA_STYLE_COLOUR( '', #465 );
#392 = VERTEX_POINT( '', #466 );
#393 = CIRCLE( '', #467, 11.0000000000000 );
#394 = VERTEX_POINT( '', #468 );
#395 = LINE( '', #469, #470 );
#396 = VERTEX_POINT( '', #471 );
#397 = LINE( '', #472, #473 );
#398 = LINE( '', #474, #475 );
#399 = FILL_AREA_STYLE_COLOUR( '', #476 );
#400 = VERTEX_POINT( '', #477 );
#401 = CIRCLE( '', #478, 9.50000000000000 );
#402 = VERTEX_POINT( '', #479 );
#403 = CIRCLE( '', #480, 11.0000000000000 );
#404 = FILL_AREA_STYLE_COLOUR( '', #481 );
#405 = FILL_AREA_STYLE_COLOUR( '', #482 );
#406 = LINE( '', #483, #484 );
#407 = FILL_AREA_STYLE_COLOUR( '', #485 );
#408 = LINE( '', #486, #487 );
#409 = FILL_AREA_STYLE_COLOUR( '', #488 );
#410 = VERTEX_POINT( '', #489 );
#411 = CIRCLE( '', #490, 9.50000000000000 );
#412 = FILL_AREA_STYLE_COLOUR( '', #491 );
#413 = FILL_AREA_STYLE_COLOUR( '', #492 );
#414 = FILL_AREA_STYLE_COLOUR( '', #493 );
#415 = COLOUR_RGB( '', 0.117647059261799, 0.749019622802734, 0.117647059261799 );
#416 = CARTESIAN_POINT( '', ( 0.000000000000000, 0.000000000000000, 13.2364044479797 ) );
#417 = AXIS2_PLACEMENT_3D( '', #494, #495, #496 );
#418 = CARTESIAN_POINT( '', ( 8.08290377720711, 0.000000000000000, 14.0000000148131 ) );
#419 = CARTESIAN_POINT( '', ( 16.1658075458618, 0.000000000000000, 1.48130910749417E-008 ) );
#420 = CARTESIAN_POINT( '', ( 8.80459165990266, 0.000000000000000, 12.7499999347776 ) );
#421 = VECTOR( '', #497, 1000.00000000000 );
#422 = CARTESIAN_POINT( '', ( -8.08290377720705, 0.000000000000000, 14.0000000148131 ) );
#423 = CARTESIAN_POINT( '', ( -6.63952801181595, 0.000000000000000, 14.0000000148131 ) );
#424 = VECTOR( '', #498, 1000.00000000000 );
#425 = CARTESIAN_POINT( '', ( -16.1658075544142, 0.000000000000000, 4.65122731996281E-014 ) );
#426 = CARTESIAN_POINT( '', ( -15.4441196717186, 0.000000000000000, 1.25000008003554 ) );
#427 = VECTOR( '', #499, 999.999999999999 );
#428 = CARTESIAN_POINT( '', ( -8.08290377720712, 0.000000000000000, -14.0000000148131 ) );
#429 = CARTESIAN_POINT( '', ( -8.80459165990266, 0.000000000000000, -12.7499999347776 ) );
#430 = VECTOR( '', #500, 1000.00000000000 );
#431 = CARTESIAN_POINT( '', ( 8.08290376010240, 0.000000000000000, -14.0000000148131 ) );
#432 = CARTESIAN_POINT( '', ( 6.63952801181599, 0.000000000000000, -14.0000000148131 ) );
#433 = VECTOR( '', #501, 1000.00000000000 );
#434 = CARTESIAN_POINT( '', ( 15.4441197008225, 0.000000000000000, -1.25000000000000 ) );
#435 = VECTOR( '', #502, 999.999999999999 );
#436 = COLOUR_RGB( '', 0.117647059261799, 0.749019622802734, 0.117647059261799 );
#437 = CARTESIAN_POINT( '', ( 8.08290377720711, 9.00000000000000, 14.0000000148131 ) );
#438 = CARTESIAN_POINT( '', ( 8.08290377720711, 7.00000000000000, 14.0000000148131 ) );
#439 = VECTOR( '', #503, 1000.00000000000 );
#440 = CARTESIAN_POINT( '', ( -8.08290377720705, 9.00000000000000, 14.0000000148131 ) );
#441 = CARTESIAN_POINT( '', ( 8.38647185636671E-008, 9.00000000000000, 14.0000000148131 ) );
#442 = VECTOR( '', #504, 1000.00000000000 );
#443 = CARTESIAN_POINT( '', ( -8.08290377720705, 7.00000000000000, 14.0000000148131 ) );
#444 = VECTOR( '', #505, 1000.00000000000 );
#445 = COLOUR_RGB( '', 0.117647059261799, 0.749019622802734, 0.117647059261799 );
#446 = CARTESIAN_POINT( '', ( 16.1658075458618, 9.00000000000000, 1.48130884728564E-008 ) );
#447 = CARTESIAN_POINT( '', ( 16.1658075458618, 7.00000000000000, 1.48130886896969E-008 ) );
#448 = VECTOR( '', #506, 1000.00000000000 );
#449 = CARTESIAN_POINT( '', ( 12.1243557077430, 9.00000000000000, 6.99999993477759 ) );
#450 = VECTOR( '', #507, 1000.00000000000 );
#451 = COLOUR_RGB( '', 0.117647059261799, 0.749019622802734, 0.117647059261799 );
#452 = CARTESIAN_POINT( '', ( 10.0000000000000, 5.00000000000000, 0.000000000000000 ) );
#453 = AXIS2_PLACEMENT_3D( '', #508, #509, #510 );
#454 = CARTESIAN_POINT( '', ( 10.0000000000000, -17.0000000000000, 0.000000000000000 ) );
#455 = AXIS2_PLACEMENT_3D( '', #511, #512, #513 );
#456 = COLOUR_RGB( '', 0.117647059261799, 0.749019622802734, 0.117647059261799 );
#457 = CARTESIAN_POINT( '', ( 0.000000000000000, -17.0000000000000, -12.7051278990096 ) );
#458 = AXIS2_PLACEMENT_3D( '', #514, #515, #516 );
#459 = COLOUR_RGB( '', 0.117647059261799, 0.749019622802734, 0.117647059261799 );
#460 = CARTESIAN_POINT( '', ( 8.08290376010240, 9.00000000000000, -14.0000000148131 ) );
#461 = CARTESIAN_POINT( '', ( 8.08290376010240, 7.00000000000000, -14.0000000148131 ) );
#462 = VECTOR( '', #517, 1000.00000000000 );
#463 = CARTESIAN_POINT( '', ( 12.1243556529821, 9.00000000000000, -7.00000000000000 ) );
#464 = VECTOR( '', #518, 999.999999999999 );
#465 = COLOUR_RGB( '', 0.117647059261799, 0.749019622802734, 0.117647059261799 );
#466 = CARTESIAN_POINT( '', ( 0.000000000000000, 9.00000000000000, 11.0000000000000 ) );
#467 = AXIS2_PLACEMENT_3D( '', #519, #520, #521 );
#468 = CARTESIAN_POINT( '', ( -8.08290377720712, 9.00000000000000, -14.0000000148131 ) );
#469 = CARTESIAN_POINT( '', ( -8.38647140411549E-008, 9.00000000000000, -14.0000000148131 ) );
#470 = VECTOR( '', #522, 1000.00000000000 );
#471 = CARTESIAN_POINT( '', ( -16.1658075544142, 9.00000000000000, 4.29344060304260E-014 ) );
#472 = CARTESIAN_POINT( '', ( -12.1243557077430, 9.00000000000000, -6.99999993477756 ) );
#473 = VECTOR( '', #523, 1000.00000000000 );
#474 = CARTESIAN_POINT( '', ( -12.1243556238783, 9.00000000000000, 7.00000008003553 ) );
#475 = VECTOR( '', #524, 999.999999999999 );
#476 = COLOUR_RGB( '', 0.117647059261799, 0.749019622802734, 0.117647059261799 );
#477 = CARTESIAN_POINT( '', ( 6.93889390390723E-015, 47.0000000000000, -9.49999999999999 ) );
#478 = AXIS2_PLACEMENT_3D( '', #525, #526, #527 );
#479 = CARTESIAN_POINT( '', ( 0.000000000000000, 47.0000000000000, -11.0000000000000 ) );
#480 = AXIS2_PLACEMENT_3D( '', #528, #529, #530 );
#481 = COLOUR_RGB( '', 0.396078437566757, 0.941176474094391, 0.450980395078659 );
#482 = COLOUR_RGB( '', 0.117647059261799, 0.749019622802734, 0.117647059261799 );
#483 = CARTESIAN_POINT( '', ( -16.1658075544142, 7.00000000000000, 4.42354486374086E-014 ) );
#484 = VECTOR( '', #531, 1000.00000000000 );
#485 = COLOUR_RGB( '', 0.117647059261799, 0.749019622802734, 0.117647059261799 );
#486 = CARTESIAN_POINT( '', ( -8.08290377720712, 7.00000000000000, -14.0000000148131 ) );
#487 = VECTOR( '', #532, 1000.00000000000 );
#488 = COLOUR_RGB( '', 0.117647059261799, 0.749019622802734, 0.117647059261799 );
#489 = CARTESIAN_POINT( '', ( 6.93889390390723E-015, 5.00000000000000, 9.50000000000001 ) );
#490 = AXIS2_PLACEMENT_3D( '', #533, #534, #535 );
#491 = COLOUR_RGB( '', 0.117647059261799, 0.749019622802734, 0.117647059261799 );
#492 = COLOUR_RGB( '', 0.117647059261799, 0.749019622802734, 0.117647059261799 );
#493 = COLOUR_RGB( '', 0.117647059261799, 0.749019622802734, 0.117647059261799 );
#494 = CARTESIAN_POINT( '', ( 0.000000000000000, 0.000000000000000, 0.000000000000000 ) );
#495 = DIRECTION( '', ( 0.000000000000000, 1.00000000000000, 0.000000000000000 ) );
#496 = DIRECTION( '', ( 0.000000000000000, 0.000000000000000, 1.00000000000000 ) );
#497 = DIRECTION( '', ( 0.500000000000000, 0.000000000000000, -0.866025403784439 ) );
#498 = DIRECTION( '', ( 1.00000000000000, 0.000000000000000, -1.82890472889742E-015 ) );
#499 = DIRECTION( '', ( 0.500000000000001, 0.000000000000000, 0.866025403784438 ) );
#500 = DIRECTION( '', ( -0.499999999999999, 0.000000000000000, 0.866025403784439 ) );
#501 = DIRECTION( '', ( -1.00000000000000, 0.000000000000000, 1.56763262476921E-015 ) );
#502 = DIRECTION( '', ( -0.500000000000000, 0.000000000000000, -0.866025403784438 ) );
#503 = DIRECTION( '', ( 0.000000000000000, -1.00000000000000, 0.000000000000000 ) );
#504 = DIRECTION( '', ( -1.00000000000000, 0.000000000000000, 1.82890472889742E-015 ) );
#505 = DIRECTION( '', ( 0.000000000000000, -1.00000000000000, 0.000000000000000 ) );
#506 = DIRECTION( '', ( 0.000000000000000, -1.00000000000000, 0.000000000000000 ) );
#507 = DIRECTION( '', ( -0.500000000000000, 0.000000000000000, 0.866025403784439 ) );
#508 = CARTESIAN_POINT( '', ( 0.000000000000000, 5.00000000000000, 0.000000000000000 ) );
#509 = DIRECTION( '', ( -0.000000000000000, 1.00000000000000, 0.000000000000000 ) );
#510 = DIRECTION( '', ( 1.00000000000000, 0.000000000000000, 0.000000000000000 ) );
#511 = CARTESIAN_POINT( '', ( 0.000000000000000, -17.0000000000000, 0.000000000000000 ) );
#512 = DIRECTION( '', ( -0.000000000000000, 1.00000000000000, 0.000000000000000 ) );
#513 = DIRECTION( '', ( 1.00000000000000, 0.000000000000000, 0.000000000000000 ) );
#514 = CARTESIAN_POINT( '', ( 0.000000000000000, -17.0000000000000, 0.000000000000000 ) );
#515 = DIRECTION( '', ( 0.000000000000000, -1.00000000000000, 0.000000000000000 ) );
#516 = DIRECTION( '', ( 0.000000000000000, 0.000000000000000, -1.00000000000000 ) );
#517 = DIRECTION( '', ( 0.000000000000000, -1.00000000000000, 0.000000000000000 ) );
#518 = DIRECTION( '', ( 0.500000000000000, 0.000000000000000, 0.866025403784438 ) );
#519 = CARTESIAN_POINT( '', ( 0.000000000000000, 9.00000000000000, 0.000000000000000 ) );
#520 = DIRECTION( '', ( 0.000000000000000, 1.00000000000000, 0.000000000000000 ) );
#521 = DIRECTION( '', ( 0.000000000000000, 0.000000000000000, 1.00000000000000 ) );
#522 = DIRECTION( '', ( 1.00000000000000, 0.000000000000000, -1.56763262476921E-015 ) );
#523 = DIRECTION( '', ( 0.499999999999999, 0.000000000000000, -0.866025403784439 ) );
#524 = DIRECTION( '', ( -0.500000000000001, 0.000000000000000, -0.866025403784438 ) );
#525 = CARTESIAN_POINT( '', ( 6.93889390390723E-015, 47.0000000000000, 1.34441069388203E-014 ) );
#526 = DIRECTION( '', ( 0.000000000000000, -1.00000000000000, 0.000000000000000 ) );
#527 = DIRECTION( '', ( 0.000000000000000, 0.000000000000000, -1.00000000000000 ) );
#528 = CARTESIAN_POINT( '', ( 0.000000000000000, 47.0000000000000, 0.000000000000000 ) );
#529 = DIRECTION( '', ( 0.000000000000000, -1.00000000000000, 0.000000000000000 ) );
#530 = DIRECTION( '', ( 0.000000000000000, 0.000000000000000, -1.00000000000000 ) );
#531 = DIRECTION( '', ( 0.000000000000000, -1.00000000000000, 0.000000000000000 ) );
#532 = DIRECTION( '', ( 0.000000000000000, -1.00000000000000, 0.000000000000000 ) );
#533 = CARTESIAN_POINT( '', ( 6.93889390390723E-015, 5.00000000000000, 1.34441069388203E-014 ) );
#534 = DIRECTION( '', ( 0.000000000000000, 1.00000000000000, 0.000000000000000 ) );
#535 = DIRECTION( '', ( 0.000000000000000, 0.000000000000000, 1.00000000000000 ) );
ENDSEC;
END-ISO-10303-21;
