ISO-10303-21;
HEADER;
FILE_DESCRIPTION( ( 'Unknown' ), '1' );
FILE_NAME( '//Server/ofimatica/alfredo/Alfredo2/ISOTUBI/PZAS3D/FICHATECNICA/NUMEPRESS/generico 3D/F27R1DN28.stp', 'Unknown', ( 'Unknown' ), ( 'Unknown' ), 'PSStep 14.0', 'Unknown', '  ' );
FILE_SCHEMA( ( 'AUTOMOTIVE_DESIGN { 1 0 10303 214 1 1 1 1 }' ) );
ENDSEC;
DATA;
#1 = MECHANICAL_DESIGN_GEOMETRIC_PRESENTATION_REPRESENTATION( ' ', ( #10, #11, #12, #13, #14, #15, #16, #17, #18, #19, #20, #21, #22, #23, #24 ), #6 );
#2 = PRODUCT_DEFINITION_CONTEXT( '', #25, 'design' );
#3 = APPLICATION_PROTOCOL_DEFINITION( 'international standard', 'automotive_design', 2001, #25 );
#4 = PRODUCT_CATEGORY_RELATIONSHIP( 'NONE', 'NONE', #26, #27 );
#5 = SHAPE_DEFINITION_REPRESENTATION( #28, #29 );
#6 =  ( GEOMETRIC_REPRESENTATION_CONTEXT( 3 )GLOBAL_UNCERTAINTY_ASSIGNED_CONTEXT( ( #32 ) )GLOBAL_UNIT_ASSIGNED_CONTEXT( ( #34, #35, #36 ) )REPRESENTATION_CONTEXT( 'NONE', 'WORKSPACE' ) );
#10 = STYLED_ITEM( '', ( #38 ), #39 );
#11 = STYLED_ITEM( '', ( #40 ), #41 );
#12 = STYLED_ITEM( '', ( #42 ), #43 );
#13 = STYLED_ITEM( '', ( #44 ), #45 );
#14 = STYLED_ITEM( '', ( #46 ), #47 );
#15 = STYLED_ITEM( '', ( #48 ), #49 );
#16 = STYLED_ITEM( '', ( #50 ), #51 );
#17 = STYLED_ITEM( '', ( #52 ), #53 );
#18 = STYLED_ITEM( '', ( #54 ), #55 );
#19 = STYLED_ITEM( '', ( #56 ), #57 );
#20 = STYLED_ITEM( '', ( #58 ), #59 );
#21 = STYLED_ITEM( '', ( #60 ), #61 );
#22 = STYLED_ITEM( '', ( #62 ), #63 );
#23 = STYLED_ITEM( '', ( #64 ), #65 );
#24 = STYLED_ITEM( '', ( #66 ), #67 );
#25 = APPLICATION_CONTEXT( 'core data for automotive mechanical design processes' );
#26 = PRODUCT_CATEGORY( 'part', 'NONE' );
#27 = PRODUCT_RELATED_PRODUCT_CATEGORY( 'detail', ' ', ( #68 ) );
#28 = PRODUCT_DEFINITION_SHAPE( 'NONE', 'NONE', #69 );
#29 = ADVANCED_BREP_SHAPE_REPRESENTATION( '1', ( #70, #71 ), #6 );
#32 = UNCERTAINTY_MEASURE_WITH_UNIT( LENGTH_MEASURE( 0.00100000000000000 ), #34, '', '' );
#34 =  ( CONVERSION_BASED_UNIT( 'MILLIMETRE', #74 )LENGTH_UNIT(  )NAMED_UNIT( #77 ) );
#35 =  ( NAMED_UNIT( #79 )PLANE_ANGLE_UNIT(  )SI_UNIT( $, .RADIAN. ) );
#36 =  ( NAMED_UNIT( #79 )SI_UNIT( $, .STERADIAN. )SOLID_ANGLE_UNIT(  ) );
#38 = PRESENTATION_STYLE_ASSIGNMENT( ( #85 ) );
#39 = ADVANCED_FACE( '', ( #86 ), #87, .F. );
#40 = PRESENTATION_STYLE_ASSIGNMENT( ( #88 ) );
#41 = ADVANCED_FACE( '', ( #89 ), #90, .F. );
#42 = PRESENTATION_STYLE_ASSIGNMENT( ( #91 ) );
#43 = ADVANCED_FACE( '', ( #92, #93 ), #94, .T. );
#44 = PRESENTATION_STYLE_ASSIGNMENT( ( #95 ) );
#45 = ADVANCED_FACE( '', ( #96, #97 ), #98, .T. );
#46 = PRESENTATION_STYLE_ASSIGNMENT( ( #99 ) );
#47 = ADVANCED_FACE( '', ( #100 ), #101, .F. );
#48 = PRESENTATION_STYLE_ASSIGNMENT( ( #102 ) );
#49 = ADVANCED_FACE( '', ( #103, #104 ), #105, .T. );
#50 = PRESENTATION_STYLE_ASSIGNMENT( ( #106 ) );
#51 = ADVANCED_FACE( '', ( #107 ), #108, .F. );
#52 = PRESENTATION_STYLE_ASSIGNMENT( ( #109 ) );
#53 = ADVANCED_FACE( '', ( #110, #111 ), #112, .F. );
#54 = PRESENTATION_STYLE_ASSIGNMENT( ( #113 ) );
#55 = ADVANCED_FACE( '', ( #114 ), #115, .F. );
#56 = PRESENTATION_STYLE_ASSIGNMENT( ( #116 ) );
#57 = ADVANCED_FACE( '', ( #117, #118 ), #119, .F. );
#58 = PRESENTATION_STYLE_ASSIGNMENT( ( #120 ) );
#59 = ADVANCED_FACE( '', ( #121, #122 ), #123, .F. );
#60 = PRESENTATION_STYLE_ASSIGNMENT( ( #124 ) );
#61 = ADVANCED_FACE( '', ( #125, #126 ), #127, .F. );
#62 = PRESENTATION_STYLE_ASSIGNMENT( ( #128 ) );
#63 = ADVANCED_FACE( '', ( #129, #130 ), #131, .F. );
#64 = PRESENTATION_STYLE_ASSIGNMENT( ( #132 ) );
#65 = ADVANCED_FACE( '', ( #133 ), #134, .F. );
#66 = PRESENTATION_STYLE_ASSIGNMENT( ( #135 ) );
#67 = ADVANCED_FACE( '', ( #136, #137 ), #138, .T. );
#68 = PRODUCT( '1', '1', 'PART-1-DESC', ( #139 ) );
#69 = PRODUCT_DEFINITION( 'NONE', 'NONE', #140, #2 );
#70 = MANIFOLD_SOLID_BREP( '1', #141 );
#71 = AXIS2_PLACEMENT_3D( '', #142, #143, #144 );
#74 = LENGTH_MEASURE_WITH_UNIT( LENGTH_MEASURE( 1.00000000000000 ), #145 );
#77 = DIMENSIONAL_EXPONENTS( 1.00000000000000, 0.000000000000000, 0.000000000000000, 0.000000000000000, 0.000000000000000, 0.000000000000000, 0.000000000000000 );
#79 = DIMENSIONAL_EXPONENTS( 0.000000000000000, 0.000000000000000, 0.000000000000000, 0.000000000000000, 0.000000000000000, 0.000000000000000, 0.000000000000000 );
#85 = SURFACE_STYLE_USAGE( .BOTH., #146 );
#86 = FACE_OUTER_BOUND( '', #147, .T. );
#87 = PLANE( '', #148 );
#88 = SURFACE_STYLE_USAGE( .BOTH., #149 );
#89 = FACE_OUTER_BOUND( '', #150, .T. );
#90 = PLANE( '', #151 );
#91 = SURFACE_STYLE_USAGE( .BOTH., #152 );
#92 = FACE_BOUND( '', #153, .T. );
#93 = FACE_OUTER_BOUND( '', #154, .T. );
#94 = CONICAL_SURFACE( '', #155, 16.7005000000000, 0.0312413936106985 );
#95 = SURFACE_STYLE_USAGE( .BOTH., #156 );
#96 = FACE_BOUND( '', #157, .T. );
#97 = FACE_OUTER_BOUND( '', #158, .T. );
#98 = PLANE( '', #159 );
#99 = SURFACE_STYLE_USAGE( .BOTH., #160 );
#100 = FACE_OUTER_BOUND( '', #161, .T. );
#101 = PLANE( '', #162 );
#102 = SURFACE_STYLE_USAGE( .BOTH., #163 );
#103 = FACE_OUTER_BOUND( '', #164, .T. );
#104 = FACE_BOUND( '', #165, .T. );
#105 = PLANE( '', #166 );
#106 = SURFACE_STYLE_USAGE( .BOTH., #167 );
#107 = FACE_OUTER_BOUND( '', #168, .T. );
#108 = PLANE( '', #169 );
#109 = SURFACE_STYLE_USAGE( .BOTH., #170 );
#110 = FACE_OUTER_BOUND( '', #171, .T. );
#111 = FACE_OUTER_BOUND( '', #172, .T. );
#112 = CYLINDRICAL_SURFACE( '', #173, 13.0000000000000 );
#113 = SURFACE_STYLE_USAGE( .BOTH., #174 );
#114 = FACE_OUTER_BOUND( '', #175, .T. );
#115 = PLANE( '', #176 );
#116 = SURFACE_STYLE_USAGE( .BOTH., #177 );
#117 = FACE_BOUND( '', #178, .T. );
#118 = FACE_OUTER_BOUND( '', #179, .T. );
#119 = PLANE( '', #180 );
#120 = SURFACE_STYLE_USAGE( .BOTH., #181 );
#121 = FACE_OUTER_BOUND( '', #182, .T. );
#122 = FACE_BOUND( '', #183, .T. );
#123 = CONICAL_SURFACE( '', #184, 12.5000000000000, 0.785398163397448 );
#124 = SURFACE_STYLE_USAGE( .BOTH., #185 );
#125 = FACE_BOUND( '', #186, .T. );
#126 = FACE_OUTER_BOUND( '', #187, .T. );
#127 = PLANE( '', #188 );
#128 = SURFACE_STYLE_USAGE( .BOTH., #189 );
#129 = FACE_OUTER_BOUND( '', #190, .T. );
#130 = FACE_OUTER_BOUND( '', #191, .T. );
#131 = CYLINDRICAL_SURFACE( '', #192, 12.5000000000000 );
#132 = SURFACE_STYLE_USAGE( .BOTH., #193 );
#133 = FACE_OUTER_BOUND( '', #194, .T. );
#134 = PLANE( '', #195 );
#135 = SURFACE_STYLE_USAGE( .BOTH., #196 );
#136 = FACE_OUTER_BOUND( '', #197, .T. );
#137 = FACE_OUTER_BOUND( '', #198, .T. );
#138 = CYLINDRICAL_SURFACE( '', #199, 14.0000000000000 );
#139 = PRODUCT_CONTEXT( '', #25, 'mechanical' );
#140 = PRODUCT_DEFINITION_FORMATION_WITH_SPECIFIED_SOURCE( ' ', 'NONE', #68, .NOT_KNOWN. );
#141 = CLOSED_SHELL( '', ( #55, #45, #39, #57, #43, #51, #61, #47, #41, #59, #67, #63, #53, #65, #49 ) );
#142 = CARTESIAN_POINT( '', ( 0.000000000000000, 0.000000000000000, 0.000000000000000 ) );
#143 = DIRECTION( '', ( 0.000000000000000, 0.000000000000000, 1.00000000000000 ) );
#144 = DIRECTION( '', ( 1.00000000000000, 0.000000000000000, 0.000000000000000 ) );
#145 =  ( LENGTH_UNIT(  )NAMED_UNIT( #77 )SI_UNIT( .MILLI., .METRE. ) );
#146 = SURFACE_SIDE_STYLE( '', ( #201 ) );
#147 = EDGE_LOOP( '', ( #202, #203, #204, #205 ) );
#148 = AXIS2_PLACEMENT_3D( '', #206, #207, #208 );
#149 = SURFACE_SIDE_STYLE( '', ( #209 ) );
#150 = EDGE_LOOP( '', ( #210, #211, #212, #213 ) );
#151 = AXIS2_PLACEMENT_3D( '', #214, #215, #216 );
#152 = SURFACE_SIDE_STYLE( '', ( #217 ) );
#153 = EDGE_LOOP( '', ( #218 ) );
#154 = EDGE_LOOP( '', ( #219 ) );
#155 = AXIS2_PLACEMENT_3D( '', #220, #221, #222 );
#156 = SURFACE_SIDE_STYLE( '', ( #223 ) );
#157 = EDGE_LOOP( '', ( #224 ) );
#158 = EDGE_LOOP( '', ( #225, #226, #227, #228, #229, #230 ) );
#159 = AXIS2_PLACEMENT_3D( '', #231, #232, #233 );
#160 = SURFACE_SIDE_STYLE( '', ( #234 ) );
#161 = EDGE_LOOP( '', ( #235, #236, #237, #238 ) );
#162 = AXIS2_PLACEMENT_3D( '', #239, #240, #241 );
#163 = SURFACE_SIDE_STYLE( '', ( #242 ) );
#164 = EDGE_LOOP( '', ( #243 ) );
#165 = EDGE_LOOP( '', ( #244 ) );
#166 = AXIS2_PLACEMENT_3D( '', #245, #246, #247 );
#167 = SURFACE_SIDE_STYLE( '', ( #248 ) );
#168 = EDGE_LOOP( '', ( #249, #250, #251, #252 ) );
#169 = AXIS2_PLACEMENT_3D( '', #253, #254, #255 );
#170 = SURFACE_SIDE_STYLE( '', ( #256 ) );
#171 = EDGE_LOOP( '', ( #257 ) );
#172 = EDGE_LOOP( '', ( #258 ) );
#173 = AXIS2_PLACEMENT_3D( '', #259, #260, #261 );
#174 = SURFACE_SIDE_STYLE( '', ( #262 ) );
#175 = EDGE_LOOP( '', ( #263, #264, #265, #266 ) );
#176 = AXIS2_PLACEMENT_3D( '', #267, #268, #269 );
#177 = SURFACE_SIDE_STYLE( '', ( #270 ) );
#178 = EDGE_LOOP( '', ( #271 ) );
#179 = EDGE_LOOP( '', ( #272, #273, #274, #275, #276, #277 ) );
#180 = AXIS2_PLACEMENT_3D( '', #278, #279, #280 );
#181 = SURFACE_SIDE_STYLE( '', ( #281 ) );
#182 = EDGE_LOOP( '', ( #282 ) );
#183 = EDGE_LOOP( '', ( #283 ) );
#184 = AXIS2_PLACEMENT_3D( '', #284, #285, #286 );
#185 = SURFACE_SIDE_STYLE( '', ( #287 ) );
#186 = EDGE_LOOP( '', ( #288 ) );
#187 = EDGE_LOOP( '', ( #289 ) );
#188 = AXIS2_PLACEMENT_3D( '', #290, #291, #292 );
#189 = SURFACE_SIDE_STYLE( '', ( #293 ) );
#190 = EDGE_LOOP( '', ( #294 ) );
#191 = EDGE_LOOP( '', ( #295 ) );
#192 = AXIS2_PLACEMENT_3D( '', #296, #297, #298 );
#193 = SURFACE_SIDE_STYLE( '', ( #299 ) );
#194 = EDGE_LOOP( '', ( #300, #301, #302, #303 ) );
#195 = AXIS2_PLACEMENT_3D( '', #304, #305, #306 );
#196 = SURFACE_SIDE_STYLE( '', ( #307 ) );
#197 = EDGE_LOOP( '', ( #308 ) );
#198 = EDGE_LOOP( '', ( #309 ) );
#199 = AXIS2_PLACEMENT_3D( '', #310, #311, #312 );
#201 = SURFACE_STYLE_FILL_AREA( #313 );
#202 = ORIENTED_EDGE( '', *, *, #314, .F. );
#203 = ORIENTED_EDGE( '', *, *, #315, .T. );
#204 = ORIENTED_EDGE( '', *, *, #316, .T. );
#205 = ORIENTED_EDGE( '', *, *, #317, .F. );
#206 = CARTESIAN_POINT( '', ( -20.7846096908265, 8.00000000000000, 5.89805981832114E-014 ) );
#207 = DIRECTION( '', ( 0.866025403784438, 0.000000000000000, -0.500000000000001 ) );
#208 = DIRECTION( '', ( -0.500000000000001, 0.000000000000000, -0.866025403784438 ) );
#209 = SURFACE_STYLE_FILL_AREA( #318 );
#210 = ORIENTED_EDGE( '', *, *, #319, .F. );
#211 = ORIENTED_EDGE( '', *, *, #317, .T. );
#212 = ORIENTED_EDGE( '', *, *, #320, .T. );
#213 = ORIENTED_EDGE( '', *, *, #321, .F. );
#214 = CARTESIAN_POINT( '', ( -10.3923048454132, 8.00000000000000, 18.0000000000000 ) );
#215 = DIRECTION( '', ( -1.83616228734542E-015, 0.000000000000000, -1.00000000000000 ) );
#216 = DIRECTION( '', ( -1.00000000000000, 0.000000000000000, 1.83616228734542E-015 ) );
#217 = SURFACE_STYLE_FILL_AREA( #322 );
#218 = ORIENTED_EDGE( '', *, *, #323, .F. );
#219 = ORIENTED_EDGE( '', *, *, #324, .T. );
#220 = CARTESIAN_POINT( '', ( 9.10729824887824E-015, 8.00000000000000, 1.73472347597680E-014 ) );
#221 = DIRECTION( '', ( 0.000000000000000, -1.00000000000000, -0.000000000000000 ) );
#222 = DIRECTION( '', ( 0.000000000000000, 0.000000000000000, -1.00000000000000 ) );
#223 = SURFACE_STYLE_FILL_AREA( #325 );
#224 = ORIENTED_EDGE( '', *, *, #324, .F. );
#225 = ORIENTED_EDGE( '', *, *, #319, .T. );
#226 = ORIENTED_EDGE( '', *, *, #326, .T. );
#227 = ORIENTED_EDGE( '', *, *, #327, .T. );
#228 = ORIENTED_EDGE( '', *, *, #328, .T. );
#229 = ORIENTED_EDGE( '', *, *, #329, .T. );
#230 = ORIENTED_EDGE( '', *, *, #314, .T. );
#231 = CARTESIAN_POINT( '', ( 0.000000000000000, 8.00000000000000, 0.000000000000000 ) );
#232 = DIRECTION( '', ( 0.000000000000000, 1.00000000000000, 0.000000000000000 ) );
#233 = DIRECTION( '', ( 0.000000000000000, 0.000000000000000, 1.00000000000000 ) );
#234 = SURFACE_STYLE_FILL_AREA( #330 );
#235 = ORIENTED_EDGE( '', *, *, #327, .F. );
#236 = ORIENTED_EDGE( '', *, *, #331, .T. );
#237 = ORIENTED_EDGE( '', *, *, #332, .T. );
#238 = ORIENTED_EDGE( '', *, *, #333, .F. );
#239 = CARTESIAN_POINT( '', ( 20.7846096908265, 8.00000000000000, -3.46944695195362E-015 ) );
#240 = DIRECTION( '', ( -0.866025403784438, 0.000000000000000, 0.500000000000000 ) );
#241 = DIRECTION( '', ( 0.500000000000000, 0.000000000000000, 0.866025403784438 ) );
#242 = SURFACE_STYLE_FILL_AREA( #334 );
#243 = ORIENTED_EDGE( '', *, *, #335, .T. );
#244 = ORIENTED_EDGE( '', *, *, #336, .T. );
#245 = CARTESIAN_POINT( '', ( 0.000000000000000, -43.0000000000000, 0.000000000000000 ) );
#246 = DIRECTION( '', ( 0.000000000000000, -1.00000000000000, 0.000000000000000 ) );
#247 = DIRECTION( '', ( 0.000000000000000, 0.000000000000000, -1.00000000000000 ) );
#248 = SURFACE_STYLE_FILL_AREA( #337 );
#249 = ORIENTED_EDGE( '', *, *, #328, .F. );
#250 = ORIENTED_EDGE( '', *, *, #333, .T. );
#251 = ORIENTED_EDGE( '', *, *, #338, .T. );
#252 = ORIENTED_EDGE( '', *, *, #339, .F. );
#253 = CARTESIAN_POINT( '', ( 10.3923048454132, 8.00000000000000, -18.0000000000000 ) );
#254 = DIRECTION( '', ( 1.83616228734542E-015, 0.000000000000000, 1.00000000000000 ) );
#255 = DIRECTION( '', ( 1.00000000000000, 0.000000000000000, -1.83616228734542E-015 ) );
#256 = SURFACE_STYLE_FILL_AREA( #340 );
#257 = ORIENTED_EDGE( '', *, *, #341, .T. );
#258 = ORIENTED_EDGE( '', *, *, #342, .F. );
#259 = CARTESIAN_POINT( '', ( 0.000000000000000, 5.00000000000000, 0.000000000000000 ) );
#260 = DIRECTION( '', ( -0.000000000000000, -1.00000000000000, -0.000000000000000 ) );
#261 = DIRECTION( '', ( 0.000000000000000, 0.000000000000000, 1.00000000000000 ) );
#262 = SURFACE_STYLE_FILL_AREA( #343 );
#263 = ORIENTED_EDGE( '', *, *, #329, .F. );
#264 = ORIENTED_EDGE( '', *, *, #339, .T. );
#265 = ORIENTED_EDGE( '', *, *, #344, .T. );
#266 = ORIENTED_EDGE( '', *, *, #315, .F. );
#267 = CARTESIAN_POINT( '', ( -10.3923048454133, 8.00000000000000, -18.0000000000000 ) );
#268 = DIRECTION( '', ( 0.866025403784439, 0.000000000000000, 0.500000000000000 ) );
#269 = DIRECTION( '', ( 0.499999999999999, 0.000000000000000, -0.866025403784439 ) );
#270 = SURFACE_STYLE_FILL_AREA( #345 );
#271 = ORIENTED_EDGE( '', *, *, #346, .F. );
#272 = ORIENTED_EDGE( '', *, *, #347, .F. );
#273 = ORIENTED_EDGE( '', *, *, #320, .F. );
#274 = ORIENTED_EDGE( '', *, *, #316, .F. );
#275 = ORIENTED_EDGE( '', *, *, #344, .F. );
#276 = ORIENTED_EDGE( '', *, *, #338, .F. );
#277 = ORIENTED_EDGE( '', *, *, #332, .F. );
#278 = CARTESIAN_POINT( '', ( 0.000000000000000, 0.000000000000000, 0.000000000000000 ) );
#279 = DIRECTION( '', ( 0.000000000000000, 1.00000000000000, 0.000000000000000 ) );
#280 = DIRECTION( '', ( 0.000000000000000, 0.000000000000000, 1.00000000000000 ) );
#281 = SURFACE_STYLE_FILL_AREA( #348 );
#282 = ORIENTED_EDGE( '', *, *, #341, .F. );
#283 = ORIENTED_EDGE( '', *, *, #349, .F. );
#284 = CARTESIAN_POINT( '', ( 0.000000000000000, 4.50000000000000, 0.000000000000000 ) );
#285 = DIRECTION( '', ( -0.000000000000000, 1.00000000000000, -0.000000000000000 ) );
#286 = DIRECTION( '', ( 0.000000000000000, 0.000000000000000, 1.00000000000000 ) );
#287 = SURFACE_STYLE_FILL_AREA( #350 );
#288 = ORIENTED_EDGE( '', *, *, #342, .T. );
#289 = ORIENTED_EDGE( '', *, *, #323, .T. );
#290 = CARTESIAN_POINT( '', ( 9.10729824887824E-015, 28.0000000000000, 1.73472347597680E-014 ) );
#291 = DIRECTION( '', ( 0.000000000000000, -1.00000000000000, 0.000000000000000 ) );
#292 = DIRECTION( '', ( 0.000000000000000, 0.000000000000000, -1.00000000000000 ) );
#293 = SURFACE_STYLE_FILL_AREA( #351 );
#294 = ORIENTED_EDGE( '', *, *, #349, .T. );
#295 = ORIENTED_EDGE( '', *, *, #336, .F. );
#296 = CARTESIAN_POINT( '', ( 0.000000000000000, 53.3705575988802, 0.000000000000000 ) );
#297 = DIRECTION( '', ( -0.000000000000000, 1.00000000000000, -0.000000000000000 ) );
#298 = DIRECTION( '', ( 0.000000000000000, 0.000000000000000, -1.00000000000000 ) );
#299 = SURFACE_STYLE_FILL_AREA( #352 );
#300 = ORIENTED_EDGE( '', *, *, #326, .F. );
#301 = ORIENTED_EDGE( '', *, *, #321, .T. );
#302 = ORIENTED_EDGE( '', *, *, #347, .T. );
#303 = ORIENTED_EDGE( '', *, *, #331, .F. );
#304 = CARTESIAN_POINT( '', ( 10.3923048454133, 8.00000000000000, 18.0000000000000 ) );
#305 = DIRECTION( '', ( -0.866025403784439, 0.000000000000000, -0.500000000000000 ) );
#306 = DIRECTION( '', ( -0.500000000000000, 0.000000000000000, 0.866025403784439 ) );
#307 = SURFACE_STYLE_FILL_AREA( #353 );
#308 = ORIENTED_EDGE( '', *, *, #335, .F. );
#309 = ORIENTED_EDGE( '', *, *, #346, .T. );
#310 = CARTESIAN_POINT( '', ( 0.000000000000000, -43.0000000000000, 0.000000000000000 ) );
#311 = DIRECTION( '', ( -0.000000000000000, -1.00000000000000, -0.000000000000000 ) );
#312 = DIRECTION( '', ( 0.000000000000000, 0.000000000000000, 1.00000000000000 ) );
#313 = FILL_AREA_STYLE( '', ( #354 ) );
#314 = EDGE_CURVE( '', #355, #356, #357, .T. );
#315 = EDGE_CURVE( '', #355, #358, #359, .T. );
#316 = EDGE_CURVE( '', #358, #360, #361, .T. );
#317 = EDGE_CURVE( '', #356, #360, #362, .T. );
#318 = FILL_AREA_STYLE( '', ( #363 ) );
#319 = EDGE_CURVE( '', #356, #364, #365, .T. );
#320 = EDGE_CURVE( '', #360, #366, #367, .T. );
#321 = EDGE_CURVE( '', #364, #366, #368, .T. );
#322 = FILL_AREA_STYLE( '', ( #369 ) );
#323 = EDGE_CURVE( '', #370, #370, #371, .F. );
#324 = EDGE_CURVE( '', #372, #372, #373, .T. );
#325 = FILL_AREA_STYLE( '', ( #374 ) );
#326 = EDGE_CURVE( '', #364, #375, #376, .T. );
#327 = EDGE_CURVE( '', #375, #377, #378, .T. );
#328 = EDGE_CURVE( '', #377, #379, #380, .T. );
#329 = EDGE_CURVE( '', #379, #355, #381, .T. );
#330 = FILL_AREA_STYLE( '', ( #382 ) );
#331 = EDGE_CURVE( '', #375, #383, #384, .T. );
#332 = EDGE_CURVE( '', #383, #385, #386, .T. );
#333 = EDGE_CURVE( '', #377, #385, #387, .T. );
#334 = FILL_AREA_STYLE( '', ( #388 ) );
#335 = EDGE_CURVE( '', #389, #389, #390, .T. );
#336 = EDGE_CURVE( '', #391, #391, #392, .T. );
#337 = FILL_AREA_STYLE( '', ( #393 ) );
#338 = EDGE_CURVE( '', #385, #394, #395, .T. );
#339 = EDGE_CURVE( '', #379, #394, #396, .T. );
#340 = FILL_AREA_STYLE( '', ( #397 ) );
#341 = EDGE_CURVE( '', #398, #398, #399, .T. );
#342 = EDGE_CURVE( '', #400, #400, #401, .T. );
#343 = FILL_AREA_STYLE( '', ( #402 ) );
#344 = EDGE_CURVE( '', #394, #358, #403, .T. );
#345 = FILL_AREA_STYLE( '', ( #404 ) );
#346 = EDGE_CURVE( '', #405, #405, #406, .T. );
#347 = EDGE_CURVE( '', #366, #383, #407, .T. );
#348 = FILL_AREA_STYLE( '', ( #408 ) );
#349 = EDGE_CURVE( '', #409, #409, #410, .F. );
#350 = FILL_AREA_STYLE( '', ( #411 ) );
#351 = FILL_AREA_STYLE( '', ( #412 ) );
#352 = FILL_AREA_STYLE( '', ( #413 ) );
#353 = FILL_AREA_STYLE( '', ( #414 ) );
#354 = FILL_AREA_STYLE_COLOUR( '', #415 );
#355 = VERTEX_POINT( '', #416 );
#356 = VERTEX_POINT( '', #417 );
#357 = LINE( '', #418, #419 );
#358 = VERTEX_POINT( '', #420 );
#359 = LINE( '', #421, #422 );
#360 = VERTEX_POINT( '', #423 );
#361 = LINE( '', #424, #425 );
#362 = LINE( '', #426, #427 );
#363 = FILL_AREA_STYLE_COLOUR( '', #428 );
#364 = VERTEX_POINT( '', #429 );
#365 = LINE( '', #430, #431 );
#366 = VERTEX_POINT( '', #432 );
#367 = LINE( '', #433, #434 );
#368 = LINE( '', #435, #436 );
#369 = FILL_AREA_STYLE_COLOUR( '', #437 );
#370 = VERTEX_POINT( '', #438 );
#371 = CIRCLE( '', #439, 16.0754687659176 );
#372 = VERTEX_POINT( '', #440 );
#373 = CIRCLE( '', #441, 16.7005000000000 );
#374 = FILL_AREA_STYLE_COLOUR( '', #442 );
#375 = VERTEX_POINT( '', #443 );
#376 = LINE( '', #444, #445 );
#377 = VERTEX_POINT( '', #446 );
#378 = LINE( '', #447, #448 );
#379 = VERTEX_POINT( '', #449 );
#380 = LINE( '', #450, #451 );
#381 = LINE( '', #452, #453 );
#382 = FILL_AREA_STYLE_COLOUR( '', #454 );
#383 = VERTEX_POINT( '', #455 );
#384 = LINE( '', #456, #457 );
#385 = VERTEX_POINT( '', #458 );
#386 = LINE( '', #459, #460 );
#387 = LINE( '', #461, #462 );
#388 = FILL_AREA_STYLE_COLOUR( '', #463 );
#389 = VERTEX_POINT( '', #464 );
#390 = CIRCLE( '', #465, 14.0000000000000 );
#391 = VERTEX_POINT( '', #466 );
#392 = CIRCLE( '', #467, 12.5000000000000 );
#393 = FILL_AREA_STYLE_COLOUR( '', #468 );
#394 = VERTEX_POINT( '', #469 );
#395 = LINE( '', #470, #471 );
#396 = LINE( '', #472, #473 );
#397 = FILL_AREA_STYLE_COLOUR( '', #474 );
#398 = VERTEX_POINT( '', #475 );
#399 = CIRCLE( '', #476, 13.0000000000000 );
#400 = VERTEX_POINT( '', #477 );
#401 = CIRCLE( '', #478, 13.0000000000000 );
#402 = FILL_AREA_STYLE_COLOUR( '', #479 );
#403 = LINE( '', #480, #481 );
#404 = FILL_AREA_STYLE_COLOUR( '', #482 );
#405 = VERTEX_POINT( '', #483 );
#406 = CIRCLE( '', #484, 14.0000000000000 );
#407 = LINE( '', #485, #486 );
#408 = FILL_AREA_STYLE_COLOUR( '', #487 );
#409 = VERTEX_POINT( '', #488 );
#410 = CIRCLE( '', #489, 12.5000000000000 );
#411 = FILL_AREA_STYLE_COLOUR( '', #490 );
#412 = FILL_AREA_STYLE_COLOUR( '', #491 );
#413 = FILL_AREA_STYLE_COLOUR( '', #492 );
#414 = FILL_AREA_STYLE_COLOUR( '', #493 );
#415 = COLOUR_RGB( '', 0.898039221763611, 0.000000000000000, 0.000000000000000 );
#416 = CARTESIAN_POINT( '', ( -20.7846096908265, 8.00000000000000, 7.11236625150491E-014 ) );
#417 = CARTESIAN_POINT( '', ( -10.3923048454132, 8.00000000000000, 18.0000000000000 ) );
#418 = CARTESIAN_POINT( '', ( -20.7846096908265, 8.00000000000000, 5.89805981832114E-014 ) );
#419 = VECTOR( '', #494, 999.999999999999 );
#420 = CARTESIAN_POINT( '', ( -20.7846096908265, 0.000000000000000, 6.20163642661709E-014 ) );
#421 = CARTESIAN_POINT( '', ( -20.7846096908265, 8.00000000000000, 5.89805981832114E-014 ) );
#422 = VECTOR( '', #495, 1000.00000000000 );
#423 = CARTESIAN_POINT( '', ( -10.3923048454132, 0.000000000000000, 18.0000000000000 ) );
#424 = CARTESIAN_POINT( '', ( -20.7846096908265, 0.000000000000000, 5.89805981832114E-014 ) );
#425 = VECTOR( '', #496, 999.999999999999 );
#426 = CARTESIAN_POINT( '', ( -10.3923048454132, 8.00000000000000, 18.0000000000000 ) );
#427 = VECTOR( '', #497, 1000.00000000000 );
#428 = COLOUR_RGB( '', 0.898039221763611, 0.000000000000000, 0.000000000000000 );
#429 = CARTESIAN_POINT( '', ( 10.3923048454133, 8.00000000000000, 18.0000000000000 ) );
#430 = CARTESIAN_POINT( '', ( -10.3923048454132, 8.00000000000000, 18.0000000000000 ) );
#431 = VECTOR( '', #498, 1000.00000000000 );
#432 = CARTESIAN_POINT( '', ( 10.3923048454133, 0.000000000000000, 18.0000000000000 ) );
#433 = CARTESIAN_POINT( '', ( -10.3923048454132, 0.000000000000000, 18.0000000000000 ) );
#434 = VECTOR( '', #499, 1000.00000000000 );
#435 = CARTESIAN_POINT( '', ( 10.3923048454133, 8.00000000000000, 18.0000000000000 ) );
#436 = VECTOR( '', #500, 1000.00000000000 );
#437 = COLOUR_RGB( '', 0.396078437566757, 0.941176474094391, 0.450980395078659 );
#438 = CARTESIAN_POINT( '', ( 9.10729824887824E-015, 28.0000000000000, -16.0754687659176 ) );
#439 = AXIS2_PLACEMENT_3D( '', #501, #502, #503 );
#440 = CARTESIAN_POINT( '', ( 9.10729824887824E-015, 8.00000000000000, 16.7005000000000 ) );
#441 = AXIS2_PLACEMENT_3D( '', #504, #505, #506 );
#442 = COLOUR_RGB( '', 0.898039221763611, 0.000000000000000, 0.000000000000000 );
#443 = CARTESIAN_POINT( '', ( 20.7846096908265, 8.00000000000000, -6.93889390390723E-015 ) );
#444 = CARTESIAN_POINT( '', ( 10.3923048454133, 8.00000000000000, 18.0000000000000 ) );
#445 = VECTOR( '', #507, 1000.00000000000 );
#446 = CARTESIAN_POINT( '', ( 10.3923048454132, 8.00000000000000, -18.0000000000000 ) );
#447 = CARTESIAN_POINT( '', ( 20.7846096908265, 8.00000000000000, -3.46944695195362E-015 ) );
#448 = VECTOR( '', #508, 999.999999999999 );
#449 = CARTESIAN_POINT( '', ( -10.3923048454133, 8.00000000000000, -18.0000000000000 ) );
#450 = CARTESIAN_POINT( '', ( 10.3923048454132, 8.00000000000000, -18.0000000000000 ) );
#451 = VECTOR( '', #509, 1000.00000000000 );
#452 = CARTESIAN_POINT( '', ( -10.3923048454133, 8.00000000000000, -18.0000000000000 ) );
#453 = VECTOR( '', #510, 1000.00000000000 );
#454 = COLOUR_RGB( '', 0.898039221763611, 0.000000000000000, 0.000000000000000 );
#455 = CARTESIAN_POINT( '', ( 20.7846096908265, 0.000000000000000, -3.46944695195362E-015 ) );
#456 = CARTESIAN_POINT( '', ( 20.7846096908265, 8.00000000000000, -3.46944695195362E-015 ) );
#457 = VECTOR( '', #511, 1000.00000000000 );
#458 = CARTESIAN_POINT( '', ( 10.3923048454132, 0.000000000000000, -18.0000000000000 ) );
#459 = CARTESIAN_POINT( '', ( 20.7846096908265, 0.000000000000000, -3.46944695195362E-015 ) );
#460 = VECTOR( '', #512, 999.999999999999 );
#461 = CARTESIAN_POINT( '', ( 10.3923048454132, 8.00000000000000, -18.0000000000000 ) );
#462 = VECTOR( '', #513, 1000.00000000000 );
#463 = COLOUR_RGB( '', 0.898039221763611, 0.000000000000000, 0.000000000000000 );
#464 = CARTESIAN_POINT( '', ( 0.000000000000000, -43.0000000000000, -14.0000000000000 ) );
#465 = AXIS2_PLACEMENT_3D( '', #514, #515, #516 );
#466 = CARTESIAN_POINT( '', ( 0.000000000000000, -43.0000000000000, -12.5000000000000 ) );
#467 = AXIS2_PLACEMENT_3D( '', #517, #518, #519 );
#468 = COLOUR_RGB( '', 0.898039221763611, 0.000000000000000, 0.000000000000000 );
#469 = CARTESIAN_POINT( '', ( -10.3923048454133, 0.000000000000000, -18.0000000000000 ) );
#470 = CARTESIAN_POINT( '', ( 10.3923048454132, 0.000000000000000, -18.0000000000000 ) );
#471 = VECTOR( '', #520, 1000.00000000000 );
#472 = CARTESIAN_POINT( '', ( -10.3923048454133, 8.00000000000000, -18.0000000000000 ) );
#473 = VECTOR( '', #521, 1000.00000000000 );
#474 = COLOUR_RGB( '', 0.898039221763611, 0.000000000000000, 0.000000000000000 );
#475 = CARTESIAN_POINT( '', ( -13.0000000000000, 5.00000000000000, 0.000000000000000 ) );
#476 = AXIS2_PLACEMENT_3D( '', #522, #523, #524 );
#477 = CARTESIAN_POINT( '', ( -13.0000000000000, 28.0000000000000, 0.000000000000000 ) );
#478 = AXIS2_PLACEMENT_3D( '', #525, #526, #527 );
#479 = COLOUR_RGB( '', 0.898039221763611, 0.000000000000000, 0.000000000000000 );
#480 = CARTESIAN_POINT( '', ( -10.3923048454133, 0.000000000000000, -18.0000000000000 ) );
#481 = VECTOR( '', #528, 1000.00000000000 );
#482 = COLOUR_RGB( '', 0.898039221763611, 0.000000000000000, 0.000000000000000 );
#483 = CARTESIAN_POINT( '', ( 14.0000000000000, 0.000000000000000, 0.000000000000000 ) );
#484 = AXIS2_PLACEMENT_3D( '', #529, #530, #531 );
#485 = CARTESIAN_POINT( '', ( 10.3923048454133, 0.000000000000000, 18.0000000000000 ) );
#486 = VECTOR( '', #532, 1000.00000000000 );
#487 = COLOUR_RGB( '', 0.898039221763611, 0.000000000000000, 0.000000000000000 );
#488 = CARTESIAN_POINT( '', ( 0.000000000000000, 4.50000000000000, -12.5000000000000 ) );
#489 = AXIS2_PLACEMENT_3D( '', #533, #534, #535 );
#490 = COLOUR_RGB( '', 0.898039221763611, 0.000000000000000, 0.000000000000000 );
#491 = COLOUR_RGB( '', 0.898039221763611, 0.000000000000000, 0.000000000000000 );
#492 = COLOUR_RGB( '', 0.898039221763611, 0.000000000000000, 0.000000000000000 );
#493 = COLOUR_RGB( '', 0.898039221763611, 0.000000000000000, 0.000000000000000 );
#494 = DIRECTION( '', ( 0.500000000000001, 0.000000000000000, 0.866025403784438 ) );
#495 = DIRECTION( '', ( 0.000000000000000, -1.00000000000000, 0.000000000000000 ) );
#496 = DIRECTION( '', ( 0.500000000000001, 0.000000000000000, 0.866025403784438 ) );
#497 = DIRECTION( '', ( 0.000000000000000, -1.00000000000000, 0.000000000000000 ) );
#498 = DIRECTION( '', ( 1.00000000000000, 0.000000000000000, -1.83616228734542E-015 ) );
#499 = DIRECTION( '', ( 1.00000000000000, 0.000000000000000, -1.83616228734542E-015 ) );
#500 = DIRECTION( '', ( 0.000000000000000, -1.00000000000000, 0.000000000000000 ) );
#501 = CARTESIAN_POINT( '', ( 9.10729824887824E-015, 28.0000000000000, 1.73472347597680E-014 ) );
#502 = DIRECTION( '', ( 0.000000000000000, -1.00000000000000, 0.000000000000000 ) );
#503 = DIRECTION( '', ( 0.000000000000000, 0.000000000000000, -1.00000000000000 ) );
#504 = CARTESIAN_POINT( '', ( 9.10729824887824E-015, 8.00000000000000, 1.73472347597680E-014 ) );
#505 = DIRECTION( '', ( 0.000000000000000, 1.00000000000000, 0.000000000000000 ) );
#506 = DIRECTION( '', ( 0.000000000000000, 0.000000000000000, 1.00000000000000 ) );
#507 = DIRECTION( '', ( 0.500000000000000, 0.000000000000000, -0.866025403784439 ) );
#508 = DIRECTION( '', ( -0.500000000000000, 0.000000000000000, -0.866025403784438 ) );
#509 = DIRECTION( '', ( -1.00000000000000, 0.000000000000000, 1.83616228734542E-015 ) );
#510 = DIRECTION( '', ( -0.499999999999999, 0.000000000000000, 0.866025403784439 ) );
#511 = DIRECTION( '', ( 0.000000000000000, -1.00000000000000, 0.000000000000000 ) );
#512 = DIRECTION( '', ( -0.500000000000000, 0.000000000000000, -0.866025403784438 ) );
#513 = DIRECTION( '', ( 0.000000000000000, -1.00000000000000, 0.000000000000000 ) );
#514 = CARTESIAN_POINT( '', ( 0.000000000000000, -43.0000000000000, 0.000000000000000 ) );
#515 = DIRECTION( '', ( 0.000000000000000, -1.00000000000000, 0.000000000000000 ) );
#516 = DIRECTION( '', ( 0.000000000000000, 0.000000000000000, -1.00000000000000 ) );
#517 = CARTESIAN_POINT( '', ( 0.000000000000000, -43.0000000000000, 0.000000000000000 ) );
#518 = DIRECTION( '', ( 0.000000000000000, 1.00000000000000, 0.000000000000000 ) );
#519 = DIRECTION( '', ( 0.000000000000000, 0.000000000000000, -1.00000000000000 ) );
#520 = DIRECTION( '', ( -1.00000000000000, 0.000000000000000, 1.83616228734542E-015 ) );
#521 = DIRECTION( '', ( 0.000000000000000, -1.00000000000000, 0.000000000000000 ) );
#522 = CARTESIAN_POINT( '', ( 0.000000000000000, 5.00000000000000, 0.000000000000000 ) );
#523 = DIRECTION( '', ( 2.30138578496298E-016, -1.00000000000000, 0.000000000000000 ) );
#524 = DIRECTION( '', ( -1.00000000000000, -2.30138578496298E-016, 0.000000000000000 ) );
#525 = CARTESIAN_POINT( '', ( 0.000000000000000, 28.0000000000000, 0.000000000000000 ) );
#526 = DIRECTION( '', ( 2.30138578496298E-016, -1.00000000000000, 0.000000000000000 ) );
#527 = DIRECTION( '', ( -1.00000000000000, -2.30138578496298E-016, 0.000000000000000 ) );
#528 = DIRECTION( '', ( -0.499999999999999, 0.000000000000000, 0.866025403784439 ) );
#529 = CARTESIAN_POINT( '', ( 0.000000000000000, 0.000000000000000, 0.000000000000000 ) );
#530 = DIRECTION( '', ( 0.000000000000000, -1.00000000000000, 0.000000000000000 ) );
#531 = DIRECTION( '', ( 1.00000000000000, 0.000000000000000, 0.000000000000000 ) );
#532 = DIRECTION( '', ( 0.500000000000000, 0.000000000000000, -0.866025403784439 ) );
#533 = CARTESIAN_POINT( '', ( 0.000000000000000, 4.50000000000000, 0.000000000000000 ) );
#534 = DIRECTION( '', ( 0.000000000000000, -1.00000000000000, 0.000000000000000 ) );
#535 = DIRECTION( '', ( 0.000000000000000, 0.000000000000000, -1.00000000000000 ) );
ENDSEC;
END-ISO-10303-21;
