ISO-10303-21;
HEADER;
/* Generated by software containing ST-Developer
 * from STEP Tools, Inc. (www.steptools.com) 
 */
/* OPTION: strings as raw bytes, not using required /X/ escapes */

FILE_DESCRIPTION(
/* description */ ('Unknown'),
/* implementation_level */ '2;1');

FILE_NAME(
/* name */ 'F27R11-4DN35',
/* time_stamp */ '2019-10-24T11:03:27+02:00',
/* author */ ('Unknown'),
/* organization */ ('Unknown'),
/* preprocessor_version */ 'ST-DEVELOPER v16.7',
/* originating_system */ 'DEX',
/* authorisation */ $);

FILE_SCHEMA (('AUTOMOTIVE_DESIGN {1 0 10303 214 3 1 1}'));
ENDSEC;

DATA;
#10=PROPERTY_DEFINITION_REPRESENTATION(#14,#12);
#11=PROPERTY_DEFINITION_REPRESENTATION(#15,#13);
#12=REPRESENTATION('',(#16),#504);
#13=REPRESENTATION('',(#17),#504);
#14=PROPERTY_DEFINITION('pmi validation property','',#509);
#15=PROPERTY_DEFINITION('pmi validation property','',#509);
#16=VALUE_REPRESENTATION_ITEM('number of annotations',COUNT_MEASURE(0.));
#17=VALUE_REPRESENTATION_ITEM('number of views',COUNT_MEASURE(0.));
#18=SHAPE_REPRESENTATION_RELATIONSHIP('','',#350,#19);
#19=ADVANCED_BREP_SHAPE_REPRESENTATION('',(#348),#504);
#20=CONICAL_SURFACE('',#369,21.082,0.0312413936106985);
#21=CONICAL_SURFACE('',#374,16.,0.785398163397448);
#22=CYLINDRICAL_SURFACE('',#368,17.5);
#23=CYLINDRICAL_SURFACE('',#370,17.);
#24=CYLINDRICAL_SURFACE('',#372,16.);
#25=LINE('',#453,#43);
#26=LINE('',#456,#44);
#27=LINE('',#458,#45);
#28=LINE('',#460,#46);
#29=LINE('',#462,#47);
#30=LINE('',#464,#48);
#31=LINE('',#466,#49);
#32=LINE('',#468,#50);
#33=LINE('',#470,#51);
#34=LINE('',#472,#52);
#35=LINE('',#474,#53);
#36=LINE('',#476,#54);
#37=LINE('',#478,#55);
#38=LINE('',#480,#56);
#39=LINE('',#482,#57);
#40=LINE('',#484,#58);
#41=LINE('',#486,#59);
#42=LINE('',#487,#60);
#43=VECTOR('',#391,1000.);
#44=VECTOR('',#392,1000.);
#45=VECTOR('',#393,1000.);
#46=VECTOR('',#394,1000.);
#47=VECTOR('',#397,1000.);
#48=VECTOR('',#398,1000.);
#49=VECTOR('',#399,1000.);
#50=VECTOR('',#402,1000.);
#51=VECTOR('',#403,1000.);
#52=VECTOR('',#404,1000.);
#53=VECTOR('',#407,1000.);
#54=VECTOR('',#408,1000.);
#55=VECTOR('',#409,1000.);
#56=VECTOR('',#412,1000.);
#57=VECTOR('',#413,1000.);
#58=VECTOR('',#414,1000.);
#59=VECTOR('',#417,1000.);
#60=VECTOR('',#418,1000.);
#61=ORIENTED_EDGE('',*,*,#113,.F.);
#62=ORIENTED_EDGE('',*,*,#114,.T.);
#63=ORIENTED_EDGE('',*,*,#115,.T.);
#64=ORIENTED_EDGE('',*,*,#116,.T.);
#65=ORIENTED_EDGE('',*,*,#117,.F.);
#66=ORIENTED_EDGE('',*,*,#118,.F.);
#67=ORIENTED_EDGE('',*,*,#119,.T.);
#68=ORIENTED_EDGE('',*,*,#120,.T.);
#69=ORIENTED_EDGE('',*,*,#121,.F.);
#70=ORIENTED_EDGE('',*,*,#120,.F.);
#71=ORIENTED_EDGE('',*,*,#122,.T.);
#72=ORIENTED_EDGE('',*,*,#123,.T.);
#73=ORIENTED_EDGE('',*,*,#124,.F.);
#74=ORIENTED_EDGE('',*,*,#123,.F.);
#75=ORIENTED_EDGE('',*,*,#125,.T.);
#76=ORIENTED_EDGE('',*,*,#126,.T.);
#77=ORIENTED_EDGE('',*,*,#127,.F.);
#78=ORIENTED_EDGE('',*,*,#126,.F.);
#79=ORIENTED_EDGE('',*,*,#128,.T.);
#80=ORIENTED_EDGE('',*,*,#129,.T.);
#81=ORIENTED_EDGE('',*,*,#130,.F.);
#82=ORIENTED_EDGE('',*,*,#129,.F.);
#83=ORIENTED_EDGE('',*,*,#131,.T.);
#84=ORIENTED_EDGE('',*,*,#132,.T.);
#85=ORIENTED_EDGE('',*,*,#133,.F.);
#86=ORIENTED_EDGE('',*,*,#132,.F.);
#87=ORIENTED_EDGE('',*,*,#134,.T.);
#88=ORIENTED_EDGE('',*,*,#118,.T.);
#89=ORIENTED_EDGE('',*,*,#135,.T.);
#90=ORIENTED_EDGE('',*,*,#134,.F.);
#91=ORIENTED_EDGE('',*,*,#131,.F.);
#92=ORIENTED_EDGE('',*,*,#128,.F.);
#93=ORIENTED_EDGE('',*,*,#125,.F.);
#94=ORIENTED_EDGE('',*,*,#122,.F.);
#95=ORIENTED_EDGE('',*,*,#119,.F.);
#96=ORIENTED_EDGE('',*,*,#130,.T.);
#97=ORIENTED_EDGE('',*,*,#133,.T.);
#98=ORIENTED_EDGE('',*,*,#117,.T.);
#99=ORIENTED_EDGE('',*,*,#121,.T.);
#100=ORIENTED_EDGE('',*,*,#124,.T.);
#101=ORIENTED_EDGE('',*,*,#127,.T.);
#102=ORIENTED_EDGE('',*,*,#136,.F.);
#103=ORIENTED_EDGE('',*,*,#113,.T.);
#104=ORIENTED_EDGE('',*,*,#135,.F.);
#105=ORIENTED_EDGE('',*,*,#116,.F.);
#106=ORIENTED_EDGE('',*,*,#136,.T.);
#107=ORIENTED_EDGE('',*,*,#115,.F.);
#108=ORIENTED_EDGE('',*,*,#137,.T.);
#109=ORIENTED_EDGE('',*,*,#138,.T.);
#110=ORIENTED_EDGE('',*,*,#114,.F.);
#111=ORIENTED_EDGE('',*,*,#137,.F.);
#112=ORIENTED_EDGE('',*,*,#138,.F.);
#113=EDGE_CURVE('',#139,#139,#159,.T.);
#114=EDGE_CURVE('',#140,#140,#160,.T.);
#115=EDGE_CURVE('',#141,#141,#161,.T.);
#116=EDGE_CURVE('',#142,#142,#162,.F.);
#117=EDGE_CURVE('',#143,#144,#25,.T.);
#118=EDGE_CURVE('',#145,#143,#26,.T.);
#119=EDGE_CURVE('',#145,#146,#27,.T.);
#120=EDGE_CURVE('',#146,#144,#28,.T.);
#121=EDGE_CURVE('',#144,#147,#29,.T.);
#122=EDGE_CURVE('',#146,#148,#30,.T.);
#123=EDGE_CURVE('',#148,#147,#31,.T.);
#124=EDGE_CURVE('',#147,#149,#32,.T.);
#125=EDGE_CURVE('',#148,#150,#33,.T.);
#126=EDGE_CURVE('',#150,#149,#34,.T.);
#127=EDGE_CURVE('',#149,#151,#35,.T.);
#128=EDGE_CURVE('',#150,#152,#36,.T.);
#129=EDGE_CURVE('',#152,#151,#37,.T.);
#130=EDGE_CURVE('',#151,#153,#38,.T.);
#131=EDGE_CURVE('',#152,#154,#39,.T.);
#132=EDGE_CURVE('',#154,#153,#40,.T.);
#133=EDGE_CURVE('',#153,#143,#41,.T.);
#134=EDGE_CURVE('',#154,#145,#42,.T.);
#135=EDGE_CURVE('',#155,#155,#163,.T.);
#136=EDGE_CURVE('',#156,#156,#164,.T.);
#137=EDGE_CURVE('',#157,#157,#165,.F.);
#138=EDGE_CURVE('',#158,#158,#166,.T.);
#139=VERTEX_POINT('',#444);
#140=VERTEX_POINT('',#446);
#141=VERTEX_POINT('',#449);
#142=VERTEX_POINT('',#451);
#143=VERTEX_POINT('',#454);
#144=VERTEX_POINT('',#455);
#145=VERTEX_POINT('',#457);
#146=VERTEX_POINT('',#459);
#147=VERTEX_POINT('',#463);
#148=VERTEX_POINT('',#465);
#149=VERTEX_POINT('',#469);
#150=VERTEX_POINT('',#471);
#151=VERTEX_POINT('',#475);
#152=VERTEX_POINT('',#477);
#153=VERTEX_POINT('',#481);
#154=VERTEX_POINT('',#483);
#155=VERTEX_POINT('',#490);
#156=VERTEX_POINT('',#493);
#157=VERTEX_POINT('',#498);
#158=VERTEX_POINT('',#501);
#159=CIRCLE('',#353,17.5);
#160=CIRCLE('',#354,16.);
#161=CIRCLE('',#356,17.);
#162=CIRCLE('',#357,20.2814631205434);
#163=CIRCLE('',#365,17.5);
#164=CIRCLE('',#367,20.9689974780341);
#165=CIRCLE('',#371,17.);
#166=CIRCLE('',#373,16.);
#167=EDGE_LOOP('',(#61));
#168=EDGE_LOOP('',(#62));
#169=EDGE_LOOP('',(#63));
#170=EDGE_LOOP('',(#64));
#171=EDGE_LOOP('',(#65,#66,#67,#68));
#172=EDGE_LOOP('',(#69,#70,#71,#72));
#173=EDGE_LOOP('',(#73,#74,#75,#76));
#174=EDGE_LOOP('',(#77,#78,#79,#80));
#175=EDGE_LOOP('',(#81,#82,#83,#84));
#176=EDGE_LOOP('',(#85,#86,#87,#88));
#177=EDGE_LOOP('',(#89));
#178=EDGE_LOOP('',(#90,#91,#92,#93,#94,#95));
#179=EDGE_LOOP('',(#96,#97,#98,#99,#100,#101));
#180=EDGE_LOOP('',(#102));
#181=EDGE_LOOP('',(#103));
#182=EDGE_LOOP('',(#104));
#183=EDGE_LOOP('',(#105));
#184=EDGE_LOOP('',(#106));
#185=EDGE_LOOP('',(#107));
#186=EDGE_LOOP('',(#108));
#187=EDGE_LOOP('',(#109));
#188=EDGE_LOOP('',(#110));
#189=EDGE_LOOP('',(#111));
#190=EDGE_LOOP('',(#112));
#191=FACE_BOUND('',#167,.T.);
#192=FACE_BOUND('',#168,.T.);
#193=FACE_BOUND('',#169,.T.);
#194=FACE_BOUND('',#170,.T.);
#195=FACE_BOUND('',#171,.T.);
#196=FACE_BOUND('',#172,.T.);
#197=FACE_BOUND('',#173,.T.);
#198=FACE_BOUND('',#174,.T.);
#199=FACE_BOUND('',#175,.T.);
#200=FACE_BOUND('',#176,.T.);
#201=FACE_BOUND('',#177,.T.);
#202=FACE_BOUND('',#178,.T.);
#203=FACE_BOUND('',#179,.T.);
#204=FACE_BOUND('',#180,.T.);
#205=FACE_BOUND('',#181,.T.);
#206=FACE_BOUND('',#182,.T.);
#207=FACE_BOUND('',#183,.T.);
#208=FACE_BOUND('',#184,.T.);
#209=FACE_BOUND('',#185,.T.);
#210=FACE_BOUND('',#186,.T.);
#211=FACE_BOUND('',#187,.T.);
#212=FACE_BOUND('',#188,.T.);
#213=FACE_BOUND('',#189,.T.);
#214=FACE_BOUND('',#190,.T.);
#215=PLANE('',#352);
#216=PLANE('',#355);
#217=PLANE('',#358);
#218=PLANE('',#359);
#219=PLANE('',#360);
#220=PLANE('',#361);
#221=PLANE('',#362);
#222=PLANE('',#363);
#223=PLANE('',#364);
#224=PLANE('',#366);
#225=STYLED_ITEM('',(#240),#332);
#226=STYLED_ITEM('',(#241),#333);
#227=STYLED_ITEM('',(#242),#334);
#228=STYLED_ITEM('',(#243),#335);
#229=STYLED_ITEM('',(#244),#336);
#230=STYLED_ITEM('',(#245),#337);
#231=STYLED_ITEM('',(#246),#338);
#232=STYLED_ITEM('',(#247),#339);
#233=STYLED_ITEM('',(#248),#340);
#234=STYLED_ITEM('',(#249),#341);
#235=STYLED_ITEM('',(#250),#342);
#236=STYLED_ITEM('',(#251),#343);
#237=STYLED_ITEM('',(#252),#344);
#238=STYLED_ITEM('',(#253),#345);
#239=STYLED_ITEM('',(#254),#346);
#240=PRESENTATION_STYLE_ASSIGNMENT((#255));
#241=PRESENTATION_STYLE_ASSIGNMENT((#256));
#242=PRESENTATION_STYLE_ASSIGNMENT((#257));
#243=PRESENTATION_STYLE_ASSIGNMENT((#258));
#244=PRESENTATION_STYLE_ASSIGNMENT((#259));
#245=PRESENTATION_STYLE_ASSIGNMENT((#260));
#246=PRESENTATION_STYLE_ASSIGNMENT((#261));
#247=PRESENTATION_STYLE_ASSIGNMENT((#262));
#248=PRESENTATION_STYLE_ASSIGNMENT((#263));
#249=PRESENTATION_STYLE_ASSIGNMENT((#264));
#250=PRESENTATION_STYLE_ASSIGNMENT((#265));
#251=PRESENTATION_STYLE_ASSIGNMENT((#266));
#252=PRESENTATION_STYLE_ASSIGNMENT((#267));
#253=PRESENTATION_STYLE_ASSIGNMENT((#268));
#254=PRESENTATION_STYLE_ASSIGNMENT((#269));
#255=SURFACE_STYLE_USAGE(.BOTH.,#270);
#256=SURFACE_STYLE_USAGE(.BOTH.,#271);
#257=SURFACE_STYLE_USAGE(.BOTH.,#272);
#258=SURFACE_STYLE_USAGE(.BOTH.,#273);
#259=SURFACE_STYLE_USAGE(.BOTH.,#274);
#260=SURFACE_STYLE_USAGE(.BOTH.,#275);
#261=SURFACE_STYLE_USAGE(.BOTH.,#276);
#262=SURFACE_STYLE_USAGE(.BOTH.,#277);
#263=SURFACE_STYLE_USAGE(.BOTH.,#278);
#264=SURFACE_STYLE_USAGE(.BOTH.,#279);
#265=SURFACE_STYLE_USAGE(.BOTH.,#280);
#266=SURFACE_STYLE_USAGE(.BOTH.,#281);
#267=SURFACE_STYLE_USAGE(.BOTH.,#282);
#268=SURFACE_STYLE_USAGE(.BOTH.,#283);
#269=SURFACE_STYLE_USAGE(.BOTH.,#284);
#270=SURFACE_SIDE_STYLE('',(#285));
#271=SURFACE_SIDE_STYLE('',(#286));
#272=SURFACE_SIDE_STYLE('',(#287));
#273=SURFACE_SIDE_STYLE('',(#288));
#274=SURFACE_SIDE_STYLE('',(#289));
#275=SURFACE_SIDE_STYLE('',(#290));
#276=SURFACE_SIDE_STYLE('',(#291));
#277=SURFACE_SIDE_STYLE('',(#292));
#278=SURFACE_SIDE_STYLE('',(#293));
#279=SURFACE_SIDE_STYLE('',(#294));
#280=SURFACE_SIDE_STYLE('',(#295));
#281=SURFACE_SIDE_STYLE('',(#296));
#282=SURFACE_SIDE_STYLE('',(#297));
#283=SURFACE_SIDE_STYLE('',(#298));
#284=SURFACE_SIDE_STYLE('',(#299));
#285=SURFACE_STYLE_FILL_AREA(#300);
#286=SURFACE_STYLE_FILL_AREA(#301);
#287=SURFACE_STYLE_FILL_AREA(#302);
#288=SURFACE_STYLE_FILL_AREA(#303);
#289=SURFACE_STYLE_FILL_AREA(#304);
#290=SURFACE_STYLE_FILL_AREA(#305);
#291=SURFACE_STYLE_FILL_AREA(#306);
#292=SURFACE_STYLE_FILL_AREA(#307);
#293=SURFACE_STYLE_FILL_AREA(#308);
#294=SURFACE_STYLE_FILL_AREA(#309);
#295=SURFACE_STYLE_FILL_AREA(#310);
#296=SURFACE_STYLE_FILL_AREA(#311);
#297=SURFACE_STYLE_FILL_AREA(#312);
#298=SURFACE_STYLE_FILL_AREA(#313);
#299=SURFACE_STYLE_FILL_AREA(#314);
#300=FILL_AREA_STYLE('',(#315));
#301=FILL_AREA_STYLE('',(#316));
#302=FILL_AREA_STYLE('',(#317));
#303=FILL_AREA_STYLE('',(#318));
#304=FILL_AREA_STYLE('',(#319));
#305=FILL_AREA_STYLE('',(#320));
#306=FILL_AREA_STYLE('',(#321));
#307=FILL_AREA_STYLE('',(#322));
#308=FILL_AREA_STYLE('',(#323));
#309=FILL_AREA_STYLE('',(#324));
#310=FILL_AREA_STYLE('',(#325));
#311=FILL_AREA_STYLE('',(#326));
#312=FILL_AREA_STYLE('',(#327));
#313=FILL_AREA_STYLE('',(#328));
#314=FILL_AREA_STYLE('',(#329));
#315=FILL_AREA_STYLE_COLOUR('',#330);
#316=FILL_AREA_STYLE_COLOUR('',#330);
#317=FILL_AREA_STYLE_COLOUR('',#330);
#318=FILL_AREA_STYLE_COLOUR('',#330);
#319=FILL_AREA_STYLE_COLOUR('',#330);
#320=FILL_AREA_STYLE_COLOUR('',#330);
#321=FILL_AREA_STYLE_COLOUR('',#330);
#322=FILL_AREA_STYLE_COLOUR('',#330);
#323=FILL_AREA_STYLE_COLOUR('',#330);
#324=FILL_AREA_STYLE_COLOUR('',#330);
#325=FILL_AREA_STYLE_COLOUR('',#330);
#326=FILL_AREA_STYLE_COLOUR('',#331);
#327=FILL_AREA_STYLE_COLOUR('',#330);
#328=FILL_AREA_STYLE_COLOUR('',#330);
#329=FILL_AREA_STYLE_COLOUR('',#330);
#330=COLOUR_RGB('',1.,0.5,0.);
#331=COLOUR_RGB('',0.396078497171402,0.941176474094391,0.450980395078659);
#332=ADVANCED_FACE('',(#191,#192),#215,.F.);
#333=ADVANCED_FACE('',(#193,#194),#216,.F.);
#334=ADVANCED_FACE('',(#195),#217,.T.);
#335=ADVANCED_FACE('',(#196),#218,.T.);
#336=ADVANCED_FACE('',(#197),#219,.T.);
#337=ADVANCED_FACE('',(#198),#220,.T.);
#338=ADVANCED_FACE('',(#199),#221,.T.);
#339=ADVANCED_FACE('',(#200),#222,.T.);
#340=ADVANCED_FACE('',(#201,#202),#223,.F.);
#341=ADVANCED_FACE('',(#203,#204),#224,.T.);
#342=ADVANCED_FACE('',(#205,#206),#22,.T.);
#343=ADVANCED_FACE('',(#207,#208),#20,.T.);
#344=ADVANCED_FACE('',(#209,#210),#23,.F.);
#345=ADVANCED_FACE('',(#211,#212),#24,.F.);
#346=ADVANCED_FACE('',(#213,#214),#21,.F.);
#347=CLOSED_SHELL('',(#332,#333,#334,#335,#336,#337,#338,#339,#340,#341,
#342,#343,#344,#345,#346));
#348=MANIFOLD_SOLID_BREP('',#347);
#349=SHAPE_DEFINITION_REPRESENTATION(#509,#350);
#350=SHAPE_REPRESENTATION('F27R11-4DN35',(#351),#504);
#351=AXIS2_PLACEMENT_3D('',#441,#375,#376);
#352=AXIS2_PLACEMENT_3D('',#442,#377,#378);
#353=AXIS2_PLACEMENT_3D('',#443,#379,#380);
#354=AXIS2_PLACEMENT_3D('',#445,#381,#382);
#355=AXIS2_PLACEMENT_3D('',#447,#383,#384);
#356=AXIS2_PLACEMENT_3D('',#448,#385,#386);
#357=AXIS2_PLACEMENT_3D('',#450,#387,#388);
#358=AXIS2_PLACEMENT_3D('',#452,#389,#390);
#359=AXIS2_PLACEMENT_3D('',#461,#395,#396);
#360=AXIS2_PLACEMENT_3D('',#467,#400,#401);
#361=AXIS2_PLACEMENT_3D('',#473,#405,#406);
#362=AXIS2_PLACEMENT_3D('',#479,#410,#411);
#363=AXIS2_PLACEMENT_3D('',#485,#415,#416);
#364=AXIS2_PLACEMENT_3D('',#488,#419,#420);
#365=AXIS2_PLACEMENT_3D('',#489,#421,#422);
#366=AXIS2_PLACEMENT_3D('',#491,#423,#424);
#367=AXIS2_PLACEMENT_3D('',#492,#425,#426);
#368=AXIS2_PLACEMENT_3D('',#494,#427,#428);
#369=AXIS2_PLACEMENT_3D('',#495,#429,#430);
#370=AXIS2_PLACEMENT_3D('',#496,#431,#432);
#371=AXIS2_PLACEMENT_3D('',#497,#433,#434);
#372=AXIS2_PLACEMENT_3D('',#499,#435,#436);
#373=AXIS2_PLACEMENT_3D('',#500,#437,#438);
#374=AXIS2_PLACEMENT_3D('',#502,#439,#440);
#375=DIRECTION('',(0.,0.,1.));
#376=DIRECTION('',(1.,0.,0.));
#377=DIRECTION('',(0.,-1.,0.));
#378=DIRECTION('',(0.,0.,-1.));
#379=DIRECTION('',(0.,-1.,0.));
#380=DIRECTION('',(0.,0.,-1.));
#381=DIRECTION('',(9.91270557701033E-17,-1.,0.));
#382=DIRECTION('',(-1.,-9.91270557701033E-17,0.));
#383=DIRECTION('',(0.,1.,0.));
#384=DIRECTION('',(0.,0.,1.));
#385=DIRECTION('',(0.,1.,0.));
#386=DIRECTION('',(0.,0.,1.));
#387=DIRECTION('',(0.,1.,0.));
#388=DIRECTION('',(0.,0.,1.));
#389=DIRECTION('',(0.86602540378444,0.,-0.499999999999998));
#390=DIRECTION('',(-0.499999999999998,0.,-0.86602540378444));
#391=DIRECTION('',(0.499999999999998,0.,0.86602540378444));
#392=DIRECTION('',(0.,-1.,0.));
#393=DIRECTION('',(0.499999999999998,0.,0.86602540378444));
#394=DIRECTION('',(0.,-1.,0.));
#395=DIRECTION('',(0.866025403784437,0.,0.500000000000002));
#396=DIRECTION('',(0.500000000000002,0.,-0.866025403784437));
#397=DIRECTION('',(-0.500000000000002,0.,0.866025403784437));
#398=DIRECTION('',(-0.500000000000002,0.,0.866025403784437));
#399=DIRECTION('',(0.,-1.,0.));
#400=DIRECTION('',(-1.82890472889742E-15,0.,1.));
#401=DIRECTION('',(1.,0.,1.82890472889742E-15));
#402=DIRECTION('',(-1.,0.,-1.82890472889742E-15));
#403=DIRECTION('',(-1.,0.,-1.82890472889742E-15));
#404=DIRECTION('',(0.,-1.,0.));
#405=DIRECTION('',(-0.866025403784439,0.,0.5));
#406=DIRECTION('',(0.5,0.,0.866025403784439));
#407=DIRECTION('',(-0.5,0.,-0.866025403784439));
#408=DIRECTION('',(-0.5,0.,-0.866025403784439));
#409=DIRECTION('',(0.,-1.,0.));
#410=DIRECTION('',(-0.866025403784438,0.,-0.500000000000001));
#411=DIRECTION('',(-0.500000000000001,0.,0.866025403784438));
#412=DIRECTION('',(0.500000000000001,0.,-0.866025403784438));
#413=DIRECTION('',(0.500000000000001,0.,-0.866025403784438));
#414=DIRECTION('',(0.,-1.,0.));
#415=DIRECTION('',(1.56763262476921E-15,0.,-1.));
#416=DIRECTION('',(-1.,0.,-1.56763262476921E-15));
#417=DIRECTION('',(1.,0.,1.56763262476921E-15));
#418=DIRECTION('',(1.,0.,1.56763262476921E-15));
#419=DIRECTION('',(0.,-1.,0.));
#420=DIRECTION('',(0.,0.,-1.));
#421=DIRECTION('',(0.,-1.,0.));
#422=DIRECTION('',(0.,0.,-1.));
#423=DIRECTION('',(0.,-1.,0.));
#424=DIRECTION('',(0.,0.,-1.));
#425=DIRECTION('',(0.,-1.,0.));
#426=DIRECTION('',(0.,0.,-1.));
#427=DIRECTION('',(0.,-1.,0.));
#428=DIRECTION('',(0.,0.,-1.));
#429=DIRECTION('',(0.,1.,0.));
#430=DIRECTION('',(0.,0.,1.));
#431=DIRECTION('',(0.,-1.,0.));
#432=DIRECTION('',(0.,0.,-1.));
#433=DIRECTION('',(0.,-1.,0.));
#434=DIRECTION('',(0.,0.,-1.));
#435=DIRECTION('',(0.,1.,0.));
#436=DIRECTION('',(0.,0.,1.));
#437=DIRECTION('',(0.,-1.,0.));
#438=DIRECTION('',(0.,0.,-1.));
#439=DIRECTION('',(0.,-1.,0.));
#440=DIRECTION('',(0.,0.,-1.));
#441=CARTESIAN_POINT('',(0.,0.,0.));
#442=CARTESIAN_POINT('',(0.,55.,-3.08148791101958E-30));
#443=CARTESIAN_POINT('',(0.,55.,-3.08148791101958E-30));
#444=CARTESIAN_POINT('',(0.,55.,-17.5));
#445=CARTESIAN_POINT('',(0.,55.,0.));
#446=CARTESIAN_POINT('',(-16.,55.,0.));
#447=CARTESIAN_POINT('',(0.,-22.,0.));
#448=CARTESIAN_POINT('',(0.,-22.,-3.08148791101958E-30));
#449=CARTESIAN_POINT('',(0.,-22.,17.));
#450=CARTESIAN_POINT('',(0.,-22.,0.));
#451=CARTESIAN_POINT('',(0.,-22.,20.2814631205434));
#452=CARTESIAN_POINT('',(13.2790561913614,10.,-23.));
#453=CARTESIAN_POINT('',(13.2790561913614,0.,-23.));
#454=CARTESIAN_POINT('',(13.2790561913614,0.,-23.));
#455=CARTESIAN_POINT('',(26.5581123827228,0.,7.80625564189563E-14));
#456=CARTESIAN_POINT('',(13.2790561913614,10.,-23.));
#457=CARTESIAN_POINT('',(13.2790561913614,10.,-23.));
#458=CARTESIAN_POINT('',(13.2790561913614,10.,-23.));
#459=CARTESIAN_POINT('',(26.5581123827228,10.,7.63278329429795E-14));
#460=CARTESIAN_POINT('',(26.5581123827228,10.,7.63278329429795E-14));
#461=CARTESIAN_POINT('',(26.5581123827228,10.,7.63278329429795E-14));
#462=CARTESIAN_POINT('',(26.5581123827228,0.,7.63278329429795E-14));
#463=CARTESIAN_POINT('',(13.2790561913613,0.,23.));
#464=CARTESIAN_POINT('',(26.5581123827228,10.,7.63278329429795E-14));
#465=CARTESIAN_POINT('',(13.2790561913613,10.,23.));
#466=CARTESIAN_POINT('',(13.2790561913613,10.,23.));
#467=CARTESIAN_POINT('',(13.2790561913613,10.,23.));
#468=CARTESIAN_POINT('',(13.2790561913613,0.,23.));
#469=CARTESIAN_POINT('',(-13.2790561913614,0.,23.));
#470=CARTESIAN_POINT('',(13.2790561913613,10.,23.));
#471=CARTESIAN_POINT('',(-13.2790561913614,10.,23.));
#472=CARTESIAN_POINT('',(-13.2790561913614,10.,23.));
#473=CARTESIAN_POINT('',(-13.2790561913614,10.,23.));
#474=CARTESIAN_POINT('',(-13.2790561913614,0.,23.));
#475=CARTESIAN_POINT('',(-26.5581123827228,0.,-8.67361737988404E-16));
#476=CARTESIAN_POINT('',(-13.2790561913614,10.,23.));
#477=CARTESIAN_POINT('',(-26.5581123827228,10.,-4.33680868994203E-16));
#478=CARTESIAN_POINT('',(-26.5581123827228,10.,-3.46944695195361E-15));
#479=CARTESIAN_POINT('',(-26.5581123827228,10.,-3.46944695195361E-15));
#480=CARTESIAN_POINT('',(-26.5581123827228,0.,-3.46944695195361E-15));
#481=CARTESIAN_POINT('',(-13.2790561913614,0.,-23.));
#482=CARTESIAN_POINT('',(-26.5581123827228,10.,-3.46944695195361E-15));
#483=CARTESIAN_POINT('',(-13.2790561913614,10.,-23.));
#484=CARTESIAN_POINT('',(-13.2790561913614,10.,-23.));
#485=CARTESIAN_POINT('',(-13.2790561913614,10.,-23.));
#486=CARTESIAN_POINT('',(-13.2790561913614,0.,-23.));
#487=CARTESIAN_POINT('',(-13.2790561913614,10.,-23.));
#488=CARTESIAN_POINT('',(0.,10.,0.));
#489=CARTESIAN_POINT('',(0.,10.,-3.08148791101958E-30));
#490=CARTESIAN_POINT('',(0.,10.,-17.5));
#491=CARTESIAN_POINT('',(0.,0.,0.));
#492=CARTESIAN_POINT('',(0.,0.,0.));
#493=CARTESIAN_POINT('',(0.,0.,-20.9689974780341));
#494=CARTESIAN_POINT('',(0.,15.,-3.08148791101958E-30));
#495=CARTESIAN_POINT('',(0.,3.6159,0.));
#496=CARTESIAN_POINT('',(0.,-1.99999999999999,-3.08148791101958E-30));
#497=CARTESIAN_POINT('',(0.,8.90000000000001,0.));
#498=CARTESIAN_POINT('',(0.,8.90000000000001,-17.));
#499=CARTESIAN_POINT('',(0.,-26.4739743904823,0.));
#500=CARTESIAN_POINT('',(0.,9.90000000000001,0.));
#501=CARTESIAN_POINT('',(0.,9.90000000000001,-16.));
#502=CARTESIAN_POINT('',(0.,9.90000000000001,0.));
#503=MECHANICAL_DESIGN_GEOMETRIC_PRESENTATION_REPRESENTATION('',(#225,#226,
#227,#228,#229,#230,#231,#232,#233,#234,#235,#236,#237,#238,#239),#504);
#504=(
GEOMETRIC_REPRESENTATION_CONTEXT(3)
GLOBAL_UNCERTAINTY_ASSIGNED_CONTEXT((#505))
GLOBAL_UNIT_ASSIGNED_CONTEXT((#508,#507,#506))
REPRESENTATION_CONTEXT('F27R11-4DN35','TOP_LEVEL_ASSEMBLY_PART')
);
#505=UNCERTAINTY_MEASURE_WITH_UNIT(LENGTH_MEASURE(0.005),#508,
'DISTANCE_ACCURACY_VALUE','Maximum Tolerance applied to model');
#506=(
NAMED_UNIT(*)
SI_UNIT($,.STERADIAN.)
SOLID_ANGLE_UNIT()
);
#507=(
NAMED_UNIT(*)
PLANE_ANGLE_UNIT()
SI_UNIT($,.RADIAN.)
);
#508=(
LENGTH_UNIT()
NAMED_UNIT(*)
SI_UNIT(.MILLI.,.METRE.)
);
#509=PRODUCT_DEFINITION_SHAPE('','',#510);
#510=PRODUCT_DEFINITION('','',#512,#511);
#511=PRODUCT_DEFINITION_CONTEXT('',#518,'design');
#512=PRODUCT_DEFINITION_FORMATION_WITH_SPECIFIED_SOURCE('','',#514,
 .NOT_KNOWN.);
#513=PRODUCT_RELATED_PRODUCT_CATEGORY('','',(#514));
#514=PRODUCT('F27R11-4DN35','F27R11-4DN35','F27R11-4DN35',(#516));
#515=PRODUCT_CATEGORY('','');
#516=PRODUCT_CONTEXT('',#518,'mechanical');
#517=APPLICATION_PROTOCOL_DEFINITION('international standard',
'automotive_design',2010,#518);
#518=APPLICATION_CONTEXT(
'core data for automotive mechanical design processes');
ENDSEC;
END-ISO-10303-21;
