ISO-10303-21;
HEADER;
/* Generated by software containing ST-Developer
 * from STEP Tools, Inc. (www.steptools.com) 
 */
/* OPTION: strings as raw bytes, not using required /X/ escapes */

FILE_DESCRIPTION(
/* description */ ('Unknown'),
/* implementation_level */ '2;1');

FILE_NAME(
/* name */ 'F27R11-2DN42',
/* time_stamp */ '2019-10-24T11:03:07+02:00',
/* author */ ('Unknown'),
/* organization */ ('Unknown'),
/* preprocessor_version */ 'ST-DEVELOPER v16.7',
/* originating_system */ 'DEX',
/* authorisation */ $);

FILE_SCHEMA (('AUTOMOTIVE_DESIGN {1 0 10303 214 3 1 1}'));
ENDSEC;

DATA;
#10=PROPERTY_DEFINITION_REPRESENTATION(#14,#12);
#11=PROPERTY_DEFINITION_REPRESENTATION(#15,#13);
#12=REPRESENTATION('',(#16),#517);
#13=REPRESENTATION('',(#17),#517);
#14=PROPERTY_DEFINITION('pmi validation property','',#522);
#15=PROPERTY_DEFINITION('pmi validation property','',#522);
#16=VALUE_REPRESENTATION_ITEM('number of annotations',COUNT_MEASURE(0.));
#17=VALUE_REPRESENTATION_ITEM('number of views',COUNT_MEASURE(0.));
#18=SHAPE_REPRESENTATION_RELATIONSHIP('','',#359,#19);
#19=ADVANCED_BREP_SHAPE_REPRESENTATION('',(#357),#517);
#20=CYLINDRICAL_SURFACE('',#382,21.);
#21=CYLINDRICAL_SURFACE('',#383,19.5);
#22=CYLINDRICAL_SURFACE('',#384,20.5);
#23=CONICAL_SURFACE('',#381,24.13,0.0436332312998582);
#24=LINE('',#461,#42);
#25=LINE('',#464,#43);
#26=LINE('',#466,#44);
#27=LINE('',#468,#45);
#28=LINE('',#470,#46);
#29=LINE('',#472,#47);
#30=LINE('',#474,#48);
#31=LINE('',#476,#49);
#32=LINE('',#478,#50);
#33=LINE('',#480,#51);
#34=LINE('',#482,#52);
#35=LINE('',#484,#53);
#36=LINE('',#486,#54);
#37=LINE('',#488,#55);
#38=LINE('',#490,#56);
#39=LINE('',#492,#57);
#40=LINE('',#494,#58);
#41=LINE('',#495,#59);
#42=VECTOR('',#397,1000.);
#43=VECTOR('',#398,1000.);
#44=VECTOR('',#399,1000.);
#45=VECTOR('',#400,1000.);
#46=VECTOR('',#403,1000.);
#47=VECTOR('',#404,1000.);
#48=VECTOR('',#405,1000.);
#49=VECTOR('',#408,1000.);
#50=VECTOR('',#409,1000.);
#51=VECTOR('',#410,1000.);
#52=VECTOR('',#413,1000.);
#53=VECTOR('',#414,1000.);
#54=VECTOR('',#415,1000.);
#55=VECTOR('',#418,1000.);
#56=VECTOR('',#419,1000.);
#57=VECTOR('',#420,1000.);
#58=VECTOR('',#423,1000.);
#59=VECTOR('',#424,1000.);
#60=ORIENTED_EDGE('',*,*,#112,.F.);
#61=ORIENTED_EDGE('',*,*,#113,.F.);
#62=ORIENTED_EDGE('',*,*,#114,.F.);
#63=ORIENTED_EDGE('',*,*,#115,.F.);
#64=ORIENTED_EDGE('',*,*,#116,.T.);
#65=ORIENTED_EDGE('',*,*,#117,.T.);
#66=ORIENTED_EDGE('',*,*,#118,.F.);
#67=ORIENTED_EDGE('',*,*,#117,.F.);
#68=ORIENTED_EDGE('',*,*,#119,.T.);
#69=ORIENTED_EDGE('',*,*,#120,.T.);
#70=ORIENTED_EDGE('',*,*,#121,.F.);
#71=ORIENTED_EDGE('',*,*,#120,.F.);
#72=ORIENTED_EDGE('',*,*,#122,.T.);
#73=ORIENTED_EDGE('',*,*,#123,.T.);
#74=ORIENTED_EDGE('',*,*,#124,.F.);
#75=ORIENTED_EDGE('',*,*,#123,.F.);
#76=ORIENTED_EDGE('',*,*,#125,.T.);
#77=ORIENTED_EDGE('',*,*,#126,.T.);
#78=ORIENTED_EDGE('',*,*,#127,.F.);
#79=ORIENTED_EDGE('',*,*,#126,.F.);
#80=ORIENTED_EDGE('',*,*,#128,.T.);
#81=ORIENTED_EDGE('',*,*,#129,.T.);
#82=ORIENTED_EDGE('',*,*,#130,.F.);
#83=ORIENTED_EDGE('',*,*,#129,.F.);
#84=ORIENTED_EDGE('',*,*,#131,.T.);
#85=ORIENTED_EDGE('',*,*,#115,.T.);
#86=ORIENTED_EDGE('',*,*,#132,.T.);
#87=ORIENTED_EDGE('',*,*,#116,.F.);
#88=ORIENTED_EDGE('',*,*,#131,.F.);
#89=ORIENTED_EDGE('',*,*,#128,.F.);
#90=ORIENTED_EDGE('',*,*,#125,.F.);
#91=ORIENTED_EDGE('',*,*,#122,.F.);
#92=ORIENTED_EDGE('',*,*,#119,.F.);
#93=ORIENTED_EDGE('',*,*,#133,.T.);
#94=ORIENTED_EDGE('',*,*,#134,.T.);
#95=ORIENTED_EDGE('',*,*,#135,.F.);
#96=ORIENTED_EDGE('',*,*,#136,.T.);
#97=ORIENTED_EDGE('',*,*,#127,.T.);
#98=ORIENTED_EDGE('',*,*,#130,.T.);
#99=ORIENTED_EDGE('',*,*,#114,.T.);
#100=ORIENTED_EDGE('',*,*,#118,.T.);
#101=ORIENTED_EDGE('',*,*,#121,.T.);
#102=ORIENTED_EDGE('',*,*,#124,.T.);
#103=ORIENTED_EDGE('',*,*,#137,.F.);
#104=ORIENTED_EDGE('',*,*,#134,.F.);
#105=ORIENTED_EDGE('',*,*,#137,.T.);
#106=ORIENTED_EDGE('',*,*,#135,.T.);
#107=ORIENTED_EDGE('',*,*,#132,.F.);
#108=ORIENTED_EDGE('',*,*,#113,.T.);
#109=ORIENTED_EDGE('',*,*,#136,.F.);
#110=ORIENTED_EDGE('',*,*,#112,.T.);
#111=ORIENTED_EDGE('',*,*,#133,.F.);
#112=EDGE_CURVE('',#138,#138,#158,.F.);
#113=EDGE_CURVE('',#139,#139,#159,.T.);
#114=EDGE_CURVE('',#140,#141,#24,.T.);
#115=EDGE_CURVE('',#142,#140,#25,.T.);
#116=EDGE_CURVE('',#142,#143,#26,.T.);
#117=EDGE_CURVE('',#143,#141,#27,.T.);
#118=EDGE_CURVE('',#141,#144,#28,.T.);
#119=EDGE_CURVE('',#143,#145,#29,.T.);
#120=EDGE_CURVE('',#145,#144,#30,.T.);
#121=EDGE_CURVE('',#144,#146,#31,.T.);
#122=EDGE_CURVE('',#145,#147,#32,.T.);
#123=EDGE_CURVE('',#147,#146,#33,.T.);
#124=EDGE_CURVE('',#146,#148,#34,.T.);
#125=EDGE_CURVE('',#147,#149,#35,.T.);
#126=EDGE_CURVE('',#149,#148,#36,.T.);
#127=EDGE_CURVE('',#148,#150,#37,.T.);
#128=EDGE_CURVE('',#149,#151,#38,.T.);
#129=EDGE_CURVE('',#151,#150,#39,.T.);
#130=EDGE_CURVE('',#150,#140,#40,.T.);
#131=EDGE_CURVE('',#151,#142,#41,.T.);
#132=EDGE_CURVE('',#152,#152,#160,.T.);
#133=EDGE_CURVE('',#153,#153,#161,.T.);
#134=EDGE_CURVE('',#154,#154,#162,.F.);
#135=EDGE_CURVE('',#155,#155,#163,.T.);
#136=EDGE_CURVE('',#156,#156,#164,.T.);
#137=EDGE_CURVE('',#157,#157,#165,.T.);
#138=VERTEX_POINT('',#456);
#139=VERTEX_POINT('',#459);
#140=VERTEX_POINT('',#462);
#141=VERTEX_POINT('',#463);
#142=VERTEX_POINT('',#465);
#143=VERTEX_POINT('',#467);
#144=VERTEX_POINT('',#471);
#145=VERTEX_POINT('',#473);
#146=VERTEX_POINT('',#477);
#147=VERTEX_POINT('',#479);
#148=VERTEX_POINT('',#483);
#149=VERTEX_POINT('',#485);
#150=VERTEX_POINT('',#489);
#151=VERTEX_POINT('',#491);
#152=VERTEX_POINT('',#498);
#153=VERTEX_POINT('',#501);
#154=VERTEX_POINT('',#503);
#155=VERTEX_POINT('',#506);
#156=VERTEX_POINT('',#508);
#157=VERTEX_POINT('',#511);
#158=CIRCLE('',#362,20.5);
#159=CIRCLE('',#364,19.5);
#160=CIRCLE('',#372,21.);
#161=CIRCLE('',#374,20.5);
#162=CIRCLE('',#375,22.9930655537869);
#163=CIRCLE('',#377,21.);
#164=CIRCLE('',#378,19.5);
#165=CIRCLE('',#380,24.0845891264997);
#166=EDGE_LOOP('',(#60));
#167=EDGE_LOOP('',(#61));
#168=EDGE_LOOP('',(#62,#63,#64,#65));
#169=EDGE_LOOP('',(#66,#67,#68,#69));
#170=EDGE_LOOP('',(#70,#71,#72,#73));
#171=EDGE_LOOP('',(#74,#75,#76,#77));
#172=EDGE_LOOP('',(#78,#79,#80,#81));
#173=EDGE_LOOP('',(#82,#83,#84,#85));
#174=EDGE_LOOP('',(#86));
#175=EDGE_LOOP('',(#87,#88,#89,#90,#91,#92));
#176=EDGE_LOOP('',(#93));
#177=EDGE_LOOP('',(#94));
#178=EDGE_LOOP('',(#95));
#179=EDGE_LOOP('',(#96));
#180=EDGE_LOOP('',(#97,#98,#99,#100,#101,#102));
#181=EDGE_LOOP('',(#103));
#182=EDGE_LOOP('',(#104));
#183=EDGE_LOOP('',(#105));
#184=EDGE_LOOP('',(#106));
#185=EDGE_LOOP('',(#107));
#186=EDGE_LOOP('',(#108));
#187=EDGE_LOOP('',(#109));
#188=EDGE_LOOP('',(#110));
#189=EDGE_LOOP('',(#111));
#190=FACE_BOUND('',#166,.T.);
#191=FACE_BOUND('',#167,.T.);
#192=FACE_BOUND('',#168,.T.);
#193=FACE_BOUND('',#169,.T.);
#194=FACE_BOUND('',#170,.T.);
#195=FACE_BOUND('',#171,.T.);
#196=FACE_BOUND('',#172,.T.);
#197=FACE_BOUND('',#173,.T.);
#198=FACE_BOUND('',#174,.T.);
#199=FACE_BOUND('',#175,.T.);
#200=FACE_BOUND('',#176,.T.);
#201=FACE_BOUND('',#177,.T.);
#202=FACE_BOUND('',#178,.T.);
#203=FACE_BOUND('',#179,.T.);
#204=FACE_BOUND('',#180,.T.);
#205=FACE_BOUND('',#181,.T.);
#206=FACE_BOUND('',#182,.T.);
#207=FACE_BOUND('',#183,.T.);
#208=FACE_BOUND('',#184,.T.);
#209=FACE_BOUND('',#185,.T.);
#210=FACE_BOUND('',#186,.T.);
#211=FACE_BOUND('',#187,.T.);
#212=FACE_BOUND('',#188,.T.);
#213=FACE_BOUND('',#189,.T.);
#214=PLANE('',#361);
#215=PLANE('',#363);
#216=PLANE('',#365);
#217=PLANE('',#366);
#218=PLANE('',#367);
#219=PLANE('',#368);
#220=PLANE('',#369);
#221=PLANE('',#370);
#222=PLANE('',#371);
#223=PLANE('',#373);
#224=PLANE('',#376);
#225=PLANE('',#379);
#226=STYLED_ITEM('',(#242),#340);
#227=STYLED_ITEM('',(#243),#341);
#228=STYLED_ITEM('',(#244),#342);
#229=STYLED_ITEM('',(#245),#343);
#230=STYLED_ITEM('',(#246),#344);
#231=STYLED_ITEM('',(#247),#345);
#232=STYLED_ITEM('',(#248),#346);
#233=STYLED_ITEM('',(#249),#347);
#234=STYLED_ITEM('',(#250),#348);
#235=STYLED_ITEM('',(#251),#349);
#236=STYLED_ITEM('',(#252),#350);
#237=STYLED_ITEM('',(#253),#351);
#238=STYLED_ITEM('',(#254),#352);
#239=STYLED_ITEM('',(#255),#353);
#240=STYLED_ITEM('',(#256),#354);
#241=STYLED_ITEM('',(#257),#355);
#242=PRESENTATION_STYLE_ASSIGNMENT((#258));
#243=PRESENTATION_STYLE_ASSIGNMENT((#259));
#244=PRESENTATION_STYLE_ASSIGNMENT((#260));
#245=PRESENTATION_STYLE_ASSIGNMENT((#261));
#246=PRESENTATION_STYLE_ASSIGNMENT((#262));
#247=PRESENTATION_STYLE_ASSIGNMENT((#263));
#248=PRESENTATION_STYLE_ASSIGNMENT((#264));
#249=PRESENTATION_STYLE_ASSIGNMENT((#265));
#250=PRESENTATION_STYLE_ASSIGNMENT((#266));
#251=PRESENTATION_STYLE_ASSIGNMENT((#267));
#252=PRESENTATION_STYLE_ASSIGNMENT((#268));
#253=PRESENTATION_STYLE_ASSIGNMENT((#269));
#254=PRESENTATION_STYLE_ASSIGNMENT((#270));
#255=PRESENTATION_STYLE_ASSIGNMENT((#271));
#256=PRESENTATION_STYLE_ASSIGNMENT((#272));
#257=PRESENTATION_STYLE_ASSIGNMENT((#273));
#258=SURFACE_STYLE_USAGE(.BOTH.,#274);
#259=SURFACE_STYLE_USAGE(.BOTH.,#275);
#260=SURFACE_STYLE_USAGE(.BOTH.,#276);
#261=SURFACE_STYLE_USAGE(.BOTH.,#277);
#262=SURFACE_STYLE_USAGE(.BOTH.,#278);
#263=SURFACE_STYLE_USAGE(.BOTH.,#279);
#264=SURFACE_STYLE_USAGE(.BOTH.,#280);
#265=SURFACE_STYLE_USAGE(.BOTH.,#281);
#266=SURFACE_STYLE_USAGE(.BOTH.,#282);
#267=SURFACE_STYLE_USAGE(.BOTH.,#283);
#268=SURFACE_STYLE_USAGE(.BOTH.,#284);
#269=SURFACE_STYLE_USAGE(.BOTH.,#285);
#270=SURFACE_STYLE_USAGE(.BOTH.,#286);
#271=SURFACE_STYLE_USAGE(.BOTH.,#287);
#272=SURFACE_STYLE_USAGE(.BOTH.,#288);
#273=SURFACE_STYLE_USAGE(.BOTH.,#289);
#274=SURFACE_SIDE_STYLE('',(#290));
#275=SURFACE_SIDE_STYLE('',(#291));
#276=SURFACE_SIDE_STYLE('',(#292));
#277=SURFACE_SIDE_STYLE('',(#293));
#278=SURFACE_SIDE_STYLE('',(#294));
#279=SURFACE_SIDE_STYLE('',(#295));
#280=SURFACE_SIDE_STYLE('',(#296));
#281=SURFACE_SIDE_STYLE('',(#297));
#282=SURFACE_SIDE_STYLE('',(#298));
#283=SURFACE_SIDE_STYLE('',(#299));
#284=SURFACE_SIDE_STYLE('',(#300));
#285=SURFACE_SIDE_STYLE('',(#301));
#286=SURFACE_SIDE_STYLE('',(#302));
#287=SURFACE_SIDE_STYLE('',(#303));
#288=SURFACE_SIDE_STYLE('',(#304));
#289=SURFACE_SIDE_STYLE('',(#305));
#290=SURFACE_STYLE_FILL_AREA(#306);
#291=SURFACE_STYLE_FILL_AREA(#307);
#292=SURFACE_STYLE_FILL_AREA(#308);
#293=SURFACE_STYLE_FILL_AREA(#309);
#294=SURFACE_STYLE_FILL_AREA(#310);
#295=SURFACE_STYLE_FILL_AREA(#311);
#296=SURFACE_STYLE_FILL_AREA(#312);
#297=SURFACE_STYLE_FILL_AREA(#313);
#298=SURFACE_STYLE_FILL_AREA(#314);
#299=SURFACE_STYLE_FILL_AREA(#315);
#300=SURFACE_STYLE_FILL_AREA(#316);
#301=SURFACE_STYLE_FILL_AREA(#317);
#302=SURFACE_STYLE_FILL_AREA(#318);
#303=SURFACE_STYLE_FILL_AREA(#319);
#304=SURFACE_STYLE_FILL_AREA(#320);
#305=SURFACE_STYLE_FILL_AREA(#321);
#306=FILL_AREA_STYLE('',(#322));
#307=FILL_AREA_STYLE('',(#323));
#308=FILL_AREA_STYLE('',(#324));
#309=FILL_AREA_STYLE('',(#325));
#310=FILL_AREA_STYLE('',(#326));
#311=FILL_AREA_STYLE('',(#327));
#312=FILL_AREA_STYLE('',(#328));
#313=FILL_AREA_STYLE('',(#329));
#314=FILL_AREA_STYLE('',(#330));
#315=FILL_AREA_STYLE('',(#331));
#316=FILL_AREA_STYLE('',(#332));
#317=FILL_AREA_STYLE('',(#333));
#318=FILL_AREA_STYLE('',(#334));
#319=FILL_AREA_STYLE('',(#335));
#320=FILL_AREA_STYLE('',(#336));
#321=FILL_AREA_STYLE('',(#337));
#322=FILL_AREA_STYLE_COLOUR('',#338);
#323=FILL_AREA_STYLE_COLOUR('',#338);
#324=FILL_AREA_STYLE_COLOUR('',#338);
#325=FILL_AREA_STYLE_COLOUR('',#338);
#326=FILL_AREA_STYLE_COLOUR('',#338);
#327=FILL_AREA_STYLE_COLOUR('',#338);
#328=FILL_AREA_STYLE_COLOUR('',#338);
#329=FILL_AREA_STYLE_COLOUR('',#338);
#330=FILL_AREA_STYLE_COLOUR('',#338);
#331=FILL_AREA_STYLE_COLOUR('',#338);
#332=FILL_AREA_STYLE_COLOUR('',#338);
#333=FILL_AREA_STYLE_COLOUR('',#338);
#334=FILL_AREA_STYLE_COLOUR('',#339);
#335=FILL_AREA_STYLE_COLOUR('',#338);
#336=FILL_AREA_STYLE_COLOUR('',#338);
#337=FILL_AREA_STYLE_COLOUR('',#338);
#338=COLOUR_RGB('',0.,0.520862698554993,0.898039221763611);
#339=COLOUR_RGB('',0.639999985694885,0.670000016689301,0.689999997615814);
#340=ADVANCED_FACE('',(#190),#214,.T.);
#341=ADVANCED_FACE('',(#191),#215,.F.);
#342=ADVANCED_FACE('',(#192),#216,.T.);
#343=ADVANCED_FACE('',(#193),#217,.T.);
#344=ADVANCED_FACE('',(#194),#218,.T.);
#345=ADVANCED_FACE('',(#195),#219,.T.);
#346=ADVANCED_FACE('',(#196),#220,.T.);
#347=ADVANCED_FACE('',(#197),#221,.T.);
#348=ADVANCED_FACE('',(#198,#199),#222,.F.);
#349=ADVANCED_FACE('',(#200,#201),#223,.F.);
#350=ADVANCED_FACE('',(#202,#203),#224,.F.);
#351=ADVANCED_FACE('',(#204,#205),#225,.T.);
#352=ADVANCED_FACE('',(#206,#207),#23,.T.);
#353=ADVANCED_FACE('',(#208,#209),#20,.T.);
#354=ADVANCED_FACE('',(#210,#211),#21,.F.);
#355=ADVANCED_FACE('',(#212,#213),#22,.F.);
#356=CLOSED_SHELL('',(#340,#341,#342,#343,#344,#345,#346,#347,#348,#349,
#350,#351,#352,#353,#354,#355));
#357=MANIFOLD_SOLID_BREP('',#356);
#358=SHAPE_DEFINITION_REPRESENTATION(#522,#359);
#359=SHAPE_REPRESENTATION('F27R11-2DN42',(#360),#517);
#360=AXIS2_PLACEMENT_3D('',#453,#385,#386);
#361=AXIS2_PLACEMENT_3D('',#454,#387,#388);
#362=AXIS2_PLACEMENT_3D('',#455,#389,#390);
#363=AXIS2_PLACEMENT_3D('',#457,#391,#392);
#364=AXIS2_PLACEMENT_3D('',#458,#393,#394);
#365=AXIS2_PLACEMENT_3D('',#460,#395,#396);
#366=AXIS2_PLACEMENT_3D('',#469,#401,#402);
#367=AXIS2_PLACEMENT_3D('',#475,#406,#407);
#368=AXIS2_PLACEMENT_3D('',#481,#411,#412);
#369=AXIS2_PLACEMENT_3D('',#487,#416,#417);
#370=AXIS2_PLACEMENT_3D('',#493,#421,#422);
#371=AXIS2_PLACEMENT_3D('',#496,#425,#426);
#372=AXIS2_PLACEMENT_3D('',#497,#427,#428);
#373=AXIS2_PLACEMENT_3D('',#499,#429,#430);
#374=AXIS2_PLACEMENT_3D('',#500,#431,#432);
#375=AXIS2_PLACEMENT_3D('',#502,#433,#434);
#376=AXIS2_PLACEMENT_3D('',#504,#435,#436);
#377=AXIS2_PLACEMENT_3D('',#505,#437,#438);
#378=AXIS2_PLACEMENT_3D('',#507,#439,#440);
#379=AXIS2_PLACEMENT_3D('',#509,#441,#442);
#380=AXIS2_PLACEMENT_3D('',#510,#443,#444);
#381=AXIS2_PLACEMENT_3D('',#512,#445,#446);
#382=AXIS2_PLACEMENT_3D('',#513,#447,#448);
#383=AXIS2_PLACEMENT_3D('',#514,#449,#450);
#384=AXIS2_PLACEMENT_3D('',#515,#451,#452);
#385=DIRECTION('',(0.,0.,1.));
#386=DIRECTION('',(1.,0.,0.));
#387=DIRECTION('',(0.,-1.,0.));
#388=DIRECTION('',(0.,0.,-1.));
#389=DIRECTION('',(0.,-1.,0.));
#390=DIRECTION('',(0.,0.,-1.));
#391=DIRECTION('',(0.,-1.,0.));
#392=DIRECTION('',(0.,0.,-1.));
#393=DIRECTION('',(0.,-1.,0.));
#394=DIRECTION('',(0.,0.,-1.));
#395=DIRECTION('',(0.86602540378444,0.,-0.499999999999998));
#396=DIRECTION('',(-0.499999999999998,0.,-0.86602540378444));
#397=DIRECTION('',(0.499999999999998,0.,0.86602540378444));
#398=DIRECTION('',(0.,-1.,0.));
#399=DIRECTION('',(0.499999999999998,0.,0.86602540378444));
#400=DIRECTION('',(0.,-1.,0.));
#401=DIRECTION('',(0.866025403784437,0.,0.500000000000002));
#402=DIRECTION('',(0.500000000000002,0.,-0.866025403784437));
#403=DIRECTION('',(-0.500000000000002,0.,0.866025403784437));
#404=DIRECTION('',(-0.500000000000002,0.,0.866025403784437));
#405=DIRECTION('',(0.,-1.,0.));
#406=DIRECTION('',(-1.52962940962329E-15,0.,1.));
#407=DIRECTION('',(1.,0.,1.52962940962329E-15));
#408=DIRECTION('',(-1.,0.,-1.52962940962329E-15));
#409=DIRECTION('',(-1.,0.,-1.52962940962329E-15));
#410=DIRECTION('',(0.,-1.,0.));
#411=DIRECTION('',(-0.866025403784439,0.,0.5));
#412=DIRECTION('',(0.5,0.,0.866025403784439));
#413=DIRECTION('',(-0.5,0.,-0.866025403784439));
#414=DIRECTION('',(-0.5,0.,-0.866025403784439));
#415=DIRECTION('',(0.,-1.,0.));
#416=DIRECTION('',(-0.866025403784438,0.,-0.500000000000001));
#417=DIRECTION('',(-0.500000000000001,0.,0.866025403784438));
#418=DIRECTION('',(0.500000000000001,0.,-0.866025403784438));
#419=DIRECTION('',(0.500000000000001,0.,-0.866025403784438));
#420=DIRECTION('',(0.,-1.,0.));
#421=DIRECTION('',(1.42037016607877E-15,0.,-1.));
#422=DIRECTION('',(-1.,0.,-1.42037016607877E-15));
#423=DIRECTION('',(1.,0.,1.42037016607877E-15));
#424=DIRECTION('',(1.,0.,1.42037016607877E-15));
#425=DIRECTION('',(0.,-1.,0.));
#426=DIRECTION('',(0.,0.,-1.));
#427=DIRECTION('',(0.,-1.,0.));
#428=DIRECTION('',(0.,0.,-1.));
#429=DIRECTION('',(0.,1.,0.));
#430=DIRECTION('',(0.,0.,1.));
#431=DIRECTION('',(0.,1.,0.));
#432=DIRECTION('',(1.,0.,0.));
#433=DIRECTION('',(0.,1.,0.));
#434=DIRECTION('',(0.,0.,1.));
#435=DIRECTION('',(0.,-1.,0.));
#436=DIRECTION('',(0.,0.,-1.));
#437=DIRECTION('',(0.,-1.,0.));
#438=DIRECTION('',(0.,0.,-1.));
#439=DIRECTION('',(0.,-1.,0.));
#440=DIRECTION('',(0.,0.,-1.));
#441=DIRECTION('',(0.,-1.,0.));
#442=DIRECTION('',(0.,0.,-1.));
#443=DIRECTION('',(0.,-1.,0.));
#444=DIRECTION('',(0.,0.,-1.));
#445=DIRECTION('',(0.,1.,0.));
#446=DIRECTION('',(0.,0.,1.));
#447=DIRECTION('',(0.,-1.,0.));
#448=DIRECTION('',(0.,0.,-1.));
#449=DIRECTION('',(0.,1.,0.));
#450=DIRECTION('',(0.,0.,1.));
#451=DIRECTION('',(0.,-1.,0.));
#452=DIRECTION('',(0.,0.,-1.));
#453=CARTESIAN_POINT('',(0.,0.,0.));
#454=CARTESIAN_POINT('',(0.,0.866025403784445,0.));
#455=CARTESIAN_POINT('',(0.,0.866025403784445,0.));
#456=CARTESIAN_POINT('',(0.,0.866025403784445,-20.5));
#457=CARTESIAN_POINT('',(0.,2.59807621135334,0.));
#458=CARTESIAN_POINT('',(0.,2.59807621135334,0.));
#459=CARTESIAN_POINT('',(0.,2.59807621135334,-19.5));
#460=CARTESIAN_POINT('',(15.8771324027147,10.,-27.4999999999999));
#461=CARTESIAN_POINT('',(15.8771324027147,0.,-27.4999999999999));
#462=CARTESIAN_POINT('',(15.8771324027147,0.,-27.4999999999999));
#463=CARTESIAN_POINT('',(31.7542648054294,0.,8.67361737988404E-14));
#464=CARTESIAN_POINT('',(15.8771324027147,10.,-27.4999999999999));
#465=CARTESIAN_POINT('',(15.8771324027147,10.,-27.4999999999999));
#466=CARTESIAN_POINT('',(15.8771324027147,10.,-27.4999999999999));
#467=CARTESIAN_POINT('',(31.7542648054294,10.,8.67361737988404E-14));
#468=CARTESIAN_POINT('',(31.7542648054294,10.,9.0205620750794E-14));
#469=CARTESIAN_POINT('',(31.7542648054294,10.,9.0205620750794E-14));
#470=CARTESIAN_POINT('',(31.7542648054294,0.,9.0205620750794E-14));
#471=CARTESIAN_POINT('',(15.8771324027146,0.,27.5));
#472=CARTESIAN_POINT('',(31.7542648054294,10.,9.0205620750794E-14));
#473=CARTESIAN_POINT('',(15.8771324027146,10.,27.5));
#474=CARTESIAN_POINT('',(15.8771324027146,10.,27.5));
#475=CARTESIAN_POINT('',(15.8771324027146,10.,27.5));
#476=CARTESIAN_POINT('',(15.8771324027146,0.,27.5));
#477=CARTESIAN_POINT('',(-15.8771324027147,0.,27.5));
#478=CARTESIAN_POINT('',(15.8771324027146,10.,27.5));
#479=CARTESIAN_POINT('',(-15.8771324027147,10.,27.5));
#480=CARTESIAN_POINT('',(-15.8771324027147,10.,27.5));
#481=CARTESIAN_POINT('',(-15.8771324027147,10.,27.5));
#482=CARTESIAN_POINT('',(-15.8771324027147,0.,27.5));
#483=CARTESIAN_POINT('',(-31.7542648054294,0.,-7.80625564189563E-15));
#484=CARTESIAN_POINT('',(-15.8771324027147,10.,27.5));
#485=CARTESIAN_POINT('',(-31.7542648054294,10.,-3.90312782094782E-15));
#486=CARTESIAN_POINT('',(-31.7542648054294,10.,-6.93889390390723E-15));
#487=CARTESIAN_POINT('',(-31.7542648054294,10.,-6.93889390390723E-15));
#488=CARTESIAN_POINT('',(-31.7542648054294,0.,-6.93889390390723E-15));
#489=CARTESIAN_POINT('',(-15.8771324027147,0.,-27.5));
#490=CARTESIAN_POINT('',(-31.7542648054294,10.,-6.93889390390723E-15));
#491=CARTESIAN_POINT('',(-15.8771324027147,10.,-27.5));
#492=CARTESIAN_POINT('',(-15.8771324027147,10.,-27.5));
#493=CARTESIAN_POINT('',(-15.8771324027147,10.,-27.5));
#494=CARTESIAN_POINT('',(-15.8771324027147,0.,-27.5));
#495=CARTESIAN_POINT('',(-15.8771324027147,10.,-27.5));
#496=CARTESIAN_POINT('',(0.,10.,0.));
#497=CARTESIAN_POINT('',(6.16297582203915E-30,10.,-1.23259516440783E-29));
#498=CARTESIAN_POINT('',(6.16297582203915E-30,10.,-21.));
#499=CARTESIAN_POINT('',(0.,-25.,0.));
#500=CARTESIAN_POINT('',(0.,-25.,0.));
#501=CARTESIAN_POINT('',(20.5,-25.,0.));
#502=CARTESIAN_POINT('',(0.,-25.,0.));
#503=CARTESIAN_POINT('',(0.,-25.,22.9930655537869));
#504=CARTESIAN_POINT('',(6.16297582203915E-30,60.,-1.23259516440783E-29));
#505=CARTESIAN_POINT('',(6.16297582203915E-30,60.,-1.23259516440783E-29));
#506=CARTESIAN_POINT('',(6.16297582203915E-30,60.,-21.));
#507=CARTESIAN_POINT('',(0.,60.,0.));
#508=CARTESIAN_POINT('',(0.,60.,-19.5));
#509=CARTESIAN_POINT('',(0.,0.,0.));
#510=CARTESIAN_POINT('',(0.,0.,0.));
#511=CARTESIAN_POINT('',(0.,0.,-24.0845891264997));
#512=CARTESIAN_POINT('',(0.,1.04008,0.));
#513=CARTESIAN_POINT('',(6.16297582203915E-30,15.,-1.23259516440783E-29));
#514=CARTESIAN_POINT('',(0.,-62.6349041402732,0.));
#515=CARTESIAN_POINT('',(0.,3.46944695195361E-15,0.));
#516=MECHANICAL_DESIGN_GEOMETRIC_PRESENTATION_REPRESENTATION('',(#226,#227,
#228,#229,#230,#231,#232,#233,#234,#235,#236,#237,#238,#239,#240,#241),
#517);
#517=(
GEOMETRIC_REPRESENTATION_CONTEXT(3)
GLOBAL_UNCERTAINTY_ASSIGNED_CONTEXT((#518))
GLOBAL_UNIT_ASSIGNED_CONTEXT((#521,#520,#519))
REPRESENTATION_CONTEXT('F27R11-2DN42','TOP_LEVEL_ASSEMBLY_PART')
);
#518=UNCERTAINTY_MEASURE_WITH_UNIT(LENGTH_MEASURE(0.005),#521,
'DISTANCE_ACCURACY_VALUE','Maximum Tolerance applied to model');
#519=(
NAMED_UNIT(*)
SI_UNIT($,.STERADIAN.)
SOLID_ANGLE_UNIT()
);
#520=(
NAMED_UNIT(*)
PLANE_ANGLE_UNIT()
SI_UNIT($,.RADIAN.)
);
#521=(
LENGTH_UNIT()
NAMED_UNIT(*)
SI_UNIT(.MILLI.,.METRE.)
);
#522=PRODUCT_DEFINITION_SHAPE('','',#523);
#523=PRODUCT_DEFINITION('','',#525,#524);
#524=PRODUCT_DEFINITION_CONTEXT('',#531,'design');
#525=PRODUCT_DEFINITION_FORMATION_WITH_SPECIFIED_SOURCE('','',#527,
 .NOT_KNOWN.);
#526=PRODUCT_RELATED_PRODUCT_CATEGORY('','',(#527));
#527=PRODUCT('F27R11-2DN42','F27R11-2DN42','F27R11-2DN42',(#529));
#528=PRODUCT_CATEGORY('','');
#529=PRODUCT_CONTEXT('',#531,'mechanical');
#530=APPLICATION_PROTOCOL_DEFINITION('international standard',
'automotive_design',2010,#531);
#531=APPLICATION_CONTEXT(
'core data for automotive mechanical design processes');
ENDSEC;
END-ISO-10303-21;
