ISO-10303-21;
HEADER;
/* Generated by software containing ST-Developer
 * from STEP Tools, Inc. (www.steptools.com) 
 */
/* OPTION: strings as raw bytes, not using required /X/ escapes */

FILE_DESCRIPTION(
/* description */ ('Unknown'),
/* implementation_level */ '2;1');

FILE_NAME(
/* name */ 'F27R2DN54',
/* time_stamp */ '2019-10-24T11:02:46+02:00',
/* author */ ('Unknown'),
/* organization */ ('Unknown'),
/* preprocessor_version */ 'ST-DEVELOPER v16.7',
/* originating_system */ 'DEX',
/* authorisation */ $);

FILE_SCHEMA (('AUTOMOTIVE_DESIGN {1 0 10303 214 3 1 1}'));
ENDSEC;

DATA;
#10=PROPERTY_DEFINITION_REPRESENTATION(#14,#12);
#11=PROPERTY_DEFINITION_REPRESENTATION(#15,#13);
#12=REPRESENTATION('',(#16),#477);
#13=REPRESENTATION('',(#17),#477);
#14=PROPERTY_DEFINITION('pmi validation property','',#482);
#15=PROPERTY_DEFINITION('pmi validation property','',#482);
#16=VALUE_REPRESENTATION_ITEM('number of annotations',COUNT_MEASURE(0.));
#17=VALUE_REPRESENTATION_ITEM('number of views',COUNT_MEASURE(0.));
#18=SHAPE_REPRESENTATION_RELATIONSHIP('','',#332,#19);
#19=ADVANCED_BREP_SHAPE_REPRESENTATION('',(#330),#477);
#20=CONICAL_SURFACE('',#354,30.25,0.0436332312998582);
#21=CYLINDRICAL_SURFACE('',#343,30.25);
#22=CYLINDRICAL_SURFACE('',#349,25.5);
#23=CYLINDRICAL_SURFACE('',#351,27.);
#24=CIRCLE('',#341,25.5);
#25=CIRCLE('',#342,29.1279137672512);
#26=CIRCLE('',#344,30.25);
#27=CIRCLE('',#345,30.25);
#28=CIRCLE('',#348,27.);
#29=CIRCLE('',#350,25.5);
#30=CIRCLE('',#352,27.);
#31=ORIENTED_EDGE('',*,*,#81,.F.);
#32=ORIENTED_EDGE('',*,*,#82,.T.);
#33=ORIENTED_EDGE('',*,*,#83,.T.);
#34=ORIENTED_EDGE('',*,*,#84,.T.);
#35=ORIENTED_EDGE('',*,*,#83,.F.);
#36=ORIENTED_EDGE('',*,*,#85,.T.);
#37=ORIENTED_EDGE('',*,*,#86,.T.);
#38=ORIENTED_EDGE('',*,*,#87,.T.);
#39=ORIENTED_EDGE('',*,*,#86,.F.);
#40=ORIENTED_EDGE('',*,*,#88,.T.);
#41=ORIENTED_EDGE('',*,*,#89,.T.);
#42=ORIENTED_EDGE('',*,*,#90,.T.);
#43=ORIENTED_EDGE('',*,*,#89,.F.);
#44=ORIENTED_EDGE('',*,*,#91,.T.);
#45=ORIENTED_EDGE('',*,*,#92,.T.);
#46=ORIENTED_EDGE('',*,*,#93,.T.);
#47=ORIENTED_EDGE('',*,*,#92,.F.);
#48=ORIENTED_EDGE('',*,*,#94,.T.);
#49=ORIENTED_EDGE('',*,*,#95,.T.);
#50=ORIENTED_EDGE('',*,*,#96,.T.);
#51=ORIENTED_EDGE('',*,*,#95,.F.);
#52=ORIENTED_EDGE('',*,*,#97,.T.);
#53=ORIENTED_EDGE('',*,*,#81,.T.);
#54=ORIENTED_EDGE('',*,*,#98,.T.);
#55=ORIENTED_EDGE('',*,*,#99,.T.);
#56=ORIENTED_EDGE('',*,*,#100,.T.);
#57=ORIENTED_EDGE('',*,*,#101,.T.);
#58=ORIENTED_EDGE('',*,*,#102,.T.);
#59=ORIENTED_EDGE('',*,*,#101,.F.);
#60=ORIENTED_EDGE('',*,*,#98,.F.);
#61=ORIENTED_EDGE('',*,*,#84,.F.);
#62=ORIENTED_EDGE('',*,*,#87,.F.);
#63=ORIENTED_EDGE('',*,*,#90,.F.);
#64=ORIENTED_EDGE('',*,*,#93,.F.);
#65=ORIENTED_EDGE('',*,*,#96,.F.);
#66=ORIENTED_EDGE('',*,*,#82,.F.);
#67=ORIENTED_EDGE('',*,*,#97,.F.);
#68=ORIENTED_EDGE('',*,*,#94,.F.);
#69=ORIENTED_EDGE('',*,*,#91,.F.);
#70=ORIENTED_EDGE('',*,*,#88,.F.);
#71=ORIENTED_EDGE('',*,*,#85,.F.);
#72=ORIENTED_EDGE('',*,*,#103,.F.);
#73=ORIENTED_EDGE('',*,*,#99,.F.);
#74=ORIENTED_EDGE('',*,*,#104,.F.);
#75=ORIENTED_EDGE('',*,*,#105,.T.);
#76=ORIENTED_EDGE('',*,*,#103,.T.);
#77=ORIENTED_EDGE('',*,*,#104,.T.);
#78=ORIENTED_EDGE('',*,*,#105,.F.);
#79=ORIENTED_EDGE('',*,*,#100,.F.);
#80=ORIENTED_EDGE('',*,*,#102,.F.);
#81=EDGE_CURVE('',#106,#107,#125,.T.);
#82=EDGE_CURVE('',#106,#108,#126,.T.);
#83=EDGE_CURVE('',#108,#109,#127,.T.);
#84=EDGE_CURVE('',#109,#107,#128,.T.);
#85=EDGE_CURVE('',#108,#110,#129,.T.);
#86=EDGE_CURVE('',#110,#111,#130,.T.);
#87=EDGE_CURVE('',#111,#109,#131,.T.);
#88=EDGE_CURVE('',#110,#112,#132,.T.);
#89=EDGE_CURVE('',#112,#113,#133,.T.);
#90=EDGE_CURVE('',#113,#111,#134,.T.);
#91=EDGE_CURVE('',#112,#114,#135,.T.);
#92=EDGE_CURVE('',#114,#115,#136,.T.);
#93=EDGE_CURVE('',#115,#113,#137,.T.);
#94=EDGE_CURVE('',#114,#116,#138,.T.);
#95=EDGE_CURVE('',#116,#117,#139,.T.);
#96=EDGE_CURVE('',#117,#115,#140,.T.);
#97=EDGE_CURVE('',#116,#106,#141,.T.);
#98=EDGE_CURVE('',#107,#117,#142,.T.);
#99=EDGE_CURVE('',#118,#118,#24,.F.);
#100=EDGE_CURVE('',#119,#119,#25,.T.);
#101=EDGE_CURVE('',#120,#120,#26,.F.);
#102=EDGE_CURVE('',#121,#121,#27,.T.);
#103=EDGE_CURVE('',#122,#122,#28,.T.);
#104=EDGE_CURVE('',#123,#123,#29,.T.);
#105=EDGE_CURVE('',#124,#124,#30,.T.);
#106=VERTEX_POINT('',#420);
#107=VERTEX_POINT('',#421);
#108=VERTEX_POINT('',#423);
#109=VERTEX_POINT('',#425);
#110=VERTEX_POINT('',#429);
#111=VERTEX_POINT('',#431);
#112=VERTEX_POINT('',#435);
#113=VERTEX_POINT('',#437);
#114=VERTEX_POINT('',#441);
#115=VERTEX_POINT('',#443);
#116=VERTEX_POINT('',#447);
#117=VERTEX_POINT('',#449);
#118=VERTEX_POINT('',#456);
#119=VERTEX_POINT('',#458);
#120=VERTEX_POINT('',#461);
#121=VERTEX_POINT('',#463);
#122=VERTEX_POINT('',#467);
#123=VERTEX_POINT('',#470);
#124=VERTEX_POINT('',#473);
#125=LINE('',#419,#143);
#126=LINE('',#422,#144);
#127=LINE('',#424,#145);
#128=LINE('',#426,#146);
#129=LINE('',#428,#147);
#130=LINE('',#430,#148);
#131=LINE('',#432,#149);
#132=LINE('',#434,#150);
#133=LINE('',#436,#151);
#134=LINE('',#438,#152);
#135=LINE('',#440,#153);
#136=LINE('',#442,#154);
#137=LINE('',#444,#155);
#138=LINE('',#446,#156);
#139=LINE('',#448,#157);
#140=LINE('',#450,#158);
#141=LINE('',#452,#159);
#142=LINE('',#453,#160);
#143=VECTOR('',#359,1000.);
#144=VECTOR('',#360,1000.);
#145=VECTOR('',#361,1000.);
#146=VECTOR('',#362,1000.);
#147=VECTOR('',#365,1000.);
#148=VECTOR('',#366,1000.);
#149=VECTOR('',#367,1000.);
#150=VECTOR('',#370,1000.);
#151=VECTOR('',#371,1000.);
#152=VECTOR('',#372,1000.);
#153=VECTOR('',#375,1000.);
#154=VECTOR('',#376,1000.);
#155=VECTOR('',#377,1000.);
#156=VECTOR('',#380,1000.);
#157=VECTOR('',#381,1000.);
#158=VECTOR('',#382,1000.);
#159=VECTOR('',#385,1000.);
#160=VECTOR('',#386,1000.);
#161=EDGE_LOOP('',(#31,#32,#33,#34));
#162=EDGE_LOOP('',(#35,#36,#37,#38));
#163=EDGE_LOOP('',(#39,#40,#41,#42));
#164=EDGE_LOOP('',(#43,#44,#45,#46));
#165=EDGE_LOOP('',(#47,#48,#49,#50));
#166=EDGE_LOOP('',(#51,#52,#53,#54));
#167=EDGE_LOOP('',(#55));
#168=EDGE_LOOP('',(#56));
#169=EDGE_LOOP('',(#57));
#170=EDGE_LOOP('',(#58));
#171=EDGE_LOOP('',(#59));
#172=EDGE_LOOP('',(#60,#61,#62,#63,#64,#65));
#173=EDGE_LOOP('',(#66,#67,#68,#69,#70,#71));
#174=EDGE_LOOP('',(#72));
#175=EDGE_LOOP('',(#73));
#176=EDGE_LOOP('',(#74));
#177=EDGE_LOOP('',(#75));
#178=EDGE_LOOP('',(#76));
#179=EDGE_LOOP('',(#77));
#180=EDGE_LOOP('',(#78));
#181=EDGE_LOOP('',(#79));
#182=EDGE_LOOP('',(#80));
#183=FACE_BOUND('',#161,.T.);
#184=FACE_BOUND('',#162,.T.);
#185=FACE_BOUND('',#163,.T.);
#186=FACE_BOUND('',#164,.T.);
#187=FACE_BOUND('',#165,.T.);
#188=FACE_BOUND('',#166,.T.);
#189=FACE_BOUND('',#167,.T.);
#190=FACE_BOUND('',#168,.T.);
#191=FACE_BOUND('',#169,.T.);
#192=FACE_BOUND('',#170,.T.);
#193=FACE_BOUND('',#171,.T.);
#194=FACE_BOUND('',#172,.T.);
#195=FACE_BOUND('',#173,.T.);
#196=FACE_BOUND('',#174,.T.);
#197=FACE_BOUND('',#175,.T.);
#198=FACE_BOUND('',#176,.T.);
#199=FACE_BOUND('',#177,.T.);
#200=FACE_BOUND('',#178,.T.);
#201=FACE_BOUND('',#179,.T.);
#202=FACE_BOUND('',#180,.T.);
#203=FACE_BOUND('',#181,.T.);
#204=FACE_BOUND('',#182,.T.);
#205=PLANE('',#334);
#206=PLANE('',#335);
#207=PLANE('',#336);
#208=PLANE('',#337);
#209=PLANE('',#338);
#210=PLANE('',#339);
#211=PLANE('',#340);
#212=PLANE('',#346);
#213=PLANE('',#347);
#214=PLANE('',#353);
#215=STYLED_ITEM('',(#229),#315);
#216=STYLED_ITEM('',(#230),#316);
#217=STYLED_ITEM('',(#231),#317);
#218=STYLED_ITEM('',(#232),#318);
#219=STYLED_ITEM('',(#233),#319);
#220=STYLED_ITEM('',(#234),#320);
#221=STYLED_ITEM('',(#235),#321);
#222=STYLED_ITEM('',(#236),#322);
#223=STYLED_ITEM('',(#237),#323);
#224=STYLED_ITEM('',(#238),#324);
#225=STYLED_ITEM('',(#239),#325);
#226=STYLED_ITEM('',(#240),#326);
#227=STYLED_ITEM('',(#241),#327);
#228=STYLED_ITEM('',(#242),#328);
#229=PRESENTATION_STYLE_ASSIGNMENT((#243));
#230=PRESENTATION_STYLE_ASSIGNMENT((#244));
#231=PRESENTATION_STYLE_ASSIGNMENT((#245));
#232=PRESENTATION_STYLE_ASSIGNMENT((#246));
#233=PRESENTATION_STYLE_ASSIGNMENT((#247));
#234=PRESENTATION_STYLE_ASSIGNMENT((#248));
#235=PRESENTATION_STYLE_ASSIGNMENT((#249));
#236=PRESENTATION_STYLE_ASSIGNMENT((#250));
#237=PRESENTATION_STYLE_ASSIGNMENT((#251));
#238=PRESENTATION_STYLE_ASSIGNMENT((#252));
#239=PRESENTATION_STYLE_ASSIGNMENT((#253));
#240=PRESENTATION_STYLE_ASSIGNMENT((#254));
#241=PRESENTATION_STYLE_ASSIGNMENT((#255));
#242=PRESENTATION_STYLE_ASSIGNMENT((#256));
#243=SURFACE_STYLE_USAGE(.BOTH.,#257);
#244=SURFACE_STYLE_USAGE(.BOTH.,#258);
#245=SURFACE_STYLE_USAGE(.BOTH.,#259);
#246=SURFACE_STYLE_USAGE(.BOTH.,#260);
#247=SURFACE_STYLE_USAGE(.BOTH.,#261);
#248=SURFACE_STYLE_USAGE(.BOTH.,#262);
#249=SURFACE_STYLE_USAGE(.BOTH.,#263);
#250=SURFACE_STYLE_USAGE(.BOTH.,#264);
#251=SURFACE_STYLE_USAGE(.BOTH.,#265);
#252=SURFACE_STYLE_USAGE(.BOTH.,#266);
#253=SURFACE_STYLE_USAGE(.BOTH.,#267);
#254=SURFACE_STYLE_USAGE(.BOTH.,#268);
#255=SURFACE_STYLE_USAGE(.BOTH.,#269);
#256=SURFACE_STYLE_USAGE(.BOTH.,#270);
#257=SURFACE_SIDE_STYLE('',(#271));
#258=SURFACE_SIDE_STYLE('',(#272));
#259=SURFACE_SIDE_STYLE('',(#273));
#260=SURFACE_SIDE_STYLE('',(#274));
#261=SURFACE_SIDE_STYLE('',(#275));
#262=SURFACE_SIDE_STYLE('',(#276));
#263=SURFACE_SIDE_STYLE('',(#277));
#264=SURFACE_SIDE_STYLE('',(#278));
#265=SURFACE_SIDE_STYLE('',(#279));
#266=SURFACE_SIDE_STYLE('',(#280));
#267=SURFACE_SIDE_STYLE('',(#281));
#268=SURFACE_SIDE_STYLE('',(#282));
#269=SURFACE_SIDE_STYLE('',(#283));
#270=SURFACE_SIDE_STYLE('',(#284));
#271=SURFACE_STYLE_FILL_AREA(#285);
#272=SURFACE_STYLE_FILL_AREA(#286);
#273=SURFACE_STYLE_FILL_AREA(#287);
#274=SURFACE_STYLE_FILL_AREA(#288);
#275=SURFACE_STYLE_FILL_AREA(#289);
#276=SURFACE_STYLE_FILL_AREA(#290);
#277=SURFACE_STYLE_FILL_AREA(#291);
#278=SURFACE_STYLE_FILL_AREA(#292);
#279=SURFACE_STYLE_FILL_AREA(#293);
#280=SURFACE_STYLE_FILL_AREA(#294);
#281=SURFACE_STYLE_FILL_AREA(#295);
#282=SURFACE_STYLE_FILL_AREA(#296);
#283=SURFACE_STYLE_FILL_AREA(#297);
#284=SURFACE_STYLE_FILL_AREA(#298);
#285=FILL_AREA_STYLE('',(#299));
#286=FILL_AREA_STYLE('',(#300));
#287=FILL_AREA_STYLE('',(#301));
#288=FILL_AREA_STYLE('',(#302));
#289=FILL_AREA_STYLE('',(#303));
#290=FILL_AREA_STYLE('',(#304));
#291=FILL_AREA_STYLE('',(#305));
#292=FILL_AREA_STYLE('',(#306));
#293=FILL_AREA_STYLE('',(#307));
#294=FILL_AREA_STYLE('',(#308));
#295=FILL_AREA_STYLE('',(#309));
#296=FILL_AREA_STYLE('',(#310));
#297=FILL_AREA_STYLE('',(#311));
#298=FILL_AREA_STYLE('',(#312));
#299=FILL_AREA_STYLE_COLOUR('',#313);
#300=FILL_AREA_STYLE_COLOUR('',#313);
#301=FILL_AREA_STYLE_COLOUR('',#313);
#302=FILL_AREA_STYLE_COLOUR('',#313);
#303=FILL_AREA_STYLE_COLOUR('',#313);
#304=FILL_AREA_STYLE_COLOUR('',#313);
#305=FILL_AREA_STYLE_COLOUR('',#313);
#306=FILL_AREA_STYLE_COLOUR('',#313);
#307=FILL_AREA_STYLE_COLOUR('',#313);
#308=FILL_AREA_STYLE_COLOUR('',#313);
#309=FILL_AREA_STYLE_COLOUR('',#313);
#310=FILL_AREA_STYLE_COLOUR('',#313);
#311=FILL_AREA_STYLE_COLOUR('',#313);
#312=FILL_AREA_STYLE_COLOUR('',#314);
#313=COLOUR_RGB('',0.400000005960464,0.295081973075867,0.131147548556328);
#314=COLOUR_RGB('',0.639999985694885,0.670000016689301,0.689999997615814);
#315=ADVANCED_FACE('',(#183),#205,.F.);
#316=ADVANCED_FACE('',(#184),#206,.F.);
#317=ADVANCED_FACE('',(#185),#207,.F.);
#318=ADVANCED_FACE('',(#186),#208,.F.);
#319=ADVANCED_FACE('',(#187),#209,.F.);
#320=ADVANCED_FACE('',(#188),#210,.F.);
#321=ADVANCED_FACE('',(#189,#190),#211,.T.);
#322=ADVANCED_FACE('',(#191,#192),#21,.T.);
#323=ADVANCED_FACE('',(#193,#194),#212,.F.);
#324=ADVANCED_FACE('',(#195,#196),#213,.T.);
#325=ADVANCED_FACE('',(#197,#198),#22,.F.);
#326=ADVANCED_FACE('',(#199,#200),#23,.T.);
#327=ADVANCED_FACE('',(#201,#202),#214,.F.);
#328=ADVANCED_FACE('',(#203,#204),#20,.T.);
#329=CLOSED_SHELL('',(#315,#316,#317,#318,#319,#320,#321,#322,#323,#324,
#325,#326,#327,#328));
#330=MANIFOLD_SOLID_BREP('',#329);
#331=SHAPE_DEFINITION_REPRESENTATION(#482,#332);
#332=SHAPE_REPRESENTATION('F27R2DN54',(#333),#477);
#333=AXIS2_PLACEMENT_3D('',#417,#355,#356);
#334=AXIS2_PLACEMENT_3D('',#418,#357,#358);
#335=AXIS2_PLACEMENT_3D('',#427,#363,#364);
#336=AXIS2_PLACEMENT_3D('',#433,#368,#369);
#337=AXIS2_PLACEMENT_3D('',#439,#373,#374);
#338=AXIS2_PLACEMENT_3D('',#445,#378,#379);
#339=AXIS2_PLACEMENT_3D('',#451,#383,#384);
#340=AXIS2_PLACEMENT_3D('',#454,#387,#388);
#341=AXIS2_PLACEMENT_3D('',#455,#389,#390);
#342=AXIS2_PLACEMENT_3D('',#457,#391,#392);
#343=AXIS2_PLACEMENT_3D('',#459,#393,#394);
#344=AXIS2_PLACEMENT_3D('',#460,#395,#396);
#345=AXIS2_PLACEMENT_3D('',#462,#397,#398);
#346=AXIS2_PLACEMENT_3D('',#464,#399,#400);
#347=AXIS2_PLACEMENT_3D('',#465,#401,#402);
#348=AXIS2_PLACEMENT_3D('',#466,#403,#404);
#349=AXIS2_PLACEMENT_3D('',#468,#405,#406);
#350=AXIS2_PLACEMENT_3D('',#469,#407,#408);
#351=AXIS2_PLACEMENT_3D('',#471,#409,#410);
#352=AXIS2_PLACEMENT_3D('',#472,#411,#412);
#353=AXIS2_PLACEMENT_3D('',#474,#413,#414);
#354=AXIS2_PLACEMENT_3D('',#475,#415,#416);
#355=DIRECTION('',(0.,0.,1.));
#356=DIRECTION('',(1.,0.,0.));
#357=DIRECTION('',(0.866025403784437,0.,-0.500000000000002));
#358=DIRECTION('',(-0.500000000000002,0.,-0.866025403784437));
#359=DIRECTION('',(0.,-1.,0.));
#360=DIRECTION('',(-0.500000000000002,0.,-0.866025403784437));
#361=DIRECTION('',(0.,-1.,0.));
#362=DIRECTION('',(0.500000000000002,0.,0.866025403784437));
#363=DIRECTION('',(0.86602540378444,0.,0.499999999999998));
#364=DIRECTION('',(0.499999999999998,0.,-0.86602540378444));
#365=DIRECTION('',(0.499999999999998,0.,-0.86602540378444));
#366=DIRECTION('',(0.,-1.,0.));
#367=DIRECTION('',(-0.499999999999998,0.,0.86602540378444));
#368=DIRECTION('',(2.03390284136723E-15,0.,1.));
#369=DIRECTION('',(1.,0.,-2.03390284136723E-15));
#370=DIRECTION('',(1.,0.,-2.03390284136723E-15));
#371=DIRECTION('',(0.,-1.,0.));
#372=DIRECTION('',(-1.,0.,2.03390284136723E-15));
#373=DIRECTION('',(-0.866025403784438,0.,0.500000000000001));
#374=DIRECTION('',(0.500000000000001,0.,0.866025403784438));
#375=DIRECTION('',(0.500000000000001,0.,0.866025403784438));
#376=DIRECTION('',(0.,-1.,0.));
#377=DIRECTION('',(-0.500000000000001,0.,-0.866025403784438));
#378=DIRECTION('',(-0.866025403784439,0.,-0.5));
#379=DIRECTION('',(-0.5,0.,0.866025403784439));
#380=DIRECTION('',(-0.5,0.,0.866025403784439));
#381=DIRECTION('',(0.,-1.,0.));
#382=DIRECTION('',(0.5,0.,-0.866025403784439));
#383=DIRECTION('',(-1.4792020664489E-15,0.,-1.));
#384=DIRECTION('',(-1.,0.,1.4792020664489E-15));
#385=DIRECTION('',(-1.,0.,1.4792020664489E-15));
#386=DIRECTION('',(1.,0.,-1.4792020664489E-15));
#387=DIRECTION('',(0.,-1.,0.));
#388=DIRECTION('',(0.,0.,-1.));
#389=DIRECTION('',(0.,-1.,0.));
#390=DIRECTION('',(0.,0.,-1.));
#391=DIRECTION('',(0.,-1.,0.));
#392=DIRECTION('',(0.,0.,-1.));
#393=DIRECTION('',(0.,1.,0.));
#394=DIRECTION('',(0.,0.,1.));
#395=DIRECTION('',(0.,1.,0.));
#396=DIRECTION('',(0.,0.,1.));
#397=DIRECTION('',(0.,1.,0.));
#398=DIRECTION('',(0.,0.,1.));
#399=DIRECTION('',(0.,1.,0.));
#400=DIRECTION('',(0.,0.,1.));
#401=DIRECTION('',(0.,1.,0.));
#402=DIRECTION('',(0.,0.,1.));
#403=DIRECTION('',(0.,1.,0.));
#404=DIRECTION('',(0.,0.,1.));
#405=DIRECTION('',(0.,-1.,0.));
#406=DIRECTION('',(0.,0.,-1.));
#407=DIRECTION('',(0.,-1.,0.));
#408=DIRECTION('',(0.,0.,-1.));
#409=DIRECTION('',(0.,-1.,0.));
#410=DIRECTION('',(0.,0.,-1.));
#411=DIRECTION('',(0.,-1.,0.));
#412=DIRECTION('',(0.,0.,-1.));
#413=DIRECTION('',(0.,-1.,0.));
#414=DIRECTION('',(0.,0.,-1.));
#415=DIRECTION('',(0.,1.,0.));
#416=DIRECTION('',(0.,0.,1.));
#417=CARTESIAN_POINT('',(0.,0.,0.));
#418=CARTESIAN_POINT('',(-37.5277674973256,10.,1.04083408558608E-13));
#419=CARTESIAN_POINT('',(-18.7638837486627,10.,32.5000000000001));
#420=CARTESIAN_POINT('',(-18.7638837486627,10.,32.5));
#421=CARTESIAN_POINT('',(-18.7638837486627,2.60208521396521E-15,32.5000000000001));
#422=CARTESIAN_POINT('',(-28.1458256229942,10.,16.2500000000001));
#423=CARTESIAN_POINT('',(-37.5277674973256,10.,1.11022302462516E-13));
#424=CARTESIAN_POINT('',(-37.5277674973256,10.,1.04083408558608E-13));
#425=CARTESIAN_POINT('',(-37.5277674973256,8.67361737988404E-16,1.05818132034585E-13));
#426=CARTESIAN_POINT('',(-37.5277674973256,0.,1.04083408558608E-13));
#427=CARTESIAN_POINT('',(-18.7638837486629,10.,-32.4999999999999));
#428=CARTESIAN_POINT('',(-28.1458256229942,10.,-16.2499999999999));
#429=CARTESIAN_POINT('',(-18.7638837486629,10.,-32.4999999999999));
#430=CARTESIAN_POINT('',(-18.7638837486629,10.,-32.4999999999999));
#431=CARTESIAN_POINT('',(-18.7638837486629,0.,-32.4999999999999));
#432=CARTESIAN_POINT('',(-18.7638837486629,0.,-32.4999999999999));
#433=CARTESIAN_POINT('',(18.7638837486628,10.,-32.5));
#434=CARTESIAN_POINT('',(-6.6101842344435E-14,10.,-32.5));
#435=CARTESIAN_POINT('',(18.7638837486628,10.,-32.5));
#436=CARTESIAN_POINT('',(18.7638837486628,10.,-32.5));
#437=CARTESIAN_POINT('',(18.7638837486628,8.67361737988404E-16,-32.5));
#438=CARTESIAN_POINT('',(18.7638837486628,0.,-32.5));
#439=CARTESIAN_POINT('',(37.5277674973257,10.,-6.93889390390723E-15));
#440=CARTESIAN_POINT('',(28.1458256229942,10.,-16.25));
#441=CARTESIAN_POINT('',(37.5277674973257,10.,-6.93889390390723E-15));
#442=CARTESIAN_POINT('',(37.5277674973257,10.,-6.93889390390723E-15));
#443=CARTESIAN_POINT('',(37.5277674973257,2.60208521396521E-15,-8.67361737988404E-15));
#444=CARTESIAN_POINT('',(37.5277674973257,0.,-6.93889390390723E-15));
#445=CARTESIAN_POINT('',(18.7638837486628,10.,32.5));
#446=CARTESIAN_POINT('',(28.1458256229943,10.,16.25));
#447=CARTESIAN_POINT('',(18.7638837486628,10.,32.5));
#448=CARTESIAN_POINT('',(18.7638837486628,10.,32.5));
#449=CARTESIAN_POINT('',(18.7638837486628,0.,32.5));
#450=CARTESIAN_POINT('',(18.7638837486628,0.,32.5));
#451=CARTESIAN_POINT('',(-18.7638837486627,10.,32.5));
#452=CARTESIAN_POINT('',(4.80740671595893E-14,10.,32.5));
#453=CARTESIAN_POINT('',(-18.7638837486627,0.,32.5));
#454=CARTESIAN_POINT('',(0.,-27.,0.));
#455=CARTESIAN_POINT('',(0.,-27.,0.));
#456=CARTESIAN_POINT('',(0.,-27.,-25.5));
#457=CARTESIAN_POINT('',(0.,-27.,0.));
#458=CARTESIAN_POINT('',(0.,-27.,-29.1279137672512));
#459=CARTESIAN_POINT('',(0.,-27.,0.));
#460=CARTESIAN_POINT('',(0.,0.,0.));
#461=CARTESIAN_POINT('',(0.,0.,30.25));
#462=CARTESIAN_POINT('',(0.,-1.3,0.));
#463=CARTESIAN_POINT('',(0.,-1.3,30.25));
#464=CARTESIAN_POINT('',(0.,0.,0.));
#465=CARTESIAN_POINT('',(0.,10.,0.));
#466=CARTESIAN_POINT('',(0.,10.,0.));
#467=CARTESIAN_POINT('',(0.,10.,27.));
#468=CARTESIAN_POINT('',(0.,15.,0.));
#469=CARTESIAN_POINT('',(0.,66.,0.));
#470=CARTESIAN_POINT('',(0.,66.,-25.5));
#471=CARTESIAN_POINT('',(0.,15.,0.));
#472=CARTESIAN_POINT('',(0.,66.,0.));
#473=CARTESIAN_POINT('',(0.,66.,-27.));
#474=CARTESIAN_POINT('',(0.,66.,0.));
#475=CARTESIAN_POINT('',(0.,-1.3,0.));
#476=MECHANICAL_DESIGN_GEOMETRIC_PRESENTATION_REPRESENTATION('',(#215,#216,
#217,#218,#219,#220,#221,#222,#223,#224,#225,#226,#227,#228),#477);
#477=(
GEOMETRIC_REPRESENTATION_CONTEXT(3)
GLOBAL_UNCERTAINTY_ASSIGNED_CONTEXT((#478))
GLOBAL_UNIT_ASSIGNED_CONTEXT((#481,#480,#479))
REPRESENTATION_CONTEXT('F27R2DN54','TOP_LEVEL_ASSEMBLY_PART')
);
#478=UNCERTAINTY_MEASURE_WITH_UNIT(LENGTH_MEASURE(0.005),#481,
'DISTANCE_ACCURACY_VALUE','Maximum Tolerance applied to model');
#479=(
NAMED_UNIT(*)
SI_UNIT($,.STERADIAN.)
SOLID_ANGLE_UNIT()
);
#480=(
NAMED_UNIT(*)
PLANE_ANGLE_UNIT()
SI_UNIT($,.RADIAN.)
);
#481=(
LENGTH_UNIT()
NAMED_UNIT(*)
SI_UNIT(.MILLI.,.METRE.)
);
#482=PRODUCT_DEFINITION_SHAPE('','',#483);
#483=PRODUCT_DEFINITION('','',#485,#484);
#484=PRODUCT_DEFINITION_CONTEXT('',#491,'design');
#485=PRODUCT_DEFINITION_FORMATION_WITH_SPECIFIED_SOURCE('','',#487,
 .NOT_KNOWN.);
#486=PRODUCT_RELATED_PRODUCT_CATEGORY('','',(#487));
#487=PRODUCT('F27R2DN54','F27R2DN54','F27R2DN54',(#489));
#488=PRODUCT_CATEGORY('','');
#489=PRODUCT_CONTEXT('',#491,'mechanical');
#490=APPLICATION_PROTOCOL_DEFINITION('international standard',
'automotive_design',2010,#491);
#491=APPLICATION_CONTEXT(
'core data for automotive mechanical design processes');
ENDSEC;
END-ISO-10303-21;
