ISO-10303-21;
HEADER;
/* Generated by software containing ST-Developer
 * from STEP Tools, Inc. (www.steptools.com) 
 */
/* OPTION: strings as raw bytes, not using required /X/ escapes */

FILE_DESCRIPTION(
/* description */ ('Unknown'),
/* implementation_level */ '2;1');

FILE_NAME(
/* name */ 'F47DN15',
/* time_stamp */ '2019-11-21T11:29:52+01:00',
/* author */ ('Unknown'),
/* organization */ ('Unknown'),
/* preprocessor_version */ 'ST-DEVELOPER v16.7',
/* originating_system */ 'DEX',
/* authorisation */ $);

FILE_SCHEMA (('AUTOMOTIVE_DESIGN {1 0 10303 214 3 1 1}'));
ENDSEC;

DATA;
#10=PROPERTY_DEFINITION_REPRESENTATION(#14,#12);
#11=PROPERTY_DEFINITION_REPRESENTATION(#15,#13);
#12=REPRESENTATION('',(#16),#163);
#13=REPRESENTATION('',(#17),#163);
#14=PROPERTY_DEFINITION('pmi validation property','',#168);
#15=PROPERTY_DEFINITION('pmi validation property','',#168);
#16=VALUE_REPRESENTATION_ITEM('number of annotations',COUNT_MEASURE(0.));
#17=VALUE_REPRESENTATION_ITEM('number of views',COUNT_MEASURE(0.));
#18=SHAPE_REPRESENTATION_RELATIONSHIP('','',#99,#19);
#19=ADVANCED_BREP_SHAPE_REPRESENTATION('',(#97),#163);
#20=CONICAL_SURFACE('',#113,8.5,0.785398163397449);
#21=CYLINDRICAL_SURFACE('',#106,8.74999999999999);
#22=CYLINDRICAL_SURFACE('',#108,10.);
#23=CYLINDRICAL_SURFACE('',#110,7.5);
#24=ORIENTED_EDGE('',*,*,#36,.F.);
#25=ORIENTED_EDGE('',*,*,#37,.F.);
#26=ORIENTED_EDGE('',*,*,#38,.T.);
#27=ORIENTED_EDGE('',*,*,#39,.T.);
#28=ORIENTED_EDGE('',*,*,#36,.T.);
#29=ORIENTED_EDGE('',*,*,#40,.T.);
#30=ORIENTED_EDGE('',*,*,#37,.T.);
#31=ORIENTED_EDGE('',*,*,#41,.T.);
#32=ORIENTED_EDGE('',*,*,#38,.F.);
#33=ORIENTED_EDGE('',*,*,#41,.F.);
#34=ORIENTED_EDGE('',*,*,#40,.F.);
#35=ORIENTED_EDGE('',*,*,#39,.F.);
#36=EDGE_CURVE('',#42,#42,#48,.T.);
#37=EDGE_CURVE('',#43,#43,#49,.T.);
#38=EDGE_CURVE('',#44,#44,#50,.T.);
#39=EDGE_CURVE('',#45,#45,#51,.F.);
#40=EDGE_CURVE('',#46,#46,#52,.F.);
#41=EDGE_CURVE('',#47,#47,#53,.T.);
#42=VERTEX_POINT('',#145);
#43=VERTEX_POINT('',#148);
#44=VERTEX_POINT('',#150);
#45=VERTEX_POINT('',#153);
#46=VERTEX_POINT('',#156);
#47=VERTEX_POINT('',#159);
#48=CIRCLE('',#102,8.74999999999999);
#49=CIRCLE('',#104,10.);
#50=CIRCLE('',#105,7.5);
#51=CIRCLE('',#107,8.74999999999999);
#52=CIRCLE('',#109,10.);
#53=CIRCLE('',#111,7.5);
#54=EDGE_LOOP('',(#24));
#55=EDGE_LOOP('',(#25));
#56=EDGE_LOOP('',(#26));
#57=EDGE_LOOP('',(#27));
#58=EDGE_LOOP('',(#28));
#59=EDGE_LOOP('',(#29));
#60=EDGE_LOOP('',(#30));
#61=EDGE_LOOP('',(#31));
#62=EDGE_LOOP('',(#32));
#63=EDGE_LOOP('',(#33));
#64=EDGE_LOOP('',(#34));
#65=EDGE_LOOP('',(#35));
#66=FACE_BOUND('',#54,.T.);
#67=FACE_BOUND('',#55,.T.);
#68=FACE_BOUND('',#56,.T.);
#69=FACE_BOUND('',#57,.T.);
#70=FACE_BOUND('',#58,.T.);
#71=FACE_BOUND('',#59,.T.);
#72=FACE_BOUND('',#60,.T.);
#73=FACE_BOUND('',#61,.T.);
#74=FACE_BOUND('',#62,.T.);
#75=FACE_BOUND('',#63,.T.);
#76=FACE_BOUND('',#64,.T.);
#77=FACE_BOUND('',#65,.T.);
#78=PLANE('',#101);
#79=PLANE('',#103);
#80=PLANE('',#112);
#81=ADVANCED_FACE('',(#66),#78,.F.);
#82=ADVANCED_FACE('',(#67,#68),#79,.F.);
#83=ADVANCED_FACE('',(#69,#70),#21,.T.);
#84=ADVANCED_FACE('',(#71,#72),#22,.T.);
#85=ADVANCED_FACE('',(#73,#74),#23,.F.);
#86=ADVANCED_FACE('',(#75),#80,.F.);
#87=ADVANCED_FACE('',(#76,#77),#20,.T.);
#88=CLOSED_SHELL('',(#81,#82,#83,#84,#85,#86,#87));
#89=STYLED_ITEM('',(#90),#97);
#90=PRESENTATION_STYLE_ASSIGNMENT((#91));
#91=SURFACE_STYLE_USAGE(.BOTH.,#92);
#92=SURFACE_SIDE_STYLE('',(#93));
#93=SURFACE_STYLE_FILL_AREA(#94);
#94=FILL_AREA_STYLE('',(#95));
#95=FILL_AREA_STYLE_COLOUR('',#96);
#96=COLOUR_RGB('',0.752941191196442,0.752941191196442,0.752941191196442);
#97=MANIFOLD_SOLID_BREP('',#88);
#98=SHAPE_DEFINITION_REPRESENTATION(#168,#99);
#99=SHAPE_REPRESENTATION('F47DN15',(#100),#163);
#100=AXIS2_PLACEMENT_3D('',#142,#114,#115);
#101=AXIS2_PLACEMENT_3D('',#143,#116,#117);
#102=AXIS2_PLACEMENT_3D('',#144,#118,#119);
#103=AXIS2_PLACEMENT_3D('',#146,#120,#121);
#104=AXIS2_PLACEMENT_3D('',#147,#122,#123);
#105=AXIS2_PLACEMENT_3D('',#149,#124,#125);
#106=AXIS2_PLACEMENT_3D('',#151,#126,#127);
#107=AXIS2_PLACEMENT_3D('',#152,#128,#129);
#108=AXIS2_PLACEMENT_3D('',#154,#130,#131);
#109=AXIS2_PLACEMENT_3D('',#155,#132,#133);
#110=AXIS2_PLACEMENT_3D('',#157,#134,#135);
#111=AXIS2_PLACEMENT_3D('',#158,#136,#137);
#112=AXIS2_PLACEMENT_3D('',#160,#138,#139);
#113=AXIS2_PLACEMENT_3D('',#161,#140,#141);
#114=DIRECTION('',(0.,0.,1.));
#115=DIRECTION('',(1.,0.,0.));
#116=DIRECTION('',(-1.19403062916867E-15,0.,-1.));
#117=DIRECTION('',(-1.,0.,1.19403062916867E-15));
#118=DIRECTION('',(-1.19403062916867E-15,0.,-1.));
#119=DIRECTION('',(-1.,0.,1.19403062916867E-15));
#120=DIRECTION('',(1.18952466924124E-15,5.35995049229082E-33,1.));
#121=DIRECTION('',(1.,0.,-1.18952466924124E-15));
#122=DIRECTION('',(1.18952466924124E-15,5.35995049229082E-33,1.));
#123=DIRECTION('',(1.,-1.18952466924124E-15,-1.18952466924124E-15));
#124=DIRECTION('',(1.21430643318376E-15,-2.47327048887576E-32,1.));
#125=DIRECTION('',(1.,-1.21430643318376E-15,-1.21430643318376E-15));
#126=DIRECTION('',(-1.19403062916867E-15,0.,-1.));
#127=DIRECTION('',(-1.,0.,1.19403062916867E-15));
#128=DIRECTION('',(-1.19403062916867E-15,0.,-1.));
#129=DIRECTION('',(-1.,0.,1.19403062916867E-15));
#130=DIRECTION('',(1.19403062916867E-15,0.,1.));
#131=DIRECTION('',(1.,0.,-1.19403062916867E-15));
#132=DIRECTION('',(1.19403062916867E-15,0.,1.));
#133=DIRECTION('',(1.,0.,-1.19403062916867E-15));
#134=DIRECTION('',(-1.18952466924124E-15,-5.35995049229082E-33,-1.));
#135=DIRECTION('',(-1.,0.,1.18952466924124E-15));
#136=DIRECTION('',(1.21430643318376E-15,-2.47327048887576E-32,1.));
#137=DIRECTION('',(1.,-1.21430643318376E-15,-1.21430643318376E-15));
#138=DIRECTION('',(1.21430643318376E-15,-2.47327048887576E-32,1.));
#139=DIRECTION('',(1.,0.,-1.21430643318376E-15));
#140=DIRECTION('',(-1.19403062916867E-15,0.,-1.));
#141=DIRECTION('',(-1.,0.,1.19403062916867E-15));
#142=CARTESIAN_POINT('',(0.,0.,0.));
#143=CARTESIAN_POINT('',(-4.31278851439875E-15,0.,-2.50000000000001));
#144=CARTESIAN_POINT('',(-4.31278851439875E-15,0.,-2.50000000000001));
#145=CARTESIAN_POINT('',(-8.74999999999999,0.,-2.5));
#146=CARTESIAN_POINT('',(-4.28649913535266E-14,5.13170824337702E-46,-30.5));
#147=CARTESIAN_POINT('',(-4.28649913535266E-14,5.13170824337702E-46,-30.5));
#148=CARTESIAN_POINT('',(9.99999999999996,-1.18952466924124E-14,-30.5));
#149=CARTESIAN_POINT('',(-4.28649913535266E-14,-6.84227765783602E-46,-30.5));
#150=CARTESIAN_POINT('',(7.49999999999996,-9.10729824887822E-15,-30.5));
#151=CARTESIAN_POINT('',(-2.62686738417107E-15,0.,4.19940685472272));
#152=CARTESIAN_POINT('',(-9.73064139409603E-15,5.13170824337702E-46,-3.75));
#153=CARTESIAN_POINT('',(-8.75,5.13170824337702E-46,-3.74999999999999));
#154=CARTESIAN_POINT('',(-4.28649913535266E-14,5.13170824337702E-46,-30.5));
#155=CARTESIAN_POINT('',(-1.12231796805569E-14,5.13170824337702E-46,-5.00000000000001));
#156=CARTESIAN_POINT('',(9.99999999999999,5.13170824337702E-46,-5.00000000000002));
#157=CARTESIAN_POINT('',(-1.90744979687018E-14,1.07199009845816E-31,-10.5));
#158=CARTESIAN_POINT('',(-1.90744979687018E-14,1.07199009845816E-31,-10.5));
#159=CARTESIAN_POINT('',(7.49999999999998,-9.10729824887822E-15,-10.5));
#160=CARTESIAN_POINT('',(-1.90744979687018E-14,1.07199009845816E-31,-10.5));
#161=CARTESIAN_POINT('',(-9.43213373680388E-15,5.13170824337702E-46,-3.50000000000001));
#162=MECHANICAL_DESIGN_GEOMETRIC_PRESENTATION_REPRESENTATION('',(#89),#163);
#163=(
GEOMETRIC_REPRESENTATION_CONTEXT(3)
GLOBAL_UNCERTAINTY_ASSIGNED_CONTEXT((#164))
GLOBAL_UNIT_ASSIGNED_CONTEXT((#167,#166,#165))
REPRESENTATION_CONTEXT('F47DN15','TOP_LEVEL_ASSEMBLY_PART')
);
#164=UNCERTAINTY_MEASURE_WITH_UNIT(LENGTH_MEASURE(0.005),#167,
'DISTANCE_ACCURACY_VALUE','Maximum Tolerance applied to model');
#165=(
NAMED_UNIT(*)
SI_UNIT($,.STERADIAN.)
SOLID_ANGLE_UNIT()
);
#166=(
NAMED_UNIT(*)
PLANE_ANGLE_UNIT()
SI_UNIT($,.RADIAN.)
);
#167=(
LENGTH_UNIT()
NAMED_UNIT(*)
SI_UNIT(.MILLI.,.METRE.)
);
#168=PRODUCT_DEFINITION_SHAPE('','',#169);
#169=PRODUCT_DEFINITION('','',#171,#170);
#170=PRODUCT_DEFINITION_CONTEXT('',#177,'design');
#171=PRODUCT_DEFINITION_FORMATION_WITH_SPECIFIED_SOURCE('','',#173,
 .NOT_KNOWN.);
#172=PRODUCT_RELATED_PRODUCT_CATEGORY('','',(#173));
#173=PRODUCT('F47DN15','F47DN15','F47DN15',(#175));
#174=PRODUCT_CATEGORY('','');
#175=PRODUCT_CONTEXT('',#177,'mechanical');
#176=APPLICATION_PROTOCOL_DEFINITION('international standard',
'automotive_design',2010,#177);
#177=APPLICATION_CONTEXT(
'core data for automotive mechanical design processes');
ENDSEC;
END-ISO-10303-21;
