ISO-10303-21;
HEADER;
/* Generated by software containing ST-Developer
 * from STEP Tools, Inc. (www.steptools.com) 
 */
/* OPTION: strings as raw bytes, not using required /X/ escapes */

FILE_DESCRIPTION(
/* description */ ('Unknown'),
/* implementation_level */ '2;1');

FILE_NAME(
/* name */ 'F47DN18',
/* time_stamp */ '2019-11-21T11:29:32+01:00',
/* author */ ('Unknown'),
/* organization */ ('Unknown'),
/* preprocessor_version */ 'ST-DEVELOPER v16.7',
/* originating_system */ 'DEX',
/* authorisation */ $);

FILE_SCHEMA (('AUTOMOTIVE_DESIGN {1 0 10303 214 3 1 1}'));
ENDSEC;

DATA;
#10=PROPERTY_DEFINITION_REPRESENTATION(#14,#12);
#11=PROPERTY_DEFINITION_REPRESENTATION(#15,#13);
#12=REPRESENTATION('',(#16),#223);
#13=REPRESENTATION('',(#17),#223);
#14=PROPERTY_DEFINITION('pmi validation property','',#228);
#15=PROPERTY_DEFINITION('pmi validation property','',#228);
#16=VALUE_REPRESENTATION_ITEM('number of annotations',COUNT_MEASURE(0.));
#17=VALUE_REPRESENTATION_ITEM('number of views',COUNT_MEASURE(0.));
#18=SHAPE_REPRESENTATION_RELATIONSHIP('','',#132,#19);
#19=ADVANCED_BREP_SHAPE_REPRESENTATION('',(#130),#223);
#20=CONICAL_SURFACE('',#149,10.,0.785398163397448);
#21=CYLINDRICAL_SURFACE('',#140,9.75000000000001);
#22=CYLINDRICAL_SURFACE('',#144,11.5);
#23=CYLINDRICAL_SURFACE('',#146,9.);
#24=CYLINDRICAL_SURFACE('',#150,8.25000000000001);
#25=ORIENTED_EDGE('',*,*,#43,.F.);
#26=ORIENTED_EDGE('',*,*,#44,.T.);
#27=ORIENTED_EDGE('',*,*,#45,.F.);
#28=ORIENTED_EDGE('',*,*,#46,.T.);
#29=ORIENTED_EDGE('',*,*,#47,.F.);
#30=ORIENTED_EDGE('',*,*,#44,.F.);
#31=ORIENTED_EDGE('',*,*,#48,.T.);
#32=ORIENTED_EDGE('',*,*,#47,.T.);
#33=ORIENTED_EDGE('',*,*,#49,.T.);
#34=ORIENTED_EDGE('',*,*,#45,.T.);
#35=ORIENTED_EDGE('',*,*,#50,.T.);
#36=ORIENTED_EDGE('',*,*,#46,.F.);
#37=ORIENTED_EDGE('',*,*,#50,.F.);
#38=ORIENTED_EDGE('',*,*,#49,.F.);
#39=ORIENTED_EDGE('',*,*,#48,.F.);
#40=ORIENTED_EDGE('',*,*,#51,.F.);
#41=ORIENTED_EDGE('',*,*,#43,.T.);
#42=ORIENTED_EDGE('',*,*,#51,.T.);
#43=EDGE_CURVE('',#52,#52,#61,.F.);
#44=EDGE_CURVE('',#53,#53,#62,.F.);
#45=EDGE_CURVE('',#54,#54,#63,.T.);
#46=EDGE_CURVE('',#55,#55,#64,.T.);
#47=EDGE_CURVE('',#56,#56,#65,.F.);
#48=EDGE_CURVE('',#57,#57,#66,.T.);
#49=EDGE_CURVE('',#58,#58,#67,.T.);
#50=EDGE_CURVE('',#59,#59,#68,.T.);
#51=EDGE_CURVE('',#60,#60,#69,.T.);
#52=VERTEX_POINT('',#196);
#53=VERTEX_POINT('',#198);
#54=VERTEX_POINT('',#201);
#55=VERTEX_POINT('',#203);
#56=VERTEX_POINT('',#206);
#57=VERTEX_POINT('',#209);
#58=VERTEX_POINT('',#212);
#59=VERTEX_POINT('',#215);
#60=VERTEX_POINT('',#220);
#61=CIRCLE('',#135,8.25000000000001);
#62=CIRCLE('',#136,9.75000000000001);
#63=CIRCLE('',#138,11.5);
#64=CIRCLE('',#139,9.);
#65=CIRCLE('',#141,9.75000000000001);
#66=CIRCLE('',#143,10.);
#67=CIRCLE('',#145,11.5);
#68=CIRCLE('',#147,9.);
#69=CIRCLE('',#151,8.25000000000001);
#70=EDGE_LOOP('',(#25));
#71=EDGE_LOOP('',(#26));
#72=EDGE_LOOP('',(#27));
#73=EDGE_LOOP('',(#28));
#74=EDGE_LOOP('',(#29));
#75=EDGE_LOOP('',(#30));
#76=EDGE_LOOP('',(#31));
#77=EDGE_LOOP('',(#32));
#78=EDGE_LOOP('',(#33));
#79=EDGE_LOOP('',(#34));
#80=EDGE_LOOP('',(#35));
#81=EDGE_LOOP('',(#36));
#82=EDGE_LOOP('',(#37));
#83=EDGE_LOOP('',(#38));
#84=EDGE_LOOP('',(#39));
#85=EDGE_LOOP('',(#40));
#86=EDGE_LOOP('',(#41));
#87=EDGE_LOOP('',(#42));
#88=FACE_BOUND('',#70,.T.);
#89=FACE_BOUND('',#71,.T.);
#90=FACE_BOUND('',#72,.T.);
#91=FACE_BOUND('',#73,.T.);
#92=FACE_BOUND('',#74,.T.);
#93=FACE_BOUND('',#75,.T.);
#94=FACE_BOUND('',#76,.T.);
#95=FACE_BOUND('',#77,.T.);
#96=FACE_BOUND('',#78,.T.);
#97=FACE_BOUND('',#79,.T.);
#98=FACE_BOUND('',#80,.T.);
#99=FACE_BOUND('',#81,.T.);
#100=FACE_BOUND('',#82,.T.);
#101=FACE_BOUND('',#83,.T.);
#102=FACE_BOUND('',#84,.T.);
#103=FACE_BOUND('',#85,.T.);
#104=FACE_BOUND('',#86,.T.);
#105=FACE_BOUND('',#87,.T.);
#106=PLANE('',#134);
#107=PLANE('',#137);
#108=PLANE('',#142);
#109=PLANE('',#148);
#110=PLANE('',#152);
#111=ADVANCED_FACE('',(#88,#89),#106,.F.);
#112=ADVANCED_FACE('',(#90,#91),#107,.F.);
#113=ADVANCED_FACE('',(#92,#93),#21,.T.);
#114=ADVANCED_FACE('',(#94,#95),#108,.T.);
#115=ADVANCED_FACE('',(#96,#97),#22,.T.);
#116=ADVANCED_FACE('',(#98,#99),#23,.F.);
#117=ADVANCED_FACE('',(#100),#109,.F.);
#118=ADVANCED_FACE('',(#101,#102),#20,.T.);
#119=ADVANCED_FACE('',(#103,#104),#24,.F.);
#120=ADVANCED_FACE('',(#105),#110,.T.);
#121=CLOSED_SHELL('',(#111,#112,#113,#114,#115,#116,#117,#118,#119,#120));
#122=STYLED_ITEM('',(#123),#130);
#123=PRESENTATION_STYLE_ASSIGNMENT((#124));
#124=SURFACE_STYLE_USAGE(.BOTH.,#125);
#125=SURFACE_SIDE_STYLE('',(#126));
#126=SURFACE_STYLE_FILL_AREA(#127);
#127=FILL_AREA_STYLE('',(#128));
#128=FILL_AREA_STYLE_COLOUR('',#129);
#129=COLOUR_RGB('',0.579999983310699,0.,0.829999983310699);
#130=MANIFOLD_SOLID_BREP('',#121);
#131=SHAPE_DEFINITION_REPRESENTATION(#228,#132);
#132=SHAPE_REPRESENTATION('F47DN18',(#133),#223);
#133=AXIS2_PLACEMENT_3D('',#193,#153,#154);
#134=AXIS2_PLACEMENT_3D('',#194,#155,#156);
#135=AXIS2_PLACEMENT_3D('',#195,#157,#158);
#136=AXIS2_PLACEMENT_3D('',#197,#159,#160);
#137=AXIS2_PLACEMENT_3D('',#199,#161,#162);
#138=AXIS2_PLACEMENT_3D('',#200,#163,#164);
#139=AXIS2_PLACEMENT_3D('',#202,#165,#166);
#140=AXIS2_PLACEMENT_3D('',#204,#167,#168);
#141=AXIS2_PLACEMENT_3D('',#205,#169,#170);
#142=AXIS2_PLACEMENT_3D('',#207,#171,#172);
#143=AXIS2_PLACEMENT_3D('',#208,#173,#174);
#144=AXIS2_PLACEMENT_3D('',#210,#175,#176);
#145=AXIS2_PLACEMENT_3D('',#211,#177,#178);
#146=AXIS2_PLACEMENT_3D('',#213,#179,#180);
#147=AXIS2_PLACEMENT_3D('',#214,#181,#182);
#148=AXIS2_PLACEMENT_3D('',#216,#183,#184);
#149=AXIS2_PLACEMENT_3D('',#217,#185,#186);
#150=AXIS2_PLACEMENT_3D('',#218,#187,#188);
#151=AXIS2_PLACEMENT_3D('',#219,#189,#190);
#152=AXIS2_PLACEMENT_3D('',#221,#191,#192);
#153=DIRECTION('',(0.,0.,1.));
#154=DIRECTION('',(1.,0.,0.));
#155=DIRECTION('',(5.79170763016246E-16,0.,-1.));
#156=DIRECTION('',(-1.,0.,-5.79170763016246E-16));
#157=DIRECTION('',(5.79170763016246E-16,0.,-1.));
#158=DIRECTION('',(-1.,0.,-5.79170763016246E-16));
#159=DIRECTION('',(5.79170763016246E-16,0.,-1.));
#160=DIRECTION('',(-1.,0.,-5.79170763016246E-16));
#161=DIRECTION('',(-5.33761069531325E-16,2.82775809885349E-32,1.));
#162=DIRECTION('',(1.,0.,5.33761069531325E-16));
#163=DIRECTION('',(-5.33761069531325E-16,2.82775809885349E-32,1.));
#164=DIRECTION('',(1.,6.22721247786546E-16,5.33761069531325E-16));
#165=DIRECTION('',(-5.2795931877555E-16,3.17782534190771E-32,1.));
#166=DIRECTION('',(1.,6.03382078600628E-16,5.2795931877555E-16));
#167=DIRECTION('',(-5.79170763016246E-16,0.,1.));
#168=DIRECTION('',(1.,0.,5.79170763016246E-16));
#169=DIRECTION('',(-5.33761069531325E-16,2.82775809885349E-32,1.));
#170=DIRECTION('',(1.,0.,5.33761069531325E-16));
#171=DIRECTION('',(-5.33761069531325E-16,2.82775809885349E-32,1.));
#172=DIRECTION('',(1.,0.,5.33761069531325E-16));
#173=DIRECTION('',(-5.33761069531325E-16,2.82775809885349E-32,1.));
#174=DIRECTION('',(1.,0.,5.33761069531325E-16));
#175=DIRECTION('',(-5.79170763016246E-16,0.,1.));
#176=DIRECTION('',(1.,0.,5.79170763016246E-16));
#177=DIRECTION('',(5.79170763016247E-16,0.,-1.));
#178=DIRECTION('',(-1.,0.,-5.79170763016247E-16));
#179=DIRECTION('',(5.33761069531325E-16,-2.82775809885349E-32,-1.));
#180=DIRECTION('',(-1.,0.,-5.33761069531325E-16));
#181=DIRECTION('',(-5.2795931877555E-16,3.17782534190771E-32,1.));
#182=DIRECTION('',(1.,6.03382078600628E-16,5.2795931877555E-16));
#183=DIRECTION('',(-5.2795931877555E-16,3.17782534190771E-32,1.));
#184=DIRECTION('',(1.,0.,5.2795931877555E-16));
#185=DIRECTION('',(5.79170763016247E-16,0.,-1.));
#186=DIRECTION('',(-1.,0.,-5.79170763016247E-16));
#187=DIRECTION('',(-5.79170763016246E-16,0.,1.));
#188=DIRECTION('',(1.,0.,5.79170763016246E-16));
#189=DIRECTION('',(-5.79170763016246E-16,0.,1.));
#190=DIRECTION('',(1.,0.,5.79170763016246E-16));
#191=DIRECTION('',(-5.33761069531325E-16,2.82775809885349E-32,1.));
#192=DIRECTION('',(1.,0.,5.33761069531325E-16));
#193=CARTESIAN_POINT('',(0.,0.,0.));
#194=CARTESIAN_POINT('',(5.04443799830048E-15,0.,18.3718053245299));
#195=CARTESIAN_POINT('',(8.73954746634413E-15,0.,18.3718053245299));
#196=CARTESIAN_POINT('',(-8.25,0.,18.3718053245299));
#197=CARTESIAN_POINT('',(5.04443799830048E-15,0.,18.3718053245299));
#198=CARTESIAN_POINT('',(-9.75,0.,18.3718053245299));
#199=CARTESIAN_POINT('',(5.57676312795369E-15,1.3684555315672E-45,-9.62887542684411));
#200=CARTESIAN_POINT('',(5.57676312795369E-15,1.3684555315672E-45,-9.62887542684411));
#201=CARTESIAN_POINT('',(11.5,7.16129434954527E-15,-9.62887542684411));
#202=CARTESIAN_POINT('',(5.57676312795369E-15,1.28292706084425E-45,-9.62887542684412));
#203=CARTESIAN_POINT('',(9.00000000000001,5.43043870740565E-15,-9.62887542684411));
#204=CARTESIAN_POINT('',(4.33824393871337E-15,0.,25.9711245731559));
#205=CARTESIAN_POINT('',(8.59514904688278E-15,0.,17.6211245731559));
#206=CARTESIAN_POINT('',(9.75000000000001,0.,17.6211245731559));
#207=CARTESIAN_POINT('',(-1.07848109272553E-14,1.3684555315672E-45,17.6211245731559));
#208=CARTESIAN_POINT('',(-9.7515432293898E-15,1.3684555315672E-45,17.6211245731559));
#209=CARTESIAN_POINT('',(9.99999999999999,1.3684555315672E-45,17.6211245731559));
#210=CARTESIAN_POINT('',(5.57676312795369E-15,1.3684555315672E-45,-9.62887542684411));
#211=CARTESIAN_POINT('',(-9.33688401971465E-15,1.3684555315672E-45,16.1211245731559));
#212=CARTESIAN_POINT('',(-11.5,1.3684555315672E-45,16.1211245731559));
#213=CARTESIAN_POINT('',(-5.0984582626728E-15,5.65551619770699E-31,10.3711245731559));
#214=CARTESIAN_POINT('',(-5.0984582626728E-15,5.65551619770699E-31,10.3711245731559));
#215=CARTESIAN_POINT('',(9.,5.43043870740566E-15,10.3711245731559));
#216=CARTESIAN_POINT('',(-5.0984582626728E-15,5.65551619770699E-31,10.3711245731559));
#217=CARTESIAN_POINT('',(-1.0205640164239E-14,1.3684555315672E-45,17.6211245731559));
#218=CARTESIAN_POINT('',(4.33824393871337E-15,0.,25.9711245731559));
#219=CARTESIAN_POINT('',(8.59514904688278E-15,0.,17.6211245731559));
#220=CARTESIAN_POINT('',(8.25000000000002,0.,17.6211245731559));
#221=CARTESIAN_POINT('',(-1.07848109272553E-14,1.3684555315672E-45,17.6211245731559));
#222=MECHANICAL_DESIGN_GEOMETRIC_PRESENTATION_REPRESENTATION('',(#122),
#223);
#223=(
GEOMETRIC_REPRESENTATION_CONTEXT(3)
GLOBAL_UNCERTAINTY_ASSIGNED_CONTEXT((#224))
GLOBAL_UNIT_ASSIGNED_CONTEXT((#227,#226,#225))
REPRESENTATION_CONTEXT('F47DN18','TOP_LEVEL_ASSEMBLY_PART')
);
#224=UNCERTAINTY_MEASURE_WITH_UNIT(LENGTH_MEASURE(0.005),#227,
'DISTANCE_ACCURACY_VALUE','Maximum Tolerance applied to model');
#225=(
NAMED_UNIT(*)
SI_UNIT($,.STERADIAN.)
SOLID_ANGLE_UNIT()
);
#226=(
NAMED_UNIT(*)
PLANE_ANGLE_UNIT()
SI_UNIT($,.RADIAN.)
);
#227=(
LENGTH_UNIT()
NAMED_UNIT(*)
SI_UNIT(.MILLI.,.METRE.)
);
#228=PRODUCT_DEFINITION_SHAPE('','',#229);
#229=PRODUCT_DEFINITION('','',#231,#230);
#230=PRODUCT_DEFINITION_CONTEXT('',#237,'design');
#231=PRODUCT_DEFINITION_FORMATION_WITH_SPECIFIED_SOURCE('','',#233,
 .NOT_KNOWN.);
#232=PRODUCT_RELATED_PRODUCT_CATEGORY('','',(#233));
#233=PRODUCT('F47DN18','F47DN18','F47DN18',(#235));
#234=PRODUCT_CATEGORY('','');
#235=PRODUCT_CONTEXT('',#237,'mechanical');
#236=APPLICATION_PROTOCOL_DEFINITION('international standard',
'automotive_design',2010,#237);
#237=APPLICATION_CONTEXT(
'core data for automotive mechanical design processes');
ENDSEC;
END-ISO-10303-21;
