ISO-10303-21;
HEADER;
/* Generated by software containing ST-Developer
 * from STEP Tools, Inc. (www.steptools.com) 
 */
/* OPTION: strings as raw bytes, not using required /X/ escapes */

FILE_DESCRIPTION(
/* description */ ('Unknown'),
/* implementation_level */ '2;1');

FILE_NAME(
/* name */ 'F47DN28',
/* time_stamp */ '2019-11-21T11:28:45+01:00',
/* author */ ('Unknown'),
/* organization */ ('Unknown'),
/* preprocessor_version */ 'ST-DEVELOPER v16.7',
/* originating_system */ 'DEX',
/* authorisation */ $);

FILE_SCHEMA (('AUTOMOTIVE_DESIGN {1 0 10303 214 3 1 1}'));
ENDSEC;

DATA;
#10=PROPERTY_DEFINITION_REPRESENTATION(#14,#12);
#11=PROPERTY_DEFINITION_REPRESENTATION(#15,#13);
#12=REPRESENTATION('',(#16),#183);
#13=REPRESENTATION('',(#17),#183);
#14=PROPERTY_DEFINITION('pmi validation property','',#188);
#15=PROPERTY_DEFINITION('pmi validation property','',#188);
#16=VALUE_REPRESENTATION_ITEM('number of annotations',COUNT_MEASURE(0.));
#17=VALUE_REPRESENTATION_ITEM('number of views',COUNT_MEASURE(0.));
#18=SHAPE_REPRESENTATION_RELATIONSHIP('','',#110,#19);
#19=ADVANCED_BREP_SHAPE_REPRESENTATION('',(#108),#183);
#20=CONICAL_SURFACE('',#126,15.,0.785398163397449);
#21=CYLINDRICAL_SURFACE('',#120,16.5);
#22=CYLINDRICAL_SURFACE('',#122,14.75);
#23=CYLINDRICAL_SURFACE('',#123,14.);
#24=ORIENTED_EDGE('',*,*,#38,.F.);
#25=ORIENTED_EDGE('',*,*,#39,.F.);
#26=ORIENTED_EDGE('',*,*,#40,.T.);
#27=ORIENTED_EDGE('',*,*,#41,.T.);
#28=ORIENTED_EDGE('',*,*,#42,.T.);
#29=ORIENTED_EDGE('',*,*,#43,.T.);
#30=ORIENTED_EDGE('',*,*,#39,.T.);
#31=ORIENTED_EDGE('',*,*,#42,.F.);
#32=ORIENTED_EDGE('',*,*,#38,.T.);
#33=ORIENTED_EDGE('',*,*,#44,.T.);
#34=ORIENTED_EDGE('',*,*,#40,.F.);
#35=ORIENTED_EDGE('',*,*,#44,.F.);
#36=ORIENTED_EDGE('',*,*,#43,.F.);
#37=ORIENTED_EDGE('',*,*,#41,.F.);
#38=EDGE_CURVE('',#45,#45,#52,.T.);
#39=EDGE_CURVE('',#46,#46,#53,.T.);
#40=EDGE_CURVE('',#47,#47,#54,.T.);
#41=EDGE_CURVE('',#48,#48,#55,.T.);
#42=EDGE_CURVE('',#49,#49,#56,.T.);
#43=EDGE_CURVE('',#50,#50,#57,.T.);
#44=EDGE_CURVE('',#51,#51,#58,.T.);
#45=VERTEX_POINT('',#162);
#46=VERTEX_POINT('',#165);
#47=VERTEX_POINT('',#167);
#48=VERTEX_POINT('',#170);
#49=VERTEX_POINT('',#172);
#50=VERTEX_POINT('',#175);
#51=VERTEX_POINT('',#179);
#52=CIRCLE('',#113,14.75);
#53=CIRCLE('',#115,16.5);
#54=CIRCLE('',#116,14.);
#55=CIRCLE('',#118,15.);
#56=CIRCLE('',#119,14.75);
#57=CIRCLE('',#121,16.5);
#58=CIRCLE('',#124,14.);
#59=EDGE_LOOP('',(#24));
#60=EDGE_LOOP('',(#25));
#61=EDGE_LOOP('',(#26));
#62=EDGE_LOOP('',(#27));
#63=EDGE_LOOP('',(#28));
#64=EDGE_LOOP('',(#29));
#65=EDGE_LOOP('',(#30));
#66=EDGE_LOOP('',(#31));
#67=EDGE_LOOP('',(#32));
#68=EDGE_LOOP('',(#33));
#69=EDGE_LOOP('',(#34));
#70=EDGE_LOOP('',(#35));
#71=EDGE_LOOP('',(#36));
#72=EDGE_LOOP('',(#37));
#73=FACE_BOUND('',#59,.T.);
#74=FACE_BOUND('',#60,.T.);
#75=FACE_BOUND('',#61,.T.);
#76=FACE_BOUND('',#62,.T.);
#77=FACE_BOUND('',#63,.T.);
#78=FACE_BOUND('',#64,.T.);
#79=FACE_BOUND('',#65,.T.);
#80=FACE_BOUND('',#66,.T.);
#81=FACE_BOUND('',#67,.T.);
#82=FACE_BOUND('',#68,.T.);
#83=FACE_BOUND('',#69,.T.);
#84=FACE_BOUND('',#70,.T.);
#85=FACE_BOUND('',#71,.T.);
#86=FACE_BOUND('',#72,.T.);
#87=PLANE('',#112);
#88=PLANE('',#114);
#89=PLANE('',#117);
#90=PLANE('',#125);
#91=ADVANCED_FACE('',(#73),#87,.F.);
#92=ADVANCED_FACE('',(#74,#75),#88,.F.);
#93=ADVANCED_FACE('',(#76,#77),#89,.T.);
#94=ADVANCED_FACE('',(#78,#79),#21,.T.);
#95=ADVANCED_FACE('',(#80,#81),#22,.T.);
#96=ADVANCED_FACE('',(#82,#83),#23,.F.);
#97=ADVANCED_FACE('',(#84),#90,.F.);
#98=ADVANCED_FACE('',(#85,#86),#20,.T.);
#99=CLOSED_SHELL('',(#91,#92,#93,#94,#95,#96,#97,#98));
#100=STYLED_ITEM('',(#101),#108);
#101=PRESENTATION_STYLE_ASSIGNMENT((#102));
#102=SURFACE_STYLE_USAGE(.BOTH.,#103);
#103=SURFACE_SIDE_STYLE('',(#104));
#104=SURFACE_STYLE_FILL_AREA(#105);
#105=FILL_AREA_STYLE('',(#106));
#106=FILL_AREA_STYLE_COLOUR('',#107);
#107=COLOUR_RGB('',0.899999976158142,0.,0.);
#108=MANIFOLD_SOLID_BREP('',#99);
#109=SHAPE_DEFINITION_REPRESENTATION(#188,#110);
#110=SHAPE_REPRESENTATION('F47DN28',(#111),#183);
#111=AXIS2_PLACEMENT_3D('',#159,#127,#128);
#112=AXIS2_PLACEMENT_3D('',#160,#129,#130);
#113=AXIS2_PLACEMENT_3D('',#161,#131,#132);
#114=AXIS2_PLACEMENT_3D('',#163,#133,#134);
#115=AXIS2_PLACEMENT_3D('',#164,#135,#136);
#116=AXIS2_PLACEMENT_3D('',#166,#137,#138);
#117=AXIS2_PLACEMENT_3D('',#168,#139,#140);
#118=AXIS2_PLACEMENT_3D('',#169,#141,#142);
#119=AXIS2_PLACEMENT_3D('',#171,#143,#144);
#120=AXIS2_PLACEMENT_3D('',#173,#145,#146);
#121=AXIS2_PLACEMENT_3D('',#174,#147,#148);
#122=AXIS2_PLACEMENT_3D('',#176,#149,#150);
#123=AXIS2_PLACEMENT_3D('',#177,#151,#152);
#124=AXIS2_PLACEMENT_3D('',#178,#153,#154);
#125=AXIS2_PLACEMENT_3D('',#180,#155,#156);
#126=AXIS2_PLACEMENT_3D('',#181,#157,#158);
#127=DIRECTION('',(0.,0.,1.));
#128=DIRECTION('',(1.,0.,0.));
#129=DIRECTION('',(0.,0.,-1.));
#130=DIRECTION('',(-1.,0.,0.));
#131=DIRECTION('',(0.,0.,-1.));
#132=DIRECTION('',(-1.,0.,0.));
#133=DIRECTION('',(0.,0.,1.));
#134=DIRECTION('',(1.,0.,0.));
#135=DIRECTION('',(0.,0.,1.));
#136=DIRECTION('',(1.,0.,0.));
#137=DIRECTION('',(0.,0.,1.));
#138=DIRECTION('',(1.,0.,0.));
#139=DIRECTION('',(0.,0.,1.));
#140=DIRECTION('',(1.,0.,0.));
#141=DIRECTION('',(0.,0.,1.));
#142=DIRECTION('',(1.,0.,0.));
#143=DIRECTION('',(0.,0.,-1.));
#144=DIRECTION('',(-1.,0.,0.));
#145=DIRECTION('',(0.,0.,1.));
#146=DIRECTION('',(1.,0.,0.));
#147=DIRECTION('',(0.,0.,-1.));
#148=DIRECTION('',(-1.,0.,0.));
#149=DIRECTION('',(0.,0.,-1.));
#150=DIRECTION('',(-1.,0.,0.));
#151=DIRECTION('',(0.,0.,-1.));
#152=DIRECTION('',(-1.,0.,0.));
#153=DIRECTION('',(0.,0.,1.));
#154=DIRECTION('',(1.,0.,0.));
#155=DIRECTION('',(0.,0.,1.));
#156=DIRECTION('',(1.,0.,0.));
#157=DIRECTION('',(0.,0.,-1.));
#158=DIRECTION('',(-1.,0.,0.));
#159=CARTESIAN_POINT('',(0.,0.,0.));
#160=CARTESIAN_POINT('',(0.,0.,17.25));
#161=CARTESIAN_POINT('',(0.,0.,17.25));
#162=CARTESIAN_POINT('',(-14.75,0.,17.25));
#163=CARTESIAN_POINT('',(0.,0.,-13.25));
#164=CARTESIAN_POINT('',(0.,0.,-13.25));
#165=CARTESIAN_POINT('',(16.5,0.,-13.25));
#166=CARTESIAN_POINT('',(0.,0.,-13.25));
#167=CARTESIAN_POINT('',(14.,0.,-13.25));
#168=CARTESIAN_POINT('',(0.,0.,16.2));
#169=CARTESIAN_POINT('',(0.,0.,16.2));
#170=CARTESIAN_POINT('',(15.,0.,16.2));
#171=CARTESIAN_POINT('',(0.,0.,16.2));
#172=CARTESIAN_POINT('',(-14.75,0.,16.2));
#173=CARTESIAN_POINT('',(0.,0.,-13.25));
#174=CARTESIAN_POINT('',(0.,0.,14.7));
#175=CARTESIAN_POINT('',(-16.5,0.,14.7));
#176=CARTESIAN_POINT('',(0.,0.,-0.350781166029246));
#177=CARTESIAN_POINT('',(0.,0.,8.95));
#178=CARTESIAN_POINT('',(0.,0.,8.95));
#179=CARTESIAN_POINT('',(14.,0.,8.95));
#180=CARTESIAN_POINT('',(0.,0.,8.95));
#181=CARTESIAN_POINT('',(0.,0.,16.2));
#182=MECHANICAL_DESIGN_GEOMETRIC_PRESENTATION_REPRESENTATION('',(#100),
#183);
#183=(
GEOMETRIC_REPRESENTATION_CONTEXT(3)
GLOBAL_UNCERTAINTY_ASSIGNED_CONTEXT((#184))
GLOBAL_UNIT_ASSIGNED_CONTEXT((#187,#186,#185))
REPRESENTATION_CONTEXT('F47DN28','TOP_LEVEL_ASSEMBLY_PART')
);
#184=UNCERTAINTY_MEASURE_WITH_UNIT(LENGTH_MEASURE(0.005),#187,
'DISTANCE_ACCURACY_VALUE','Maximum Tolerance applied to model');
#185=(
NAMED_UNIT(*)
SI_UNIT($,.STERADIAN.)
SOLID_ANGLE_UNIT()
);
#186=(
NAMED_UNIT(*)
PLANE_ANGLE_UNIT()
SI_UNIT($,.RADIAN.)
);
#187=(
LENGTH_UNIT()
NAMED_UNIT(*)
SI_UNIT(.MILLI.,.METRE.)
);
#188=PRODUCT_DEFINITION_SHAPE('','',#189);
#189=PRODUCT_DEFINITION('','',#191,#190);
#190=PRODUCT_DEFINITION_CONTEXT('',#197,'design');
#191=PRODUCT_DEFINITION_FORMATION_WITH_SPECIFIED_SOURCE('','',#193,
 .NOT_KNOWN.);
#192=PRODUCT_RELATED_PRODUCT_CATEGORY('','',(#193));
#193=PRODUCT('F47DN28','F47DN28','F47DN28',(#195));
#194=PRODUCT_CATEGORY('','');
#195=PRODUCT_CONTEXT('',#197,'mechanical');
#196=APPLICATION_PROTOCOL_DEFINITION('international standard',
'automotive_design',2010,#197);
#197=APPLICATION_CONTEXT(
'core data for automotive mechanical design processes');
ENDSEC;
END-ISO-10303-21;
