ISO-10303-21;
HEADER;
/* Generated by software containing ST-Developer
 * from STEP Tools, Inc. (www.steptools.com) 
 */
/* OPTION: strings as raw bytes, not using required /X/ escapes */

FILE_DESCRIPTION(
/* description */ ('Unknown'),
/* implementation_level */ '2;1');

FILE_NAME(
/* name */ 'F45R2DN42',
/* time_stamp */ '2016-07-07T16:43:36+02:00',
/* author */ ('Unknown'),
/* organization */ ('Unknown'),
/* preprocessor_version */ 'ST-DEVELOPER v16',
/* originating_system */ 'DEX',
/* authorisation */ $);

FILE_SCHEMA (('AUTOMOTIVE_DESIGN {1 0 10303 214 3 1 1}'));
ENDSEC;

DATA;
#10=PROPERTY_DEFINITION_REPRESENTATION(#14,#12);
#11=PROPERTY_DEFINITION_REPRESENTATION(#15,#13);
#12=REPRESENTATION('',(#16),#654);
#13=REPRESENTATION('',(#17),#654);
#14=PROPERTY_DEFINITION('pmi validation property','',#663);
#15=PROPERTY_DEFINITION('pmi validation property','',#663);
#16=VALUE_REPRESENTATION_ITEM('number of annotations',COUNT_MEASURE(0.));
#17=VALUE_REPRESENTATION_ITEM('number of views',COUNT_MEASURE(0.));
#18=LINE('',#604,#36);
#19=LINE('',#607,#37);
#20=LINE('',#609,#38);
#21=LINE('',#611,#39);
#22=LINE('',#613,#40);
#23=LINE('',#616,#41);
#24=LINE('',#617,#42);
#25=LINE('',#619,#43);
#26=LINE('',#622,#44);
#27=LINE('',#623,#45);
#28=LINE('',#625,#46);
#29=LINE('',#628,#47);
#30=LINE('',#629,#48);
#31=LINE('',#631,#49);
#32=LINE('',#634,#50);
#33=LINE('',#635,#51);
#34=LINE('',#637,#52);
#35=LINE('',#638,#53);
#36=VECTOR('',#519,1000.);
#37=VECTOR('',#520,1000.);
#38=VECTOR('',#521,1000.);
#39=VECTOR('',#522,1000.);
#40=VECTOR('',#525,1000.);
#41=VECTOR('',#526,1000.);
#42=VECTOR('',#527,1000.);
#43=VECTOR('',#530,1000.);
#44=VECTOR('',#531,1000.);
#45=VECTOR('',#532,1000.);
#46=VECTOR('',#535,1000.);
#47=VECTOR('',#536,1000.);
#48=VECTOR('',#537,1000.);
#49=VECTOR('',#540,1000.);
#50=VECTOR('',#541,1000.);
#51=VECTOR('',#542,1000.);
#52=VECTOR('',#545,1000.);
#53=VECTOR('',#546,1000.);
#54=COLOUR_RGB('',0.,0.520862698554993,0.898039221763611);
#55=COLOUR_RGB('',0.639999985694885,0.670000016689301,0.689999997615814);
#56=CONTEXT_DEPENDENT_SHAPE_REPRESENTATION(#60,#665);
#57=CONTEXT_DEPENDENT_SHAPE_REPRESENTATION(#61,#667);
#58=NEXT_ASSEMBLY_USAGE_OCCURRENCE('TOPEUNIONDN42gen',
'TOPEUNIONDN42gen','TOPEUNIONDN42gen',#668,#669,'');
#59=NEXT_ASSEMBLY_USAGE_OCCURRENCE('TUERCA2_DN42gen','TUERCA2_DN42gen',
'TUERCA2_DN42gen',#668,#670,'');
#60=(
REPRESENTATION_RELATIONSHIP(' ',' ',#423,#424)
REPRESENTATION_RELATIONSHIP_WITH_TRANSFORMATION(#62)
SHAPE_REPRESENTATION_RELATIONSHIP()
);
#61=(
REPRESENTATION_RELATIONSHIP(' ',' ',#425,#424)
REPRESENTATION_RELATIONSHIP_WITH_TRANSFORMATION(#63)
SHAPE_REPRESENTATION_RELATIONSHIP()
);
#62=ITEM_DEFINED_TRANSFORMATION(' ',' ',#426,#450);
#63=ITEM_DEFINED_TRANSFORMATION(' ',' ',#426,#466);
#64=SHAPE_REPRESENTATION_RELATIONSHIP('','',#423,#66);
#65=SHAPE_REPRESENTATION_RELATIONSHIP('','',#425,#67);
#66=ADVANCED_BREP_SHAPE_REPRESENTATION('',(#418),#655);
#67=ADVANCED_BREP_SHAPE_REPRESENTATION('',(#419),#656);
#68=CONICAL_SURFACE('',#446,22.,0.785398163397448);
#69=CYLINDRICAL_SURFACE('',#436,28.);
#70=CYLINDRICAL_SURFACE('',#437,19.25);
#71=CYLINDRICAL_SURFACE('',#439,21.);
#72=CYLINDRICAL_SURFACE('',#443,23.5);
#73=CYLINDRICAL_SURFACE('',#447,21.);
#74=CYLINDRICAL_SURFACE('',#459,28.6893);
#75=CYLINDRICAL_SURFACE('',#463,23.);
#76=ORIENTED_EDGE('',*,*,#142,.F.);
#77=ORIENTED_EDGE('',*,*,#143,.T.);
#78=ORIENTED_EDGE('',*,*,#144,.F.);
#79=ORIENTED_EDGE('',*,*,#145,.T.);
#80=ORIENTED_EDGE('',*,*,#146,.T.);
#81=ORIENTED_EDGE('',*,*,#147,.T.);
#82=ORIENTED_EDGE('',*,*,#144,.T.);
#83=ORIENTED_EDGE('',*,*,#146,.F.);
#84=ORIENTED_EDGE('',*,*,#148,.F.);
#85=ORIENTED_EDGE('',*,*,#147,.F.);
#86=ORIENTED_EDGE('',*,*,#149,.F.);
#87=ORIENTED_EDGE('',*,*,#145,.F.);
#88=ORIENTED_EDGE('',*,*,#150,.T.);
#89=ORIENTED_EDGE('',*,*,#149,.T.);
#90=ORIENTED_EDGE('',*,*,#151,.T.);
#91=ORIENTED_EDGE('',*,*,#142,.T.);
#92=ORIENTED_EDGE('',*,*,#148,.T.);
#93=ORIENTED_EDGE('',*,*,#151,.F.);
#94=ORIENTED_EDGE('',*,*,#150,.F.);
#95=ORIENTED_EDGE('',*,*,#152,.T.);
#96=ORIENTED_EDGE('',*,*,#143,.F.);
#97=ORIENTED_EDGE('',*,*,#152,.F.);
#98=ORIENTED_EDGE('',*,*,#153,.F.);
#99=ORIENTED_EDGE('',*,*,#154,.F.);
#100=ORIENTED_EDGE('',*,*,#155,.T.);
#101=ORIENTED_EDGE('',*,*,#156,.T.);
#102=ORIENTED_EDGE('',*,*,#157,.F.);
#103=ORIENTED_EDGE('',*,*,#158,.F.);
#104=ORIENTED_EDGE('',*,*,#153,.T.);
#105=ORIENTED_EDGE('',*,*,#159,.T.);
#106=ORIENTED_EDGE('',*,*,#160,.F.);
#107=ORIENTED_EDGE('',*,*,#161,.F.);
#108=ORIENTED_EDGE('',*,*,#157,.T.);
#109=ORIENTED_EDGE('',*,*,#162,.T.);
#110=ORIENTED_EDGE('',*,*,#163,.F.);
#111=ORIENTED_EDGE('',*,*,#164,.F.);
#112=ORIENTED_EDGE('',*,*,#160,.T.);
#113=ORIENTED_EDGE('',*,*,#165,.T.);
#114=ORIENTED_EDGE('',*,*,#166,.F.);
#115=ORIENTED_EDGE('',*,*,#167,.F.);
#116=ORIENTED_EDGE('',*,*,#163,.T.);
#117=ORIENTED_EDGE('',*,*,#168,.T.);
#118=ORIENTED_EDGE('',*,*,#155,.F.);
#119=ORIENTED_EDGE('',*,*,#169,.F.);
#120=ORIENTED_EDGE('',*,*,#166,.T.);
#121=ORIENTED_EDGE('',*,*,#170,.T.);
#122=ORIENTED_EDGE('',*,*,#171,.T.);
#123=ORIENTED_EDGE('',*,*,#167,.T.);
#124=ORIENTED_EDGE('',*,*,#169,.T.);
#125=ORIENTED_EDGE('',*,*,#154,.T.);
#126=ORIENTED_EDGE('',*,*,#158,.T.);
#127=ORIENTED_EDGE('',*,*,#161,.T.);
#128=ORIENTED_EDGE('',*,*,#164,.T.);
#129=ORIENTED_EDGE('',*,*,#172,.T.);
#130=ORIENTED_EDGE('',*,*,#171,.F.);
#131=ORIENTED_EDGE('',*,*,#173,.F.);
#132=ORIENTED_EDGE('',*,*,#172,.F.);
#133=ORIENTED_EDGE('',*,*,#174,.F.);
#134=ORIENTED_EDGE('',*,*,#173,.T.);
#135=ORIENTED_EDGE('',*,*,#174,.T.);
#136=ORIENTED_EDGE('',*,*,#168,.F.);
#137=ORIENTED_EDGE('',*,*,#165,.F.);
#138=ORIENTED_EDGE('',*,*,#162,.F.);
#139=ORIENTED_EDGE('',*,*,#159,.F.);
#140=ORIENTED_EDGE('',*,*,#156,.F.);
#141=ORIENTED_EDGE('',*,*,#170,.F.);
#142=EDGE_CURVE('',#175,#175,#202,.T.);
#143=EDGE_CURVE('',#176,#176,#203,.T.);
#144=EDGE_CURVE('',#177,#177,#204,.T.);
#145=EDGE_CURVE('',#178,#178,#205,.T.);
#146=EDGE_CURVE('',#179,#179,#206,.T.);
#147=EDGE_CURVE('',#180,#180,#207,.F.);
#148=EDGE_CURVE('',#181,#181,#208,.T.);
#149=EDGE_CURVE('',#182,#182,#209,.F.);
#150=EDGE_CURVE('',#183,#183,#210,.T.);
#151=EDGE_CURVE('',#184,#184,#211,.T.);
#152=EDGE_CURVE('',#185,#185,#212,.T.);
#153=EDGE_CURVE('',#186,#187,#18,.T.);
#154=EDGE_CURVE('',#188,#186,#19,.T.);
#155=EDGE_CURVE('',#188,#189,#20,.T.);
#156=EDGE_CURVE('',#189,#187,#21,.T.);
#157=EDGE_CURVE('',#190,#191,#22,.T.);
#158=EDGE_CURVE('',#186,#190,#23,.T.);
#159=EDGE_CURVE('',#187,#191,#24,.T.);
#160=EDGE_CURVE('',#192,#193,#25,.T.);
#161=EDGE_CURVE('',#190,#192,#26,.T.);
#162=EDGE_CURVE('',#191,#193,#27,.T.);
#163=EDGE_CURVE('',#194,#195,#28,.T.);
#164=EDGE_CURVE('',#192,#194,#29,.T.);
#165=EDGE_CURVE('',#193,#195,#30,.T.);
#166=EDGE_CURVE('',#196,#197,#31,.T.);
#167=EDGE_CURVE('',#194,#196,#32,.T.);
#168=EDGE_CURVE('',#195,#197,#33,.T.);
#169=EDGE_CURVE('',#196,#188,#34,.T.);
#170=EDGE_CURVE('',#197,#189,#35,.T.);
#171=EDGE_CURVE('',#198,#198,#213,.T.);
#172=EDGE_CURVE('',#199,#199,#214,.F.);
#173=EDGE_CURVE('',#200,#200,#215,.T.);
#174=EDGE_CURVE('',#201,#201,#216,.T.);
#175=VERTEX_POINT('',#570);
#176=VERTEX_POINT('',#572);
#177=VERTEX_POINT('',#575);
#178=VERTEX_POINT('',#577);
#179=VERTEX_POINT('',#580);
#180=VERTEX_POINT('',#582);
#181=VERTEX_POINT('',#586);
#182=VERTEX_POINT('',#589);
#183=VERTEX_POINT('',#592);
#184=VERTEX_POINT('',#595);
#185=VERTEX_POINT('',#600);
#186=VERTEX_POINT('',#605);
#187=VERTEX_POINT('',#606);
#188=VERTEX_POINT('',#608);
#189=VERTEX_POINT('',#610);
#190=VERTEX_POINT('',#614);
#191=VERTEX_POINT('',#615);
#192=VERTEX_POINT('',#620);
#193=VERTEX_POINT('',#621);
#194=VERTEX_POINT('',#626);
#195=VERTEX_POINT('',#627);
#196=VERTEX_POINT('',#632);
#197=VERTEX_POINT('',#633);
#198=VERTEX_POINT('',#641);
#199=VERTEX_POINT('',#644);
#200=VERTEX_POINT('',#647);
#201=VERTEX_POINT('',#650);
#202=CIRCLE('',#428,23.5);
#203=CIRCLE('',#429,21.);
#204=CIRCLE('',#431,28.);
#205=CIRCLE('',#432,21.);
#206=CIRCLE('',#434,28.);
#207=CIRCLE('',#435,19.25);
#208=CIRCLE('',#438,19.25);
#209=CIRCLE('',#440,21.);
#210=CIRCLE('',#442,22.);
#211=CIRCLE('',#444,23.5);
#212=CIRCLE('',#448,21.);
#213=CIRCLE('',#458,28.6893);
#214=CIRCLE('',#460,28.6893);
#215=CIRCLE('',#462,23.);
#216=CIRCLE('',#464,23.);
#217=EDGE_LOOP('',(#76));
#218=EDGE_LOOP('',(#77));
#219=EDGE_LOOP('',(#78));
#220=EDGE_LOOP('',(#79));
#221=EDGE_LOOP('',(#80));
#222=EDGE_LOOP('',(#81));
#223=EDGE_LOOP('',(#82));
#224=EDGE_LOOP('',(#83));
#225=EDGE_LOOP('',(#84));
#226=EDGE_LOOP('',(#85));
#227=EDGE_LOOP('',(#86));
#228=EDGE_LOOP('',(#87));
#229=EDGE_LOOP('',(#88));
#230=EDGE_LOOP('',(#89));
#231=EDGE_LOOP('',(#90));
#232=EDGE_LOOP('',(#91));
#233=EDGE_LOOP('',(#92));
#234=EDGE_LOOP('',(#93));
#235=EDGE_LOOP('',(#94));
#236=EDGE_LOOP('',(#95));
#237=EDGE_LOOP('',(#96));
#238=EDGE_LOOP('',(#97));
#239=EDGE_LOOP('',(#98,#99,#100,#101));
#240=EDGE_LOOP('',(#102,#103,#104,#105));
#241=EDGE_LOOP('',(#106,#107,#108,#109));
#242=EDGE_LOOP('',(#110,#111,#112,#113));
#243=EDGE_LOOP('',(#114,#115,#116,#117));
#244=EDGE_LOOP('',(#118,#119,#120,#121));
#245=EDGE_LOOP('',(#122));
#246=EDGE_LOOP('',(#123,#124,#125,#126,#127,#128));
#247=EDGE_LOOP('',(#129));
#248=EDGE_LOOP('',(#130));
#249=EDGE_LOOP('',(#131));
#250=EDGE_LOOP('',(#132));
#251=EDGE_LOOP('',(#133));
#252=EDGE_LOOP('',(#134));
#253=EDGE_LOOP('',(#135));
#254=EDGE_LOOP('',(#136,#137,#138,#139,#140,#141));
#255=FACE_BOUND('',#217,.T.);
#256=FACE_BOUND('',#218,.T.);
#257=FACE_BOUND('',#219,.T.);
#258=FACE_BOUND('',#220,.T.);
#259=FACE_BOUND('',#221,.T.);
#260=FACE_BOUND('',#222,.T.);
#261=FACE_BOUND('',#223,.T.);
#262=FACE_BOUND('',#224,.T.);
#263=FACE_BOUND('',#225,.T.);
#264=FACE_BOUND('',#226,.T.);
#265=FACE_BOUND('',#227,.T.);
#266=FACE_BOUND('',#228,.T.);
#267=FACE_BOUND('',#229,.T.);
#268=FACE_BOUND('',#230,.T.);
#269=FACE_BOUND('',#231,.T.);
#270=FACE_BOUND('',#232,.T.);
#271=FACE_BOUND('',#233,.T.);
#272=FACE_BOUND('',#234,.T.);
#273=FACE_BOUND('',#235,.T.);
#274=FACE_BOUND('',#236,.T.);
#275=FACE_BOUND('',#237,.T.);
#276=FACE_BOUND('',#238,.T.);
#277=FACE_BOUND('',#239,.T.);
#278=FACE_BOUND('',#240,.T.);
#279=FACE_BOUND('',#241,.T.);
#280=FACE_BOUND('',#242,.T.);
#281=FACE_BOUND('',#243,.T.);
#282=FACE_BOUND('',#244,.T.);
#283=FACE_BOUND('',#245,.T.);
#284=FACE_BOUND('',#246,.T.);
#285=FACE_BOUND('',#247,.T.);
#286=FACE_BOUND('',#248,.T.);
#287=FACE_BOUND('',#249,.T.);
#288=FACE_BOUND('',#250,.T.);
#289=FACE_BOUND('',#251,.T.);
#290=FACE_BOUND('',#252,.T.);
#291=FACE_BOUND('',#253,.T.);
#292=FACE_BOUND('',#254,.T.);
#293=PLANE('',#427);
#294=PLANE('',#430);
#295=PLANE('',#433);
#296=PLANE('',#441);
#297=PLANE('',#445);
#298=PLANE('',#449);
#299=PLANE('',#451);
#300=PLANE('',#452);
#301=PLANE('',#453);
#302=PLANE('',#454);
#303=PLANE('',#455);
#304=PLANE('',#456);
#305=PLANE('',#457);
#306=PLANE('',#461);
#307=PLANE('',#465);
#308=ADVANCED_FACE('',(#255,#256),#293,.F.);
#309=ADVANCED_FACE('',(#257,#258),#294,.F.);
#310=ADVANCED_FACE('',(#259,#260),#295,.T.);
#311=ADVANCED_FACE('',(#261,#262),#69,.T.);
#312=ADVANCED_FACE('',(#263,#264),#70,.F.);
#313=ADVANCED_FACE('',(#265,#266),#71,.T.);
#314=ADVANCED_FACE('',(#267,#268),#296,.T.);
#315=ADVANCED_FACE('',(#269,#270),#72,.T.);
#316=ADVANCED_FACE('',(#271),#297,.T.);
#317=ADVANCED_FACE('',(#272,#273),#68,.T.);
#318=ADVANCED_FACE('',(#274,#275),#73,.F.);
#319=ADVANCED_FACE('',(#276),#298,.F.);
#320=ADVANCED_FACE('',(#277),#299,.F.);
#321=ADVANCED_FACE('',(#278),#300,.F.);
#322=ADVANCED_FACE('',(#279),#301,.F.);
#323=ADVANCED_FACE('',(#280),#302,.F.);
#324=ADVANCED_FACE('',(#281),#303,.F.);
#325=ADVANCED_FACE('',(#282),#304,.F.);
#326=ADVANCED_FACE('',(#283,#284),#305,.T.);
#327=ADVANCED_FACE('',(#285,#286),#74,.F.);
#328=ADVANCED_FACE('',(#287,#288),#306,.T.);
#329=ADVANCED_FACE('',(#289,#290),#75,.F.);
#330=ADVANCED_FACE('',(#291,#292),#307,.F.);
#331=CLOSED_SHELL('',(#308,#309,#310,#311,#312,#313,#314,#315,#316,#317,
#318,#319));
#332=CLOSED_SHELL('',(#320,#321,#322,#323,#324,#325,#326,#327,#328,#329,
#330));
#333=STYLED_ITEM('',(#345),#418);
#334=STYLED_ITEM('',(#346),#320);
#335=STYLED_ITEM('',(#347),#321);
#336=STYLED_ITEM('',(#348),#322);
#337=STYLED_ITEM('',(#349),#323);
#338=STYLED_ITEM('',(#350),#324);
#339=STYLED_ITEM('',(#351),#325);
#340=STYLED_ITEM('',(#352),#326);
#341=STYLED_ITEM('',(#353),#327);
#342=STYLED_ITEM('',(#354),#328);
#343=STYLED_ITEM('',(#355),#329);
#344=STYLED_ITEM('',(#356),#330);
#345=PRESENTATION_STYLE_ASSIGNMENT((#357));
#346=PRESENTATION_STYLE_ASSIGNMENT((#358));
#347=PRESENTATION_STYLE_ASSIGNMENT((#359));
#348=PRESENTATION_STYLE_ASSIGNMENT((#360));
#349=PRESENTATION_STYLE_ASSIGNMENT((#361));
#350=PRESENTATION_STYLE_ASSIGNMENT((#362));
#351=PRESENTATION_STYLE_ASSIGNMENT((#363));
#352=PRESENTATION_STYLE_ASSIGNMENT((#364));
#353=PRESENTATION_STYLE_ASSIGNMENT((#365));
#354=PRESENTATION_STYLE_ASSIGNMENT((#366));
#355=PRESENTATION_STYLE_ASSIGNMENT((#367));
#356=PRESENTATION_STYLE_ASSIGNMENT((#368));
#357=SURFACE_STYLE_USAGE(.BOTH.,#369);
#358=SURFACE_STYLE_USAGE(.BOTH.,#370);
#359=SURFACE_STYLE_USAGE(.BOTH.,#371);
#360=SURFACE_STYLE_USAGE(.BOTH.,#372);
#361=SURFACE_STYLE_USAGE(.BOTH.,#373);
#362=SURFACE_STYLE_USAGE(.BOTH.,#374);
#363=SURFACE_STYLE_USAGE(.BOTH.,#375);
#364=SURFACE_STYLE_USAGE(.BOTH.,#376);
#365=SURFACE_STYLE_USAGE(.BOTH.,#377);
#366=SURFACE_STYLE_USAGE(.BOTH.,#378);
#367=SURFACE_STYLE_USAGE(.BOTH.,#379);
#368=SURFACE_STYLE_USAGE(.BOTH.,#380);
#369=SURFACE_SIDE_STYLE('',(#381));
#370=SURFACE_SIDE_STYLE('',(#382));
#371=SURFACE_SIDE_STYLE('',(#383));
#372=SURFACE_SIDE_STYLE('',(#384));
#373=SURFACE_SIDE_STYLE('',(#385));
#374=SURFACE_SIDE_STYLE('',(#386));
#375=SURFACE_SIDE_STYLE('',(#387));
#376=SURFACE_SIDE_STYLE('',(#388));
#377=SURFACE_SIDE_STYLE('',(#389));
#378=SURFACE_SIDE_STYLE('',(#390));
#379=SURFACE_SIDE_STYLE('',(#391));
#380=SURFACE_SIDE_STYLE('',(#392));
#381=SURFACE_STYLE_FILL_AREA(#393);
#382=SURFACE_STYLE_FILL_AREA(#394);
#383=SURFACE_STYLE_FILL_AREA(#395);
#384=SURFACE_STYLE_FILL_AREA(#396);
#385=SURFACE_STYLE_FILL_AREA(#397);
#386=SURFACE_STYLE_FILL_AREA(#398);
#387=SURFACE_STYLE_FILL_AREA(#399);
#388=SURFACE_STYLE_FILL_AREA(#400);
#389=SURFACE_STYLE_FILL_AREA(#401);
#390=SURFACE_STYLE_FILL_AREA(#402);
#391=SURFACE_STYLE_FILL_AREA(#403);
#392=SURFACE_STYLE_FILL_AREA(#404);
#393=FILL_AREA_STYLE('',(#405));
#394=FILL_AREA_STYLE('',(#406));
#395=FILL_AREA_STYLE('',(#407));
#396=FILL_AREA_STYLE('',(#408));
#397=FILL_AREA_STYLE('',(#409));
#398=FILL_AREA_STYLE('',(#410));
#399=FILL_AREA_STYLE('',(#411));
#400=FILL_AREA_STYLE('',(#412));
#401=FILL_AREA_STYLE('',(#413));
#402=FILL_AREA_STYLE('',(#414));
#403=FILL_AREA_STYLE('',(#415));
#404=FILL_AREA_STYLE('',(#416));
#405=FILL_AREA_STYLE_COLOUR('',#417);
#406=FILL_AREA_STYLE_COLOUR('',#54);
#407=FILL_AREA_STYLE_COLOUR('',#54);
#408=FILL_AREA_STYLE_COLOUR('',#54);
#409=FILL_AREA_STYLE_COLOUR('',#54);
#410=FILL_AREA_STYLE_COLOUR('',#54);
#411=FILL_AREA_STYLE_COLOUR('',#54);
#412=FILL_AREA_STYLE_COLOUR('',#54);
#413=FILL_AREA_STYLE_COLOUR('',#55);
#414=FILL_AREA_STYLE_COLOUR('',#54);
#415=FILL_AREA_STYLE_COLOUR('',#54);
#416=FILL_AREA_STYLE_COLOUR('',#54);
#417=DRAUGHTING_PRE_DEFINED_COLOUR('blue');
#418=MANIFOLD_SOLID_BREP('',#331);
#419=MANIFOLD_SOLID_BREP('',#332);
#420=SHAPE_DEFINITION_REPRESENTATION(#664,#423);
#421=SHAPE_DEFINITION_REPRESENTATION(#663,#424);
#422=SHAPE_DEFINITION_REPRESENTATION(#666,#425);
#423=SHAPE_REPRESENTATION('TOPEUNIONDN42gen',(#426),#655);
#424=SHAPE_REPRESENTATION('F45R2DN42',(#426,#450,#466),#654);
#425=SHAPE_REPRESENTATION('TUERCA2_DN42gen',(#426),#656);
#426=AXIS2_PLACEMENT_3D('',#567,#467,#468);
#427=AXIS2_PLACEMENT_3D('',#568,#469,#470);
#428=AXIS2_PLACEMENT_3D('',#569,#471,#472);
#429=AXIS2_PLACEMENT_3D('',#571,#473,#474);
#430=AXIS2_PLACEMENT_3D('',#573,#475,#476);
#431=AXIS2_PLACEMENT_3D('',#574,#477,#478);
#432=AXIS2_PLACEMENT_3D('',#576,#479,#480);
#433=AXIS2_PLACEMENT_3D('',#578,#481,#482);
#434=AXIS2_PLACEMENT_3D('',#579,#483,#484);
#435=AXIS2_PLACEMENT_3D('',#581,#485,#486);
#436=AXIS2_PLACEMENT_3D('',#583,#487,#488);
#437=AXIS2_PLACEMENT_3D('',#584,#489,#490);
#438=AXIS2_PLACEMENT_3D('',#585,#491,#492);
#439=AXIS2_PLACEMENT_3D('',#587,#493,#494);
#440=AXIS2_PLACEMENT_3D('',#588,#495,#496);
#441=AXIS2_PLACEMENT_3D('',#590,#497,#498);
#442=AXIS2_PLACEMENT_3D('',#591,#499,#500);
#443=AXIS2_PLACEMENT_3D('',#593,#501,#502);
#444=AXIS2_PLACEMENT_3D('',#594,#503,#504);
#445=AXIS2_PLACEMENT_3D('',#596,#505,#506);
#446=AXIS2_PLACEMENT_3D('',#597,#507,#508);
#447=AXIS2_PLACEMENT_3D('',#598,#509,#510);
#448=AXIS2_PLACEMENT_3D('',#599,#511,#512);
#449=AXIS2_PLACEMENT_3D('',#601,#513,#514);
#450=AXIS2_PLACEMENT_3D('',#602,#515,#516);
#451=AXIS2_PLACEMENT_3D('',#603,#517,#518);
#452=AXIS2_PLACEMENT_3D('',#612,#523,#524);
#453=AXIS2_PLACEMENT_3D('',#618,#528,#529);
#454=AXIS2_PLACEMENT_3D('',#624,#533,#534);
#455=AXIS2_PLACEMENT_3D('',#630,#538,#539);
#456=AXIS2_PLACEMENT_3D('',#636,#543,#544);
#457=AXIS2_PLACEMENT_3D('',#639,#547,#548);
#458=AXIS2_PLACEMENT_3D('',#640,#549,#550);
#459=AXIS2_PLACEMENT_3D('',#642,#551,#552);
#460=AXIS2_PLACEMENT_3D('',#643,#553,#554);
#461=AXIS2_PLACEMENT_3D('',#645,#555,#556);
#462=AXIS2_PLACEMENT_3D('',#646,#557,#558);
#463=AXIS2_PLACEMENT_3D('',#648,#559,#560);
#464=AXIS2_PLACEMENT_3D('',#649,#561,#562);
#465=AXIS2_PLACEMENT_3D('',#651,#563,#564);
#466=AXIS2_PLACEMENT_3D('',#652,#565,#566);
#467=DIRECTION('',(0.,0.,1.));
#468=DIRECTION('',(1.,0.,0.));
#469=DIRECTION('',(1.44560289664734E-16,-1.,0.));
#470=DIRECTION('',(1.,1.44560289664734E-16,0.));
#471=DIRECTION('',(0.,-1.,0.));
#472=DIRECTION('',(-1.,0.,0.));
#473=DIRECTION('',(0.,-1.,0.));
#474=DIRECTION('',(-1.,0.,0.));
#475=DIRECTION('',(0.,-1.,0.));
#476=DIRECTION('',(0.,0.,-1.));
#477=DIRECTION('',(0.,-1.,0.));
#478=DIRECTION('',(0.,0.,-1.));
#479=DIRECTION('',(0.,-1.,0.));
#480=DIRECTION('',(0.,0.,-1.));
#481=DIRECTION('',(0.,-1.,0.));
#482=DIRECTION('',(0.,0.,-1.));
#483=DIRECTION('',(0.,-1.,0.));
#484=DIRECTION('',(0.,0.,-1.));
#485=DIRECTION('',(0.,-1.,0.));
#486=DIRECTION('',(0.,0.,-1.));
#487=DIRECTION('',(0.,-1.,0.));
#488=DIRECTION('',(0.,0.,-1.));
#489=DIRECTION('',(0.,-1.,0.));
#490=DIRECTION('',(0.,0.,-1.));
#491=DIRECTION('',(0.,-1.,0.));
#492=DIRECTION('',(0.,0.,-1.));
#493=DIRECTION('',(1.44560289664734E-16,-1.,0.));
#494=DIRECTION('',(1.,1.44560289664734E-16,0.));
#495=DIRECTION('',(0.,-1.,0.));
#496=DIRECTION('',(0.,0.,-1.));
#497=DIRECTION('',(0.,-1.,0.));
#498=DIRECTION('',(0.,0.,-1.));
#499=DIRECTION('',(0.,-1.,0.));
#500=DIRECTION('',(0.,0.,-1.));
#501=DIRECTION('',(-1.44560289664734E-16,1.,0.));
#502=DIRECTION('',(-1.,-1.44560289664734E-16,0.));
#503=DIRECTION('',(-1.44560289664734E-16,1.,0.));
#504=DIRECTION('',(-1.,-1.44560289664734E-16,0.));
#505=DIRECTION('',(0.,-1.,0.));
#506=DIRECTION('',(0.,0.,-1.));
#507=DIRECTION('',(-1.44560289664734E-16,1.,0.));
#508=DIRECTION('',(-1.,-1.44560289664734E-16,0.));
#509=DIRECTION('',(-1.44560289664734E-16,1.,0.));
#510=DIRECTION('',(-1.,-1.44560289664734E-16,0.));
#511=DIRECTION('',(0.,-1.,0.));
#512=DIRECTION('',(-1.,0.,0.));
#513=DIRECTION('',(0.,-1.,0.));
#514=DIRECTION('',(0.,0.,-1.));
#515=DIRECTION('',(0.,0.,1.));
#516=DIRECTION('',(1.,0.,0.));
#517=DIRECTION('',(-0.86602540378444,0.,0.499999999999998));
#518=DIRECTION('',(0.499999999999998,0.,0.86602540378444));
#519=DIRECTION('',(0.,1.,0.));
#520=DIRECTION('',(0.499999999999998,0.,0.86602540378444));
#521=DIRECTION('',(0.,1.,0.));
#522=DIRECTION('',(0.499999999999998,0.,0.86602540378444));
#523=DIRECTION('',(-0.866025403784437,0.,-0.500000000000002));
#524=DIRECTION('',(-0.500000000000002,0.,0.866025403784437));
#525=DIRECTION('',(0.,1.,0.));
#526=DIRECTION('',(-0.500000000000002,0.,0.866025403784437));
#527=DIRECTION('',(-0.500000000000002,0.,0.866025403784437));
#528=DIRECTION('',(1.45678991392695E-15,0.,-1.));
#529=DIRECTION('',(-1.,0.,-1.45678991392695E-15));
#530=DIRECTION('',(0.,1.,0.));
#531=DIRECTION('',(-1.,0.,-1.45678991392695E-15));
#532=DIRECTION('',(-1.,0.,-1.66533453693773E-15));
#533=DIRECTION('',(0.866025403784439,0.,-0.5));
#534=DIRECTION('',(-0.5,0.,-0.866025403784439));
#535=DIRECTION('',(0.,1.,0.));
#536=DIRECTION('',(-0.5,0.,-0.866025403784439));
#537=DIRECTION('',(-0.5,0.,-0.866025403784439));
#538=DIRECTION('',(0.866025403784438,0.,0.500000000000001));
#539=DIRECTION('',(0.500000000000001,0.,-0.866025403784438));
#540=DIRECTION('',(0.,1.,0.));
#541=DIRECTION('',(0.500000000000001,0.,-0.866025403784438));
#542=DIRECTION('',(0.500000000000001,0.,-0.866025403784438));
#543=DIRECTION('',(-1.63888865316781E-15,0.,1.));
#544=DIRECTION('',(1.,0.,1.63888865316781E-15));
#545=DIRECTION('',(1.,0.,1.63888865316781E-15));
#546=DIRECTION('',(1.,0.,1.60982338570648E-15));
#547=DIRECTION('',(0.,-1.,0.));
#548=DIRECTION('',(0.,0.,-1.));
#549=DIRECTION('',(0.,1.,0.));
#550=DIRECTION('',(0.,0.,-1.));
#551=DIRECTION('',(0.,1.,0.));
#552=DIRECTION('',(0.,0.,-1.));
#553=DIRECTION('',(0.,-1.,0.));
#554=DIRECTION('',(0.,0.,-1.));
#555=DIRECTION('',(0.,-1.,0.));
#556=DIRECTION('',(0.,0.,-1.));
#557=DIRECTION('',(0.,-1.,0.));
#558=DIRECTION('',(0.500000000000002,0.,-0.866025403784437));
#559=DIRECTION('',(0.,-1.,0.));
#560=DIRECTION('',(0.,0.,-1.));
#561=DIRECTION('',(0.,-1.,0.));
#562=DIRECTION('',(0.500000000000002,0.,-0.866025403784437));
#563=DIRECTION('',(0.,-1.,0.));
#564=DIRECTION('',(0.,0.,-1.));
#565=DIRECTION('',(-0.0005568700456932,1.06914557016034E-16,-0.999999844947864));
#566=DIRECTION('',(-0.999999844947864,-2.0225886058757E-16,0.0005568700456932));
#567=CARTESIAN_POINT('',(0.,0.,0.));
#568=CARTESIAN_POINT('',(-1.05529011455256E-14,63.,0.));
#569=CARTESIAN_POINT('',(-1.05529011455256E-14,63.,0.));
#570=CARTESIAN_POINT('',(-23.5,63.,0.));
#571=CARTESIAN_POINT('',(-1.05529011455256E-14,63.,0.));
#572=CARTESIAN_POINT('',(-21.,63.,0.));
#573=CARTESIAN_POINT('',(-3.67381906146713E-16,4.,0.));
#574=CARTESIAN_POINT('',(-3.67381906146713E-16,4.,0.));
#575=CARTESIAN_POINT('',(-3.67381906146713E-16,4.,-28.));
#576=CARTESIAN_POINT('',(-8.01062775140912E-16,3.99999999999999,0.));
#577=CARTESIAN_POINT('',(-8.01062775140912E-16,3.99999999999999,-21.));
#578=CARTESIAN_POINT('',(0.,0.,0.));
#579=CARTESIAN_POINT('',(0.,0.,0.));
#580=CARTESIAN_POINT('',(0.,0.,-28.));
#581=CARTESIAN_POINT('',(0.,0.,0.));
#582=CARTESIAN_POINT('',(0.,0.,-19.25));
#583=CARTESIAN_POINT('',(0.,8.,0.));
#584=CARTESIAN_POINT('',(0.,119.379529982093,0.));
#585=CARTESIAN_POINT('',(0.,29.7,0.));
#586=CARTESIAN_POINT('',(0.,29.7,-19.25));
#587=CARTESIAN_POINT('',(-1.05529011455256E-14,80.,0.));
#588=CARTESIAN_POINT('',(-5.73904349968994E-15,29.7,0.));
#589=CARTESIAN_POINT('',(-5.73904349968994E-15,29.7,-21.));
#590=CARTESIAN_POINT('',(-5.73904349968994E-15,29.7,0.));
#591=CARTESIAN_POINT('',(-5.73904349968994E-15,29.7,-3.18032637262414E-15));
#592=CARTESIAN_POINT('',(-5.73904349968994E-15,29.7,-22.));
#593=CARTESIAN_POINT('',(-5.73904349968994E-15,29.7,0.));
#594=CARTESIAN_POINT('',(-5.95588393418704E-15,31.2,0.));
#595=CARTESIAN_POINT('',(-23.5,31.2,0.));
#596=CARTESIAN_POINT('',(-5.73904349968994E-15,29.7,0.));
#597=CARTESIAN_POINT('',(-5.73904349968994E-15,29.7,0.));
#598=CARTESIAN_POINT('',(-6.21609245558356E-15,33.,0.));
#599=CARTESIAN_POINT('',(-6.21609245558356E-15,33.,0.));
#600=CARTESIAN_POINT('',(-21.,33.,0.));
#601=CARTESIAN_POINT('',(-6.21609245558356E-15,33.,0.));
#602=CARTESIAN_POINT('',(0.,4.9,0.));
#603=CARTESIAN_POINT('',(19.0525588832577,-13.75,-32.9999999999999));
#604=CARTESIAN_POINT('',(38.1051177665152,-13.75,1.04083408558608E-13));
#605=CARTESIAN_POINT('',(38.1051177665152,-8.,1.04083408558608E-13));
#606=CARTESIAN_POINT('',(38.1051177665152,12.,9.71445146547012E-14));
#607=CARTESIAN_POINT('',(19.0525588832577,-8.,-32.9999999999999));
#608=CARTESIAN_POINT('',(19.0525588832577,-8.,-32.9999999999999));
#609=CARTESIAN_POINT('',(19.0525588832577,-13.75,-32.9999999999999));
#610=CARTESIAN_POINT('',(19.0525588832577,12.,-32.9999999999999));
#611=CARTESIAN_POINT('',(19.0525588832577,12.,-32.9999999999999));
#612=CARTESIAN_POINT('',(38.1051177665152,-13.75,1.04083408558608E-13));
#613=CARTESIAN_POINT('',(19.0525588832575,-13.75,33.0000000000001));
#614=CARTESIAN_POINT('',(19.0525588832575,-8.,33.0000000000001));
#615=CARTESIAN_POINT('',(19.0525588832575,12.,33.0000000000001));
#616=CARTESIAN_POINT('',(38.1051177665152,-8.,1.04083408558608E-13));
#617=CARTESIAN_POINT('',(38.1051177665152,12.,9.36750677027476E-14));
#618=CARTESIAN_POINT('',(19.0525588832575,-13.75,33.0000000000001));
#619=CARTESIAN_POINT('',(-19.0525588832577,-13.75,33.));
#620=CARTESIAN_POINT('',(-19.0525588832577,-8.,33.));
#621=CARTESIAN_POINT('',(-19.0525588832577,12.,33.));
#622=CARTESIAN_POINT('',(19.0525588832575,-8.,33.0000000000001));
#623=CARTESIAN_POINT('',(19.0525588832575,12.,33.0000000000001));
#624=CARTESIAN_POINT('',(-19.0525588832576,-13.75,33.));
#625=CARTESIAN_POINT('',(-38.1051177665153,-13.75,-6.93889390390723E-15));
#626=CARTESIAN_POINT('',(-38.1051177665153,-8.,-2.60208521396521E-14));
#627=CARTESIAN_POINT('',(-38.1051177665153,12.,6.93889390390723E-15));
#628=CARTESIAN_POINT('',(-19.0525588832576,-8.,33.));
#629=CARTESIAN_POINT('',(-19.0525588832577,12.,33.));
#630=CARTESIAN_POINT('',(-38.1051177665153,-13.75,-6.93889390390723E-15));
#631=CARTESIAN_POINT('',(-19.0525588832576,-13.75,-33.));
#632=CARTESIAN_POINT('',(-19.0525588832576,-8.,-33.));
#633=CARTESIAN_POINT('',(-19.0525588832576,12.,-33.));
#634=CARTESIAN_POINT('',(-38.1051177665153,-8.,-6.93889390390723E-15));
#635=CARTESIAN_POINT('',(-38.1051177665153,12.,-1.38777878078145E-14));
#636=CARTESIAN_POINT('',(-19.0525588832576,-13.75,-33.));
#637=CARTESIAN_POINT('',(-19.0525588832576,-8.,-33.));
#638=CARTESIAN_POINT('',(-19.0525588832576,12.,-33.));
#639=CARTESIAN_POINT('',(0.,-8.,0.));
#640=CARTESIAN_POINT('',(0.,-8.,0.));
#641=CARTESIAN_POINT('',(0.,-8.,-28.6893));
#642=CARTESIAN_POINT('',(0.,-8.,0.));
#643=CARTESIAN_POINT('',(0.,8.,0.));
#644=CARTESIAN_POINT('',(0.,8.,-28.6893));
#645=CARTESIAN_POINT('',(0.,8.,0.));
#646=CARTESIAN_POINT('',(0.,8.,0.));
#647=CARTESIAN_POINT('',(11.5,8.,-19.9185842870421));
#648=CARTESIAN_POINT('',(0.,12.,0.));
#649=CARTESIAN_POINT('',(0.,12.,0.));
#650=CARTESIAN_POINT('',(11.5,12.,-19.9185842870421));
#651=CARTESIAN_POINT('',(0.,12.,0.));
#652=CARTESIAN_POINT('',(2.73783571417644E-14,0.89000000000002,-7.96213892599338E-15));
#653=MECHANICAL_DESIGN_GEOMETRIC_PRESENTATION_REPRESENTATION('',(#333,#334,
#335,#336,#337,#338,#339,#340,#341,#342,#343,#344),#654);
#654=(
GEOMETRIC_REPRESENTATION_CONTEXT(3)
GLOBAL_UNCERTAINTY_ASSIGNED_CONTEXT((#657))
GLOBAL_UNIT_ASSIGNED_CONTEXT((#662,#661,#660))
REPRESENTATION_CONTEXT('F45R2DN42','TOP_LEVEL_ASSEMBLY_PART')
);
#655=(
GEOMETRIC_REPRESENTATION_CONTEXT(3)
GLOBAL_UNCERTAINTY_ASSIGNED_CONTEXT((#658))
GLOBAL_UNIT_ASSIGNED_CONTEXT((#662,#661,#660))
REPRESENTATION_CONTEXT('TOPEUNIONDN42gen','COMPONENT_PART')
);
#656=(
GEOMETRIC_REPRESENTATION_CONTEXT(3)
GLOBAL_UNCERTAINTY_ASSIGNED_CONTEXT((#659))
GLOBAL_UNIT_ASSIGNED_CONTEXT((#662,#661,#660))
REPRESENTATION_CONTEXT('TUERCA2_DN42gen','COMPONENT_PART')
);
#657=UNCERTAINTY_MEASURE_WITH_UNIT(LENGTH_MEASURE(0.005),#662,
'DISTANCE_ACCURACY_VALUE','Maximum Tolerance applied to model');
#658=UNCERTAINTY_MEASURE_WITH_UNIT(LENGTH_MEASURE(0.005),#662,
'DISTANCE_ACCURACY_VALUE','Maximum Tolerance applied to model');
#659=UNCERTAINTY_MEASURE_WITH_UNIT(LENGTH_MEASURE(0.005),#662,
'DISTANCE_ACCURACY_VALUE','Maximum Tolerance applied to model');
#660=(
NAMED_UNIT(*)
SI_UNIT($,.STERADIAN.)
SOLID_ANGLE_UNIT()
);
#661=(
NAMED_UNIT(*)
PLANE_ANGLE_UNIT()
SI_UNIT($,.RADIAN.)
);
#662=(
LENGTH_UNIT()
NAMED_UNIT(*)
SI_UNIT(.MILLI.,.METRE.)
);
#663=PRODUCT_DEFINITION_SHAPE('','',#668);
#664=PRODUCT_DEFINITION_SHAPE('','',#669);
#665=PRODUCT_DEFINITION_SHAPE(' ','NAUO PRDDFN',#58);
#666=PRODUCT_DEFINITION_SHAPE('','',#670);
#667=PRODUCT_DEFINITION_SHAPE(' ','NAUO PRDDFN',#59);
#668=PRODUCT_DEFINITION('','',#674,#671);
#669=PRODUCT_DEFINITION('','',#675,#672);
#670=PRODUCT_DEFINITION('','',#676,#673);
#671=PRODUCT_DEFINITION_CONTEXT('',#690,'design');
#672=PRODUCT_DEFINITION_CONTEXT('',#690,'design');
#673=PRODUCT_DEFINITION_CONTEXT('',#690,'design');
#674=PRODUCT_DEFINITION_FORMATION_WITH_SPECIFIED_SOURCE('','',#680,
 .NOT_KNOWN.);
#675=PRODUCT_DEFINITION_FORMATION_WITH_SPECIFIED_SOURCE('','',#681,
 .NOT_KNOWN.);
#676=PRODUCT_DEFINITION_FORMATION_WITH_SPECIFIED_SOURCE('','',#682,
 .NOT_KNOWN.);
#677=PRODUCT_RELATED_PRODUCT_CATEGORY('','',(#680));
#678=PRODUCT_RELATED_PRODUCT_CATEGORY('','',(#681));
#679=PRODUCT_RELATED_PRODUCT_CATEGORY('','',(#682));
#680=PRODUCT('F45R2DN42','F45R2DN42','F45R2DN42',(#686));
#681=PRODUCT('TOPEUNIONDN42gen','TOPEUNIONDN42gen','TOPEUNIONDN42gen',(#687));
#682=PRODUCT('TUERCA2_DN42gen','TUERCA2_DN42gen','TUERCA2_DN42gen',(#688));
#683=PRODUCT_CATEGORY('','');
#684=PRODUCT_CATEGORY('','');
#685=PRODUCT_CATEGORY('','');
#686=PRODUCT_CONTEXT('',#690,'mechanical');
#687=PRODUCT_CONTEXT('',#690,'mechanical');
#688=PRODUCT_CONTEXT('',#690,'mechanical');
#689=APPLICATION_PROTOCOL_DEFINITION('international standard',
'automotive_design',2010,#690);
#690=APPLICATION_CONTEXT(
'core data for automotive mechanical design processes');
ENDSEC;
END-ISO-10303-21;
