ISO-10303-21;
HEADER;
/* Generated by software containing ST-Developer
 * from STEP Tools, Inc. (www.steptools.com) 
 */
/* OPTION: strings as raw bytes, not using required /X/ escapes */

FILE_DESCRIPTION(
/* description */ ('Unknown'),
/* implementation_level */ '2;1');

FILE_NAME(
/* name */ 'F45R11-4DN28',
/* time_stamp */ '2016-07-07T16:41:09+02:00',
/* author */ ('Unknown'),
/* organization */ ('Unknown'),
/* preprocessor_version */ 'ST-DEVELOPER v16',
/* originating_system */ 'DEX',
/* authorisation */ $);

FILE_SCHEMA (('AUTOMOTIVE_DESIGN {1 0 10303 214 3 1 1}'));
ENDSEC;

DATA;
#10=PROPERTY_DEFINITION_REPRESENTATION(#14,#12);
#11=PROPERTY_DEFINITION_REPRESENTATION(#15,#13);
#12=REPRESENTATION('',(#16),#653);
#13=REPRESENTATION('',(#17),#653);
#14=PROPERTY_DEFINITION('pmi validation property','',#662);
#15=PROPERTY_DEFINITION('pmi validation property','',#662);
#16=VALUE_REPRESENTATION_ITEM('number of annotations',COUNT_MEASURE(0.));
#17=VALUE_REPRESENTATION_ITEM('number of views',COUNT_MEASURE(0.));
#18=LINE('',#603,#36);
#19=LINE('',#606,#37);
#20=LINE('',#608,#38);
#21=LINE('',#610,#39);
#22=LINE('',#612,#40);
#23=LINE('',#614,#41);
#24=LINE('',#618,#42);
#25=LINE('',#620,#43);
#26=LINE('',#622,#44);
#27=LINE('',#624,#45);
#28=LINE('',#626,#46);
#29=LINE('',#628,#47);
#30=LINE('',#630,#48);
#31=LINE('',#632,#49);
#32=LINE('',#634,#50);
#33=LINE('',#636,#51);
#34=LINE('',#638,#52);
#35=LINE('',#640,#53);
#36=VECTOR('',#518,1000.);
#37=VECTOR('',#519,1000.);
#38=VECTOR('',#520,1000.);
#39=VECTOR('',#521,1000.);
#40=VECTOR('',#522,1000.);
#41=VECTOR('',#523,1000.);
#42=VECTOR('',#528,1000.);
#43=VECTOR('',#529,1000.);
#44=VECTOR('',#530,1000.);
#45=VECTOR('',#533,1000.);
#46=VECTOR('',#534,1000.);
#47=VECTOR('',#537,1000.);
#48=VECTOR('',#538,1000.);
#49=VECTOR('',#541,1000.);
#50=VECTOR('',#542,1000.);
#51=VECTOR('',#545,1000.);
#52=VECTOR('',#546,1000.);
#53=VECTOR('',#549,1000.);
#54=CONTEXT_DEPENDENT_SHAPE_REPRESENTATION(#58,#664);
#55=CONTEXT_DEPENDENT_SHAPE_REPRESENTATION(#59,#666);
#56=NEXT_ASSEMBLY_USAGE_OCCURRENCE('TOPEUNIONDN28gen',
'TOPEUNIONDN28gen','TOPEUNIONDN28gen',#667,#668,'');
#57=NEXT_ASSEMBLY_USAGE_OCCURRENCE('TUERCA11-4_DN28gen',
'TUERCA11-4_DN28gen','TUERCA11-4_DN28gen',#667,#669,'');
#58=(
REPRESENTATION_RELATIONSHIP(' ',' ',#422,#423)
REPRESENTATION_RELATIONSHIP_WITH_TRANSFORMATION(#60)
SHAPE_REPRESENTATION_RELATIONSHIP()
);
#59=(
REPRESENTATION_RELATIONSHIP(' ',' ',#424,#423)
REPRESENTATION_RELATIONSHIP_WITH_TRANSFORMATION(#61)
SHAPE_REPRESENTATION_RELATIONSHIP()
);
#60=ITEM_DEFINED_TRANSFORMATION(' ',' ',#425,#449);
#61=ITEM_DEFINED_TRANSFORMATION(' ',' ',#425,#465);
#62=SHAPE_REPRESENTATION_RELATIONSHIP('','',#422,#64);
#63=SHAPE_REPRESENTATION_RELATIONSHIP('','',#424,#65);
#64=ADVANCED_BREP_SHAPE_REPRESENTATION('',(#417),#654);
#65=ADVANCED_BREP_SHAPE_REPRESENTATION('',(#418),#655);
#66=CONICAL_SURFACE('',#448,15.5,0.785398163397448);
#67=CYLINDRICAL_SURFACE('',#435,19.6);
#68=CYLINDRICAL_SURFACE('',#436,13.25);
#69=CYLINDRICAL_SURFACE('',#438,14.8);
#70=CYLINDRICAL_SURFACE('',#442,16.5);
#71=CYLINDRICAL_SURFACE('',#445,14.);
#72=CYLINDRICAL_SURFACE('',#458,19.6342);
#73=CYLINDRICAL_SURFACE('',#462,16.);
#74=ORIENTED_EDGE('',*,*,#140,.F.);
#75=ORIENTED_EDGE('',*,*,#141,.T.);
#76=ORIENTED_EDGE('',*,*,#142,.F.);
#77=ORIENTED_EDGE('',*,*,#143,.T.);
#78=ORIENTED_EDGE('',*,*,#144,.T.);
#79=ORIENTED_EDGE('',*,*,#145,.T.);
#80=ORIENTED_EDGE('',*,*,#142,.T.);
#81=ORIENTED_EDGE('',*,*,#144,.F.);
#82=ORIENTED_EDGE('',*,*,#146,.F.);
#83=ORIENTED_EDGE('',*,*,#145,.F.);
#84=ORIENTED_EDGE('',*,*,#147,.F.);
#85=ORIENTED_EDGE('',*,*,#143,.F.);
#86=ORIENTED_EDGE('',*,*,#148,.T.);
#87=ORIENTED_EDGE('',*,*,#147,.T.);
#88=ORIENTED_EDGE('',*,*,#149,.T.);
#89=ORIENTED_EDGE('',*,*,#140,.T.);
#90=ORIENTED_EDGE('',*,*,#146,.T.);
#91=ORIENTED_EDGE('',*,*,#150,.T.);
#92=ORIENTED_EDGE('',*,*,#141,.F.);
#93=ORIENTED_EDGE('',*,*,#150,.F.);
#94=ORIENTED_EDGE('',*,*,#149,.F.);
#95=ORIENTED_EDGE('',*,*,#148,.F.);
#96=ORIENTED_EDGE('',*,*,#151,.F.);
#97=ORIENTED_EDGE('',*,*,#152,.F.);
#98=ORIENTED_EDGE('',*,*,#153,.F.);
#99=ORIENTED_EDGE('',*,*,#154,.F.);
#100=ORIENTED_EDGE('',*,*,#155,.F.);
#101=ORIENTED_EDGE('',*,*,#156,.F.);
#102=ORIENTED_EDGE('',*,*,#157,.T.);
#103=ORIENTED_EDGE('',*,*,#158,.T.);
#104=ORIENTED_EDGE('',*,*,#151,.T.);
#105=ORIENTED_EDGE('',*,*,#159,.F.);
#106=ORIENTED_EDGE('',*,*,#160,.F.);
#107=ORIENTED_EDGE('',*,*,#159,.T.);
#108=ORIENTED_EDGE('',*,*,#156,.T.);
#109=ORIENTED_EDGE('',*,*,#161,.F.);
#110=ORIENTED_EDGE('',*,*,#162,.F.);
#111=ORIENTED_EDGE('',*,*,#161,.T.);
#112=ORIENTED_EDGE('',*,*,#155,.T.);
#113=ORIENTED_EDGE('',*,*,#163,.F.);
#114=ORIENTED_EDGE('',*,*,#164,.F.);
#115=ORIENTED_EDGE('',*,*,#163,.T.);
#116=ORIENTED_EDGE('',*,*,#154,.T.);
#117=ORIENTED_EDGE('',*,*,#165,.F.);
#118=ORIENTED_EDGE('',*,*,#166,.F.);
#119=ORIENTED_EDGE('',*,*,#165,.T.);
#120=ORIENTED_EDGE('',*,*,#153,.T.);
#121=ORIENTED_EDGE('',*,*,#167,.F.);
#122=ORIENTED_EDGE('',*,*,#168,.F.);
#123=ORIENTED_EDGE('',*,*,#167,.T.);
#124=ORIENTED_EDGE('',*,*,#152,.T.);
#125=ORIENTED_EDGE('',*,*,#158,.F.);
#126=ORIENTED_EDGE('',*,*,#169,.F.);
#127=ORIENTED_EDGE('',*,*,#170,.F.);
#128=ORIENTED_EDGE('',*,*,#157,.F.);
#129=ORIENTED_EDGE('',*,*,#171,.F.);
#130=ORIENTED_EDGE('',*,*,#170,.T.);
#131=ORIENTED_EDGE('',*,*,#172,.F.);
#132=ORIENTED_EDGE('',*,*,#171,.T.);
#133=ORIENTED_EDGE('',*,*,#172,.T.);
#134=ORIENTED_EDGE('',*,*,#162,.T.);
#135=ORIENTED_EDGE('',*,*,#164,.T.);
#136=ORIENTED_EDGE('',*,*,#166,.T.);
#137=ORIENTED_EDGE('',*,*,#168,.T.);
#138=ORIENTED_EDGE('',*,*,#169,.T.);
#139=ORIENTED_EDGE('',*,*,#160,.T.);
#140=EDGE_CURVE('',#173,#173,#200,.T.);
#141=EDGE_CURVE('',#174,#174,#201,.T.);
#142=EDGE_CURVE('',#175,#175,#202,.T.);
#143=EDGE_CURVE('',#176,#176,#203,.T.);
#144=EDGE_CURVE('',#177,#177,#204,.T.);
#145=EDGE_CURVE('',#178,#178,#205,.F.);
#146=EDGE_CURVE('',#179,#179,#206,.T.);
#147=EDGE_CURVE('',#180,#180,#207,.F.);
#148=EDGE_CURVE('',#181,#181,#208,.T.);
#149=EDGE_CURVE('',#182,#182,#209,.T.);
#150=EDGE_CURVE('',#183,#183,#210,.T.);
#151=EDGE_CURVE('',#184,#185,#18,.T.);
#152=EDGE_CURVE('',#186,#184,#19,.T.);
#153=EDGE_CURVE('',#187,#186,#20,.T.);
#154=EDGE_CURVE('',#188,#187,#21,.T.);
#155=EDGE_CURVE('',#189,#188,#22,.T.);
#156=EDGE_CURVE('',#185,#189,#23,.T.);
#157=EDGE_CURVE('',#190,#190,#211,.T.);
#158=EDGE_CURVE('',#191,#184,#24,.T.);
#159=EDGE_CURVE('',#192,#185,#25,.T.);
#160=EDGE_CURVE('',#191,#192,#26,.T.);
#161=EDGE_CURVE('',#193,#189,#27,.T.);
#162=EDGE_CURVE('',#192,#193,#28,.T.);
#163=EDGE_CURVE('',#194,#188,#29,.T.);
#164=EDGE_CURVE('',#193,#194,#30,.T.);
#165=EDGE_CURVE('',#195,#187,#31,.T.);
#166=EDGE_CURVE('',#194,#195,#32,.T.);
#167=EDGE_CURVE('',#196,#186,#33,.T.);
#168=EDGE_CURVE('',#195,#196,#34,.T.);
#169=EDGE_CURVE('',#196,#191,#35,.T.);
#170=EDGE_CURVE('',#197,#197,#212,.F.);
#171=EDGE_CURVE('',#198,#198,#213,.T.);
#172=EDGE_CURVE('',#199,#199,#214,.T.);
#173=VERTEX_POINT('',#569);
#174=VERTEX_POINT('',#571);
#175=VERTEX_POINT('',#574);
#176=VERTEX_POINT('',#576);
#177=VERTEX_POINT('',#579);
#178=VERTEX_POINT('',#581);
#179=VERTEX_POINT('',#585);
#180=VERTEX_POINT('',#588);
#181=VERTEX_POINT('',#591);
#182=VERTEX_POINT('',#594);
#183=VERTEX_POINT('',#598);
#184=VERTEX_POINT('',#604);
#185=VERTEX_POINT('',#605);
#186=VERTEX_POINT('',#607);
#187=VERTEX_POINT('',#609);
#188=VERTEX_POINT('',#611);
#189=VERTEX_POINT('',#613);
#190=VERTEX_POINT('',#616);
#191=VERTEX_POINT('',#619);
#192=VERTEX_POINT('',#621);
#193=VERTEX_POINT('',#625);
#194=VERTEX_POINT('',#629);
#195=VERTEX_POINT('',#633);
#196=VERTEX_POINT('',#637);
#197=VERTEX_POINT('',#643);
#198=VERTEX_POINT('',#646);
#199=VERTEX_POINT('',#649);
#200=CIRCLE('',#427,16.5);
#201=CIRCLE('',#428,14.);
#202=CIRCLE('',#430,19.6);
#203=CIRCLE('',#431,14.8);
#204=CIRCLE('',#433,19.6);
#205=CIRCLE('',#434,13.25);
#206=CIRCLE('',#437,13.25);
#207=CIRCLE('',#439,14.8);
#208=CIRCLE('',#441,15.5);
#209=CIRCLE('',#443,16.5);
#210=CIRCLE('',#446,14.);
#211=CIRCLE('',#451,19.6342);
#212=CIRCLE('',#459,19.6342);
#213=CIRCLE('',#461,16.);
#214=CIRCLE('',#463,16.);
#215=EDGE_LOOP('',(#74));
#216=EDGE_LOOP('',(#75));
#217=EDGE_LOOP('',(#76));
#218=EDGE_LOOP('',(#77));
#219=EDGE_LOOP('',(#78));
#220=EDGE_LOOP('',(#79));
#221=EDGE_LOOP('',(#80));
#222=EDGE_LOOP('',(#81));
#223=EDGE_LOOP('',(#82));
#224=EDGE_LOOP('',(#83));
#225=EDGE_LOOP('',(#84));
#226=EDGE_LOOP('',(#85));
#227=EDGE_LOOP('',(#86));
#228=EDGE_LOOP('',(#87));
#229=EDGE_LOOP('',(#88));
#230=EDGE_LOOP('',(#89));
#231=EDGE_LOOP('',(#90));
#232=EDGE_LOOP('',(#91));
#233=EDGE_LOOP('',(#92));
#234=EDGE_LOOP('',(#93));
#235=EDGE_LOOP('',(#94));
#236=EDGE_LOOP('',(#95));
#237=EDGE_LOOP('',(#96,#97,#98,#99,#100,#101));
#238=EDGE_LOOP('',(#102));
#239=EDGE_LOOP('',(#103,#104,#105,#106));
#240=EDGE_LOOP('',(#107,#108,#109,#110));
#241=EDGE_LOOP('',(#111,#112,#113,#114));
#242=EDGE_LOOP('',(#115,#116,#117,#118));
#243=EDGE_LOOP('',(#119,#120,#121,#122));
#244=EDGE_LOOP('',(#123,#124,#125,#126));
#245=EDGE_LOOP('',(#127));
#246=EDGE_LOOP('',(#128));
#247=EDGE_LOOP('',(#129));
#248=EDGE_LOOP('',(#130));
#249=EDGE_LOOP('',(#131));
#250=EDGE_LOOP('',(#132));
#251=EDGE_LOOP('',(#133));
#252=EDGE_LOOP('',(#134,#135,#136,#137,#138,#139));
#253=FACE_BOUND('',#215,.T.);
#254=FACE_BOUND('',#216,.T.);
#255=FACE_BOUND('',#217,.T.);
#256=FACE_BOUND('',#218,.T.);
#257=FACE_BOUND('',#219,.T.);
#258=FACE_BOUND('',#220,.T.);
#259=FACE_BOUND('',#221,.T.);
#260=FACE_BOUND('',#222,.T.);
#261=FACE_BOUND('',#223,.T.);
#262=FACE_BOUND('',#224,.T.);
#263=FACE_BOUND('',#225,.T.);
#264=FACE_BOUND('',#226,.T.);
#265=FACE_BOUND('',#227,.T.);
#266=FACE_BOUND('',#228,.T.);
#267=FACE_BOUND('',#229,.T.);
#268=FACE_BOUND('',#230,.T.);
#269=FACE_BOUND('',#231,.T.);
#270=FACE_BOUND('',#232,.T.);
#271=FACE_BOUND('',#233,.T.);
#272=FACE_BOUND('',#234,.T.);
#273=FACE_BOUND('',#235,.T.);
#274=FACE_BOUND('',#236,.T.);
#275=FACE_BOUND('',#237,.T.);
#276=FACE_BOUND('',#238,.T.);
#277=FACE_BOUND('',#239,.T.);
#278=FACE_BOUND('',#240,.T.);
#279=FACE_BOUND('',#241,.T.);
#280=FACE_BOUND('',#242,.T.);
#281=FACE_BOUND('',#243,.T.);
#282=FACE_BOUND('',#244,.T.);
#283=FACE_BOUND('',#245,.T.);
#284=FACE_BOUND('',#246,.T.);
#285=FACE_BOUND('',#247,.T.);
#286=FACE_BOUND('',#248,.T.);
#287=FACE_BOUND('',#249,.T.);
#288=FACE_BOUND('',#250,.T.);
#289=FACE_BOUND('',#251,.T.);
#290=FACE_BOUND('',#252,.T.);
#291=PLANE('',#426);
#292=PLANE('',#429);
#293=PLANE('',#432);
#294=PLANE('',#440);
#295=PLANE('',#444);
#296=PLANE('',#447);
#297=PLANE('',#450);
#298=PLANE('',#452);
#299=PLANE('',#453);
#300=PLANE('',#454);
#301=PLANE('',#455);
#302=PLANE('',#456);
#303=PLANE('',#457);
#304=PLANE('',#460);
#305=PLANE('',#464);
#306=ADVANCED_FACE('',(#253,#254),#291,.F.);
#307=ADVANCED_FACE('',(#255,#256),#292,.F.);
#308=ADVANCED_FACE('',(#257,#258),#293,.T.);
#309=ADVANCED_FACE('',(#259,#260),#67,.T.);
#310=ADVANCED_FACE('',(#261,#262),#68,.F.);
#311=ADVANCED_FACE('',(#263,#264),#69,.T.);
#312=ADVANCED_FACE('',(#265,#266),#294,.T.);
#313=ADVANCED_FACE('',(#267,#268),#70,.T.);
#314=ADVANCED_FACE('',(#269),#295,.T.);
#315=ADVANCED_FACE('',(#270,#271),#71,.F.);
#316=ADVANCED_FACE('',(#272),#296,.F.);
#317=ADVANCED_FACE('',(#273,#274),#66,.T.);
#318=ADVANCED_FACE('',(#275,#276),#297,.F.);
#319=ADVANCED_FACE('',(#277),#298,.F.);
#320=ADVANCED_FACE('',(#278),#299,.F.);
#321=ADVANCED_FACE('',(#279),#300,.F.);
#322=ADVANCED_FACE('',(#280),#301,.F.);
#323=ADVANCED_FACE('',(#281),#302,.F.);
#324=ADVANCED_FACE('',(#282),#303,.F.);
#325=ADVANCED_FACE('',(#283,#284),#72,.F.);
#326=ADVANCED_FACE('',(#285,#286),#304,.F.);
#327=ADVANCED_FACE('',(#287,#288),#73,.F.);
#328=ADVANCED_FACE('',(#289,#290),#305,.T.);
#329=CLOSED_SHELL('',(#306,#307,#308,#309,#310,#311,#312,#313,#314,#315,
#316,#317));
#330=CLOSED_SHELL('',(#318,#319,#320,#321,#322,#323,#324,#325,#326,#327,
#328));
#331=STYLED_ITEM('',(#343),#417);
#332=STYLED_ITEM('',(#344),#318);
#333=STYLED_ITEM('',(#345),#319);
#334=STYLED_ITEM('',(#346),#320);
#335=STYLED_ITEM('',(#347),#321);
#336=STYLED_ITEM('',(#348),#322);
#337=STYLED_ITEM('',(#349),#323);
#338=STYLED_ITEM('',(#350),#324);
#339=STYLED_ITEM('',(#351),#325);
#340=STYLED_ITEM('',(#352),#326);
#341=STYLED_ITEM('',(#353),#327);
#342=STYLED_ITEM('',(#354),#328);
#343=PRESENTATION_STYLE_ASSIGNMENT((#355));
#344=PRESENTATION_STYLE_ASSIGNMENT((#356));
#345=PRESENTATION_STYLE_ASSIGNMENT((#357));
#346=PRESENTATION_STYLE_ASSIGNMENT((#358));
#347=PRESENTATION_STYLE_ASSIGNMENT((#359));
#348=PRESENTATION_STYLE_ASSIGNMENT((#360));
#349=PRESENTATION_STYLE_ASSIGNMENT((#361));
#350=PRESENTATION_STYLE_ASSIGNMENT((#362));
#351=PRESENTATION_STYLE_ASSIGNMENT((#363));
#352=PRESENTATION_STYLE_ASSIGNMENT((#364));
#353=PRESENTATION_STYLE_ASSIGNMENT((#365));
#354=PRESENTATION_STYLE_ASSIGNMENT((#366));
#355=SURFACE_STYLE_USAGE(.BOTH.,#367);
#356=SURFACE_STYLE_USAGE(.BOTH.,#368);
#357=SURFACE_STYLE_USAGE(.BOTH.,#369);
#358=SURFACE_STYLE_USAGE(.BOTH.,#370);
#359=SURFACE_STYLE_USAGE(.BOTH.,#371);
#360=SURFACE_STYLE_USAGE(.BOTH.,#372);
#361=SURFACE_STYLE_USAGE(.BOTH.,#373);
#362=SURFACE_STYLE_USAGE(.BOTH.,#374);
#363=SURFACE_STYLE_USAGE(.BOTH.,#375);
#364=SURFACE_STYLE_USAGE(.BOTH.,#376);
#365=SURFACE_STYLE_USAGE(.BOTH.,#377);
#366=SURFACE_STYLE_USAGE(.BOTH.,#378);
#367=SURFACE_SIDE_STYLE('',(#379));
#368=SURFACE_SIDE_STYLE('',(#380));
#369=SURFACE_SIDE_STYLE('',(#381));
#370=SURFACE_SIDE_STYLE('',(#382));
#371=SURFACE_SIDE_STYLE('',(#383));
#372=SURFACE_SIDE_STYLE('',(#384));
#373=SURFACE_SIDE_STYLE('',(#385));
#374=SURFACE_SIDE_STYLE('',(#386));
#375=SURFACE_SIDE_STYLE('',(#387));
#376=SURFACE_SIDE_STYLE('',(#388));
#377=SURFACE_SIDE_STYLE('',(#389));
#378=SURFACE_SIDE_STYLE('',(#390));
#379=SURFACE_STYLE_FILL_AREA(#391);
#380=SURFACE_STYLE_FILL_AREA(#392);
#381=SURFACE_STYLE_FILL_AREA(#393);
#382=SURFACE_STYLE_FILL_AREA(#394);
#383=SURFACE_STYLE_FILL_AREA(#395);
#384=SURFACE_STYLE_FILL_AREA(#396);
#385=SURFACE_STYLE_FILL_AREA(#397);
#386=SURFACE_STYLE_FILL_AREA(#398);
#387=SURFACE_STYLE_FILL_AREA(#399);
#388=SURFACE_STYLE_FILL_AREA(#400);
#389=SURFACE_STYLE_FILL_AREA(#401);
#390=SURFACE_STYLE_FILL_AREA(#402);
#391=FILL_AREA_STYLE('',(#403));
#392=FILL_AREA_STYLE('',(#404));
#393=FILL_AREA_STYLE('',(#405));
#394=FILL_AREA_STYLE('',(#406));
#395=FILL_AREA_STYLE('',(#407));
#396=FILL_AREA_STYLE('',(#408));
#397=FILL_AREA_STYLE('',(#409));
#398=FILL_AREA_STYLE('',(#410));
#399=FILL_AREA_STYLE('',(#411));
#400=FILL_AREA_STYLE('',(#412));
#401=FILL_AREA_STYLE('',(#413));
#402=FILL_AREA_STYLE('',(#414));
#403=FILL_AREA_STYLE_COLOUR('',#415);
#404=FILL_AREA_STYLE_COLOUR('',#415);
#405=FILL_AREA_STYLE_COLOUR('',#415);
#406=FILL_AREA_STYLE_COLOUR('',#415);
#407=FILL_AREA_STYLE_COLOUR('',#415);
#408=FILL_AREA_STYLE_COLOUR('',#415);
#409=FILL_AREA_STYLE_COLOUR('',#415);
#410=FILL_AREA_STYLE_COLOUR('',#415);
#411=FILL_AREA_STYLE_COLOUR('',#416);
#412=FILL_AREA_STYLE_COLOUR('',#415);
#413=FILL_AREA_STYLE_COLOUR('',#415);
#414=FILL_AREA_STYLE_COLOUR('',#415);
#415=COLOUR_RGB('',0.899999976158142,0.,0.);
#416=COLOUR_RGB('',0.396078497171402,0.941176474094391,0.450980395078659);
#417=MANIFOLD_SOLID_BREP('',#329);
#418=MANIFOLD_SOLID_BREP('',#330);
#419=SHAPE_DEFINITION_REPRESENTATION(#663,#422);
#420=SHAPE_DEFINITION_REPRESENTATION(#662,#423);
#421=SHAPE_DEFINITION_REPRESENTATION(#665,#424);
#422=SHAPE_REPRESENTATION('TOPEUNIONDN28gen',(#425),#654);
#423=SHAPE_REPRESENTATION('F45R11-4DN28',(#425,#449,#465),#653);
#424=SHAPE_REPRESENTATION('TUERCA11-4_DN28gen',(#425),#655);
#425=AXIS2_PLACEMENT_3D('',#566,#466,#467);
#426=AXIS2_PLACEMENT_3D('',#567,#468,#469);
#427=AXIS2_PLACEMENT_3D('',#568,#470,#471);
#428=AXIS2_PLACEMENT_3D('',#570,#472,#473);
#429=AXIS2_PLACEMENT_3D('',#572,#474,#475);
#430=AXIS2_PLACEMENT_3D('',#573,#476,#477);
#431=AXIS2_PLACEMENT_3D('',#575,#478,#479);
#432=AXIS2_PLACEMENT_3D('',#577,#480,#481);
#433=AXIS2_PLACEMENT_3D('',#578,#482,#483);
#434=AXIS2_PLACEMENT_3D('',#580,#484,#485);
#435=AXIS2_PLACEMENT_3D('',#582,#486,#487);
#436=AXIS2_PLACEMENT_3D('',#583,#488,#489);
#437=AXIS2_PLACEMENT_3D('',#584,#490,#491);
#438=AXIS2_PLACEMENT_3D('',#586,#492,#493);
#439=AXIS2_PLACEMENT_3D('',#587,#494,#495);
#440=AXIS2_PLACEMENT_3D('',#589,#496,#497);
#441=AXIS2_PLACEMENT_3D('',#590,#498,#499);
#442=AXIS2_PLACEMENT_3D('',#592,#500,#501);
#443=AXIS2_PLACEMENT_3D('',#593,#502,#503);
#444=AXIS2_PLACEMENT_3D('',#595,#504,#505);
#445=AXIS2_PLACEMENT_3D('',#596,#506,#507);
#446=AXIS2_PLACEMENT_3D('',#597,#508,#509);
#447=AXIS2_PLACEMENT_3D('',#599,#510,#511);
#448=AXIS2_PLACEMENT_3D('',#600,#512,#513);
#449=AXIS2_PLACEMENT_3D('',#601,#514,#515);
#450=AXIS2_PLACEMENT_3D('',#602,#516,#517);
#451=AXIS2_PLACEMENT_3D('',#615,#524,#525);
#452=AXIS2_PLACEMENT_3D('',#617,#526,#527);
#453=AXIS2_PLACEMENT_3D('',#623,#531,#532);
#454=AXIS2_PLACEMENT_3D('',#627,#535,#536);
#455=AXIS2_PLACEMENT_3D('',#631,#539,#540);
#456=AXIS2_PLACEMENT_3D('',#635,#543,#544);
#457=AXIS2_PLACEMENT_3D('',#639,#547,#548);
#458=AXIS2_PLACEMENT_3D('',#641,#550,#551);
#459=AXIS2_PLACEMENT_3D('',#642,#552,#553);
#460=AXIS2_PLACEMENT_3D('',#644,#554,#555);
#461=AXIS2_PLACEMENT_3D('',#645,#556,#557);
#462=AXIS2_PLACEMENT_3D('',#647,#558,#559);
#463=AXIS2_PLACEMENT_3D('',#648,#560,#561);
#464=AXIS2_PLACEMENT_3D('',#650,#562,#563);
#465=AXIS2_PLACEMENT_3D('',#651,#564,#565);
#466=DIRECTION('',(0.,0.,1.));
#467=DIRECTION('',(1.,0.,0.));
#468=DIRECTION('',(1.44560289664734E-16,-1.,0.));
#469=DIRECTION('',(1.,1.44560289664734E-16,0.));
#470=DIRECTION('',(0.,-1.,0.));
#471=DIRECTION('',(-1.,0.,0.));
#472=DIRECTION('',(0.,-1.,0.));
#473=DIRECTION('',(-1.,0.,0.));
#474=DIRECTION('',(0.,-1.,0.));
#475=DIRECTION('',(0.,0.,-1.));
#476=DIRECTION('',(0.,-1.,0.));
#477=DIRECTION('',(0.,0.,-1.));
#478=DIRECTION('',(0.,-1.,0.));
#479=DIRECTION('',(0.,0.,-1.));
#480=DIRECTION('',(0.,-1.,0.));
#481=DIRECTION('',(0.,0.,-1.));
#482=DIRECTION('',(0.,-1.,0.));
#483=DIRECTION('',(0.,0.,-1.));
#484=DIRECTION('',(0.,-1.,0.));
#485=DIRECTION('',(0.,0.,-1.));
#486=DIRECTION('',(0.,-1.,0.));
#487=DIRECTION('',(0.,0.,-1.));
#488=DIRECTION('',(0.,-1.,0.));
#489=DIRECTION('',(0.,0.,-1.));
#490=DIRECTION('',(0.,-1.,0.));
#491=DIRECTION('',(0.,0.,-1.));
#492=DIRECTION('',(1.44560289664734E-16,-1.,0.));
#493=DIRECTION('',(1.,1.44560289664734E-16,0.));
#494=DIRECTION('',(0.,-1.,0.));
#495=DIRECTION('',(0.,0.,-1.));
#496=DIRECTION('',(0.,-1.,0.));
#497=DIRECTION('',(0.,0.,-1.));
#498=DIRECTION('',(0.,-1.,0.));
#499=DIRECTION('',(0.,0.,-1.));
#500=DIRECTION('',(-1.44560289664734E-16,1.,0.));
#501=DIRECTION('',(-1.,-1.44560289664734E-16,0.));
#502=DIRECTION('',(-1.44560289664734E-16,1.,0.));
#503=DIRECTION('',(-1.,-1.44560289664734E-16,0.));
#504=DIRECTION('',(0.,-1.,0.));
#505=DIRECTION('',(0.,0.,-1.));
#506=DIRECTION('',(-1.44560289664734E-16,1.,0.));
#507=DIRECTION('',(-1.,-1.44560289664734E-16,0.));
#508=DIRECTION('',(0.,-1.,0.));
#509=DIRECTION('',(-1.,0.,0.));
#510=DIRECTION('',(0.,-1.,0.));
#511=DIRECTION('',(0.,0.,-1.));
#512=DIRECTION('',(-1.44560289664734E-16,1.,0.));
#513=DIRECTION('',(-1.,-1.44560289664734E-16,0.));
#514=DIRECTION('',(0.,0.,1.));
#515=DIRECTION('',(1.,0.,0.));
#516=DIRECTION('',(0.,1.,0.));
#517=DIRECTION('',(0.,0.,1.));
#518=DIRECTION('',(0.500000000000003,0.,0.866025403784437));
#519=DIRECTION('',(-0.499999999999998,0.,0.86602540378444));
#520=DIRECTION('',(-1.,0.,1.50231459873716E-15));
#521=DIRECTION('',(-0.500000000000001,0.,-0.866025403784438));
#522=DIRECTION('',(0.5,0.,-0.866025403784439));
#523=DIRECTION('',(1.,0.,-1.50231459873716E-15));
#524=DIRECTION('',(0.,1.,0.));
#525=DIRECTION('',(0.,0.,-1.));
#526=DIRECTION('',(0.866025403784437,0.,-0.500000000000003));
#527=DIRECTION('',(-0.500000000000003,0.,-0.866025403784437));
#528=DIRECTION('',(0.,-1.,0.));
#529=DIRECTION('',(0.,-1.,0.));
#530=DIRECTION('',(0.500000000000002,0.,0.866025403784437));
#531=DIRECTION('',(-1.50231459873716E-15,0.,-1.));
#532=DIRECTION('',(-1.,0.,1.50231459873716E-15));
#533=DIRECTION('',(0.,-1.,0.));
#534=DIRECTION('',(1.,0.,-1.49880108324396E-15));
#535=DIRECTION('',(-0.866025403784439,0.,-0.5));
#536=DIRECTION('',(-0.5,0.,0.866025403784439));
#537=DIRECTION('',(0.,-1.,0.));
#538=DIRECTION('',(0.5,0.,-0.866025403784439));
#539=DIRECTION('',(-0.866025403784438,0.,0.5));
#540=DIRECTION('',(0.500000000000001,0.,0.866025403784438));
#541=DIRECTION('',(0.,-1.,0.));
#542=DIRECTION('',(-0.5,0.,-0.866025403784438));
#543=DIRECTION('',(1.50231459873716E-15,0.,1.));
#544=DIRECTION('',(1.,0.,-1.50231459873716E-15));
#545=DIRECTION('',(0.,-1.,0.));
#546=DIRECTION('',(-1.,0.,1.49880108324396E-15));
#547=DIRECTION('',(0.86602540378444,0.,0.499999999999998));
#548=DIRECTION('',(0.499999999999998,0.,-0.86602540378444));
#549=DIRECTION('',(-0.499999999999998,0.,0.86602540378444));
#550=DIRECTION('',(0.,1.,0.));
#551=DIRECTION('',(0.,0.,-1.));
#552=DIRECTION('',(0.,1.,0.));
#553=DIRECTION('',(0.,0.,1.));
#554=DIRECTION('',(0.,1.,0.));
#555=DIRECTION('',(0.,0.,1.));
#556=DIRECTION('',(0.,-1.,0.));
#557=DIRECTION('',(0.500000000000002,0.,0.866025403784437));
#558=DIRECTION('',(0.,-1.,0.));
#559=DIRECTION('',(0.,0.,-1.));
#560=DIRECTION('',(0.,-1.,0.));
#561=DIRECTION('',(0.500000000000002,0.,0.866025403784437));
#562=DIRECTION('',(0.,1.,0.));
#563=DIRECTION('',(0.,0.,1.));
#564=DIRECTION('',(-0.00152618305749322,8.31546384530695E-17,0.999998835381959));
#565=DIRECTION('',(0.999998835381959,1.53353446532115E-16,0.00152618305749322));
#566=CARTESIAN_POINT('',(0.,0.,0.));
#567=CARTESIAN_POINT('',(-7.51713506256616E-15,47.2,0.));
#568=CARTESIAN_POINT('',(-7.51713506256616E-15,47.2,0.));
#569=CARTESIAN_POINT('',(-16.5,47.2,0.));
#570=CARTESIAN_POINT('',(-7.51713506256616E-15,47.2,0.));
#571=CARTESIAN_POINT('',(-14.,47.2,0.));
#572=CARTESIAN_POINT('',(-2.44921270764475E-16,4.,0.));
#573=CARTESIAN_POINT('',(-2.44921270764475E-16,4.,0.));
#574=CARTESIAN_POINT('',(-2.44921270764475E-16,4.,-19.6));
#575=CARTESIAN_POINT('',(-6.78602139758677E-16,4.,0.));
#576=CARTESIAN_POINT('',(-6.78602139758677E-16,4.,-14.8));
#577=CARTESIAN_POINT('',(0.,0.,0.));
#578=CARTESIAN_POINT('',(0.,0.,0.));
#579=CARTESIAN_POINT('',(0.,0.,-19.6));
#580=CARTESIAN_POINT('',(0.,0.,0.));
#581=CARTESIAN_POINT('',(0.,0.,-13.25));
#582=CARTESIAN_POINT('',(0.,8.,0.));
#583=CARTESIAN_POINT('',(0.,119.379529982093,0.));
#584=CARTESIAN_POINT('',(0.,22.4,0.));
#585=CARTESIAN_POINT('',(0.,22.4,-13.25));
#586=CARTESIAN_POINT('',(-7.51713506256616E-15,59.,0.));
#587=CARTESIAN_POINT('',(-3.93203987888076E-15,22.4,0.));
#588=CARTESIAN_POINT('',(-3.93203987888076E-15,22.4,-14.8));
#589=CARTESIAN_POINT('',(-3.93203987888076E-15,22.4,0.));
#590=CARTESIAN_POINT('',(-3.93203987888076E-15,22.4,-2.24068448980338E-15));
#591=CARTESIAN_POINT('',(-3.93203987888076E-15,22.4,-15.5));
#592=CARTESIAN_POINT('',(-3.93203987888076E-15,22.4,0.));
#593=CARTESIAN_POINT('',(-4.0766001685455E-15,23.4,0.));
#594=CARTESIAN_POINT('',(-16.5,23.4,0.));
#595=CARTESIAN_POINT('',(-3.93203987888076E-15,22.4,0.));
#596=CARTESIAN_POINT('',(-4.30789663200907E-15,25.,0.));
#597=CARTESIAN_POINT('',(-4.30789663200907E-15,25.,0.));
#598=CARTESIAN_POINT('',(-14.,25.,0.));
#599=CARTESIAN_POINT('',(-4.30789663200907E-15,25.,0.));
#600=CARTESIAN_POINT('',(-3.93203987888076E-15,22.4,0.));
#601=CARTESIAN_POINT('',(0.,9.66,0.));
#602=CARTESIAN_POINT('',(0.,6.,0.));
#603=CARTESIAN_POINT('',(-26.2694372201817,6.,4.49999997876512));
#604=CARTESIAN_POINT('',(-28.8675134001554,6.,3.31161860087081E-8));
#605=CARTESIAN_POINT('',(-14.4337566694311,6.,25.0000000348197));
#606=CARTESIAN_POINT('',(-17.031832867708,6.,-20.4999999912367));
#607=CARTESIAN_POINT('',(-14.4337566713983,6.,-24.9999999651803));
#608=CARTESIAN_POINT('',(9.23760431145085,6.,-24.9999999651803));
#609=CARTESIAN_POINT('',(14.4337567750457,6.,-24.9999999651803));
#610=CARTESIAN_POINT('',(26.2694372783893,6.,-4.49999999123679));
#611=CARTESIAN_POINT('',(28.8675134993859,6.,2.54658646600681E-8));
#612=CARTESIAN_POINT('',(17.0318329852415,6.,20.500000018117));
#613=CARTESIAN_POINT('',(14.4337567642449,6.,25.0000000348197));
#614=CARTESIAN_POINT('',(-9.23760426404395,6.,25.0000000348197));
#615=CARTESIAN_POINT('',(0.,6.,0.));
#616=CARTESIAN_POINT('',(0.,6.,-19.6342));
#617=CARTESIAN_POINT('',(-26.2694372201817,19.,4.49999997876512));
#618=CARTESIAN_POINT('',(-28.8675134001554,19.,3.31161860087081E-8));
#619=CARTESIAN_POINT('',(-28.8675134001554,24.,3.31161868760699E-8));
#620=CARTESIAN_POINT('',(-14.4337566694311,19.,25.0000000348197));
#621=CARTESIAN_POINT('',(-14.4337566694311,24.,25.0000000348197));
#622=CARTESIAN_POINT('',(-28.8675134001554,24.,3.31161842739847E-8));
#623=CARTESIAN_POINT('',(-9.23760426404395,19.,25.0000000348197));
#624=CARTESIAN_POINT('',(14.4337567642449,19.,25.0000000348197));
#625=CARTESIAN_POINT('',(14.4337567642449,24.,25.0000000348197));
#626=CARTESIAN_POINT('',(-14.4337566694311,24.,25.0000000348197));
#627=CARTESIAN_POINT('',(17.0318329852415,19.,20.500000018117));
#628=CARTESIAN_POINT('',(28.8675134993859,19.,2.54658646600681E-8));
#629=CARTESIAN_POINT('',(28.8675134993859,24.,2.54658620579828E-8));
#630=CARTESIAN_POINT('',(14.4337567642449,24.,25.0000000348197));
#631=CARTESIAN_POINT('',(26.2694372783893,19.,-4.49999999123679));
#632=CARTESIAN_POINT('',(14.4337567750457,19.,-24.9999999651803));
#633=CARTESIAN_POINT('',(14.4337567750457,24.,-24.9999999651803));
#634=CARTESIAN_POINT('',(28.8675134993859,24.,2.54658646600681E-8));
#635=CARTESIAN_POINT('',(9.23760431145085,19.,-24.9999999651803));
#636=CARTESIAN_POINT('',(-14.4337566713983,19.,-24.9999999651803));
#637=CARTESIAN_POINT('',(-14.4337566713983,24.,-24.9999999651803));
#638=CARTESIAN_POINT('',(14.4337567750457,24.,-24.9999999651803));
#639=CARTESIAN_POINT('',(-17.031832867708,19.,-20.4999999912367));
#640=CARTESIAN_POINT('',(-14.4337566713983,24.,-24.9999999651803));
#641=CARTESIAN_POINT('',(0.,6.,0.));
#642=CARTESIAN_POINT('',(0.,21.,0.));
#643=CARTESIAN_POINT('',(0.,21.,19.6342));
#644=CARTESIAN_POINT('',(0.,21.,0.));
#645=CARTESIAN_POINT('',(-1.29246970711411E-23,21.,-1.29246970711411E-23));
#646=CARTESIAN_POINT('',(8.00000000000004,21.,13.856406460551));
#647=CARTESIAN_POINT('',(-1.29246970711411E-23,24.,-1.29246970711411E-23));
#648=CARTESIAN_POINT('',(-1.29246970711411E-23,24.,-1.29246970711411E-23));
#649=CARTESIAN_POINT('',(8.00000000000004,24.,13.856406460551));
#650=CARTESIAN_POINT('',(0.,24.,0.));
#651=CARTESIAN_POINT('',(-2.58792420628551E-15,-7.336,-5.19813532731752E-15));
#652=MECHANICAL_DESIGN_GEOMETRIC_PRESENTATION_REPRESENTATION('',(#331,#332,
#333,#334,#335,#336,#337,#338,#339,#340,#341,#342),#653);
#653=(
GEOMETRIC_REPRESENTATION_CONTEXT(3)
GLOBAL_UNCERTAINTY_ASSIGNED_CONTEXT((#656))
GLOBAL_UNIT_ASSIGNED_CONTEXT((#661,#660,#659))
REPRESENTATION_CONTEXT('F45R11-4DN28','TOP_LEVEL_ASSEMBLY_PART')
);
#654=(
GEOMETRIC_REPRESENTATION_CONTEXT(3)
GLOBAL_UNCERTAINTY_ASSIGNED_CONTEXT((#657))
GLOBAL_UNIT_ASSIGNED_CONTEXT((#661,#660,#659))
REPRESENTATION_CONTEXT('TOPEUNIONDN28gen','COMPONENT_PART')
);
#655=(
GEOMETRIC_REPRESENTATION_CONTEXT(3)
GLOBAL_UNCERTAINTY_ASSIGNED_CONTEXT((#658))
GLOBAL_UNIT_ASSIGNED_CONTEXT((#661,#660,#659))
REPRESENTATION_CONTEXT('TUERCA11-4_DN28gen','COMPONENT_PART')
);
#656=UNCERTAINTY_MEASURE_WITH_UNIT(LENGTH_MEASURE(0.005),#661,
'DISTANCE_ACCURACY_VALUE','Maximum Tolerance applied to model');
#657=UNCERTAINTY_MEASURE_WITH_UNIT(LENGTH_MEASURE(0.005),#661,
'DISTANCE_ACCURACY_VALUE','Maximum Tolerance applied to model');
#658=UNCERTAINTY_MEASURE_WITH_UNIT(LENGTH_MEASURE(0.005),#661,
'DISTANCE_ACCURACY_VALUE','Maximum Tolerance applied to model');
#659=(
NAMED_UNIT(*)
SI_UNIT($,.STERADIAN.)
SOLID_ANGLE_UNIT()
);
#660=(
NAMED_UNIT(*)
PLANE_ANGLE_UNIT()
SI_UNIT($,.RADIAN.)
);
#661=(
LENGTH_UNIT()
NAMED_UNIT(*)
SI_UNIT(.MILLI.,.METRE.)
);
#662=PRODUCT_DEFINITION_SHAPE('','',#667);
#663=PRODUCT_DEFINITION_SHAPE('','',#668);
#664=PRODUCT_DEFINITION_SHAPE(' ','NAUO PRDDFN',#56);
#665=PRODUCT_DEFINITION_SHAPE('','',#669);
#666=PRODUCT_DEFINITION_SHAPE(' ','NAUO PRDDFN',#57);
#667=PRODUCT_DEFINITION('','',#673,#670);
#668=PRODUCT_DEFINITION('','',#674,#671);
#669=PRODUCT_DEFINITION('','',#675,#672);
#670=PRODUCT_DEFINITION_CONTEXT('',#689,'design');
#671=PRODUCT_DEFINITION_CONTEXT('',#689,'design');
#672=PRODUCT_DEFINITION_CONTEXT('',#689,'design');
#673=PRODUCT_DEFINITION_FORMATION_WITH_SPECIFIED_SOURCE('','',#679,
 .NOT_KNOWN.);
#674=PRODUCT_DEFINITION_FORMATION_WITH_SPECIFIED_SOURCE('','',#680,
 .NOT_KNOWN.);
#675=PRODUCT_DEFINITION_FORMATION_WITH_SPECIFIED_SOURCE('','',#681,
 .NOT_KNOWN.);
#676=PRODUCT_RELATED_PRODUCT_CATEGORY('','',(#679));
#677=PRODUCT_RELATED_PRODUCT_CATEGORY('','',(#680));
#678=PRODUCT_RELATED_PRODUCT_CATEGORY('','',(#681));
#679=PRODUCT('F45R11-4DN28','F45R11-4DN28','F45R11-4DN28',(#685));
#680=PRODUCT('TOPEUNIONDN28gen','TOPEUNIONDN28gen','TOPEUNIONDN28gen',(#686));
#681=PRODUCT('TUERCA11-4_DN28gen','TUERCA11-4_DN28gen',
'TUERCA11-4_DN28gen',(#687));
#682=PRODUCT_CATEGORY('','');
#683=PRODUCT_CATEGORY('','');
#684=PRODUCT_CATEGORY('','');
#685=PRODUCT_CONTEXT('',#689,'mechanical');
#686=PRODUCT_CONTEXT('',#689,'mechanical');
#687=PRODUCT_CONTEXT('',#689,'mechanical');
#688=APPLICATION_PROTOCOL_DEFINITION('international standard',
'automotive_design',2010,#689);
#689=APPLICATION_CONTEXT(
'core data for automotive mechanical design processes');
ENDSEC;
END-ISO-10303-21;
