ISO-10303-21;
HEADER;
/* Generated by software containing ST-Developer
 * from STEP Tools, Inc. (www.steptools.com) 
 */
/* OPTION: strings as raw bytes, not using required /X/ escapes */

FILE_DESCRIPTION(
/* description */ ('Unknown'),
/* implementation_level */ '2;1');

FILE_NAME(
/* name */ 'F3DN54',
/* time_stamp */ '2019-10-28T10:32:32+01:00',
/* author */ ('Unknown'),
/* organization */ ('Unknown'),
/* preprocessor_version */ 'ST-DEVELOPER v16.7',
/* originating_system */ 'DEX',
/* authorisation */ $);

FILE_SCHEMA (('AUTOMOTIVE_DESIGN {1 0 10303 214 3 1 1}'));
ENDSEC;

DATA;
#10=PROPERTY_DEFINITION_REPRESENTATION(#14,#12);
#11=PROPERTY_DEFINITION_REPRESENTATION(#15,#13);
#12=REPRESENTATION('',(#16),#285);
#13=REPRESENTATION('',(#17),#285);
#14=PROPERTY_DEFINITION('pmi validation property','',#290);
#15=PROPERTY_DEFINITION('pmi validation property','',#290);
#16=VALUE_REPRESENTATION_ITEM('number of annotations',COUNT_MEASURE(0.));
#17=VALUE_REPRESENTATION_ITEM('number of views',COUNT_MEASURE(0.));
#18=SHAPE_REPRESENTATION_RELATIONSHIP('','',#143,#19);
#19=ADVANCED_BREP_SHAPE_REPRESENTATION('',(#141),#285);
#20=B_SPLINE_CURVE_WITH_KNOTS('',3,(#224,#225,#226,#227,#228,#229,#230,
#231,#232,#233,#234,#235,#236,#237,#238,#239,#240,#241,#242,#243,#244,#245,
#246,#247,#248,#249,#250,#251,#252,#253,#254,#255,#256,#257,#258,#259,#260,
#261,#262,#263,#264,#265,#266,#267,#268,#269),.UNSPECIFIED.,.T.,.F.,(1,
1,1,1,1,1,1,1,1,1,1,1,1,1,1,1,1,1,1,1,1,1,1,1,1,1,1,1,1,1,1,1,1,1,1,1,1,
1,1,1,1,1,1,1,1,1,1,1,1,1),(-0.0161735441461425,-0.010782362764095,-0.00539118138204747,
0.,0.00539118138204749,0.010782362764095,0.0161735441461425,0.0188691348371662,
0.02156472552819,0.0242603162192137,0.0269559069102374,0.0323470882922849,
0.0377382696743324,0.0431294510563799,0.0458250417474037,0.0485206324384274,
0.0512162231294511,0.0539118138204749,0.0593029952025224,0.0646941765845699,
0.0700853579666174,0.0727809486576411,0.0754765393486649,0.0808677207307123,
0.0862589021127598,0.0889544928037836,0.0916500834948073,0.0970412648768548,
0.102432446258902,0.10782362764095,0.110519218331974,0.113214809022997,
0.115910399714021,0.118605990405045,0.123997171787092,0.12938835316914,
0.134779534551187,0.140170715933235,0.142866306624258,0.145561897315282,
0.148257488006306,0.15095307869733,0.153648669388353,0.156344260079377,
0.161735441461425,0.167126622843472,0.17251780422552,0.177908985607567,
0.183300166989615,0.188691348371662),.UNSPECIFIED.);
#21=TOROIDAL_SURFACE('',#155,65.,27.5);
#22=CONICAL_SURFACE('',#153,27.5,0.785398163397447);
#23=CONICAL_SURFACE('',#156,27.5,0.785398163397447);
#24=CYLINDRICAL_SURFACE('',#147,27.);
#25=CYLINDRICAL_SURFACE('',#151,29.5);
#26=CYLINDRICAL_SURFACE('',#158,27.);
#27=CYLINDRICAL_SURFACE('',#162,29.5);
#28=ORIENTED_EDGE('',*,*,#48,.F.);
#29=ORIENTED_EDGE('',*,*,#48,.T.);
#30=ORIENTED_EDGE('',*,*,#49,.F.);
#31=ORIENTED_EDGE('',*,*,#50,.F.);
#32=ORIENTED_EDGE('',*,*,#49,.T.);
#33=ORIENTED_EDGE('',*,*,#51,.T.);
#34=ORIENTED_EDGE('',*,*,#50,.T.);
#35=ORIENTED_EDGE('',*,*,#51,.F.);
#36=ORIENTED_EDGE('',*,*,#52,.F.);
#37=ORIENTED_EDGE('',*,*,#53,.T.);
#38=ORIENTED_EDGE('',*,*,#52,.T.);
#39=ORIENTED_EDGE('',*,*,#54,.T.);
#40=ORIENTED_EDGE('',*,*,#53,.F.);
#41=ORIENTED_EDGE('',*,*,#55,.F.);
#42=ORIENTED_EDGE('',*,*,#56,.T.);
#43=ORIENTED_EDGE('',*,*,#55,.T.);
#44=ORIENTED_EDGE('',*,*,#54,.F.);
#45=ORIENTED_EDGE('',*,*,#57,.F.);
#46=ORIENTED_EDGE('',*,*,#57,.T.);
#47=ORIENTED_EDGE('',*,*,#56,.F.);
#48=EDGE_CURVE('',#58,#58,#68,.T.);
#49=EDGE_CURVE('',#59,#59,#69,.T.);
#50=EDGE_CURVE('',#60,#60,#70,.T.);
#51=EDGE_CURVE('',#61,#61,#71,.F.);
#52=EDGE_CURVE('',#62,#62,#72,.T.);
#53=EDGE_CURVE('',#63,#63,#20,.T.);
#54=EDGE_CURVE('',#64,#64,#73,.F.);
#55=EDGE_CURVE('',#65,#65,#74,.T.);
#56=EDGE_CURVE('',#66,#66,#75,.T.);
#57=EDGE_CURVE('',#67,#67,#76,.T.);
#58=VERTEX_POINT('',#210);
#59=VERTEX_POINT('',#213);
#60=VERTEX_POINT('',#216);
#61=VERTEX_POINT('',#219);
#62=VERTEX_POINT('',#222);
#63=VERTEX_POINT('',#270);
#64=VERTEX_POINT('',#273);
#65=VERTEX_POINT('',#276);
#66=VERTEX_POINT('',#278);
#67=VERTEX_POINT('',#282);
#68=CIRCLE('',#146,27.);
#69=CIRCLE('',#148,27.);
#70=CIRCLE('',#150,29.5);
#71=CIRCLE('',#152,29.5);
#72=CIRCLE('',#154,27.5);
#73=CIRCLE('',#157,29.5);
#74=CIRCLE('',#159,27.);
#75=CIRCLE('',#160,27.);
#76=CIRCLE('',#163,29.5);
#77=EDGE_LOOP('',(#28));
#78=EDGE_LOOP('',(#29));
#79=EDGE_LOOP('',(#30));
#80=EDGE_LOOP('',(#31));
#81=EDGE_LOOP('',(#32));
#82=EDGE_LOOP('',(#33));
#83=EDGE_LOOP('',(#34));
#84=EDGE_LOOP('',(#35));
#85=EDGE_LOOP('',(#36));
#86=EDGE_LOOP('',(#37));
#87=EDGE_LOOP('',(#38));
#88=EDGE_LOOP('',(#39));
#89=EDGE_LOOP('',(#40));
#90=EDGE_LOOP('',(#41));
#91=EDGE_LOOP('',(#42));
#92=EDGE_LOOP('',(#43));
#93=EDGE_LOOP('',(#44));
#94=EDGE_LOOP('',(#45));
#95=EDGE_LOOP('',(#46));
#96=EDGE_LOOP('',(#47));
#97=FACE_BOUND('',#77,.T.);
#98=FACE_BOUND('',#78,.T.);
#99=FACE_BOUND('',#79,.T.);
#100=FACE_BOUND('',#80,.T.);
#101=FACE_BOUND('',#81,.T.);
#102=FACE_BOUND('',#82,.T.);
#103=FACE_BOUND('',#83,.T.);
#104=FACE_BOUND('',#84,.T.);
#105=FACE_BOUND('',#85,.T.);
#106=FACE_BOUND('',#86,.T.);
#107=FACE_BOUND('',#87,.T.);
#108=FACE_BOUND('',#88,.T.);
#109=FACE_BOUND('',#89,.T.);
#110=FACE_BOUND('',#90,.T.);
#111=FACE_BOUND('',#91,.T.);
#112=FACE_BOUND('',#92,.T.);
#113=FACE_BOUND('',#93,.T.);
#114=FACE_BOUND('',#94,.T.);
#115=FACE_BOUND('',#95,.T.);
#116=FACE_BOUND('',#96,.T.);
#117=PLANE('',#145);
#118=PLANE('',#149);
#119=PLANE('',#161);
#120=PLANE('',#164);
#121=ADVANCED_FACE('',(#97),#117,.F.);
#122=ADVANCED_FACE('',(#98,#99),#24,.F.);
#123=ADVANCED_FACE('',(#100,#101),#118,.F.);
#124=ADVANCED_FACE('',(#102,#103),#25,.T.);
#125=ADVANCED_FACE('',(#104,#105),#22,.T.);
#126=ADVANCED_FACE('',(#106,#107),#21,.T.);
#127=ADVANCED_FACE('',(#108,#109),#23,.T.);
#128=ADVANCED_FACE('',(#110,#111),#26,.F.);
#129=ADVANCED_FACE('',(#112),#119,.F.);
#130=ADVANCED_FACE('',(#113,#114),#27,.T.);
#131=ADVANCED_FACE('',(#115,#116),#120,.F.);
#132=CLOSED_SHELL('',(#121,#122,#123,#124,#125,#126,#127,#128,#129,#130,
#131));
#133=STYLED_ITEM('',(#134),#141);
#134=PRESENTATION_STYLE_ASSIGNMENT((#135));
#135=SURFACE_STYLE_USAGE(.BOTH.,#136);
#136=SURFACE_SIDE_STYLE('',(#137));
#137=SURFACE_STYLE_FILL_AREA(#138);
#138=FILL_AREA_STYLE('',(#139));
#139=FILL_AREA_STYLE_COLOUR('',#140);
#140=COLOUR_RGB('',0.400000005960464,0.295081973075867,0.131147548556328);
#141=MANIFOLD_SOLID_BREP('',#132);
#142=SHAPE_DEFINITION_REPRESENTATION(#290,#143);
#143=SHAPE_REPRESENTATION('F3DN54',(#144),#285);
#144=AXIS2_PLACEMENT_3D('',#207,#165,#166);
#145=AXIS2_PLACEMENT_3D('',#208,#167,#168);
#146=AXIS2_PLACEMENT_3D('',#209,#169,#170);
#147=AXIS2_PLACEMENT_3D('',#211,#171,#172);
#148=AXIS2_PLACEMENT_3D('',#212,#173,#174);
#149=AXIS2_PLACEMENT_3D('',#214,#175,#176);
#150=AXIS2_PLACEMENT_3D('',#215,#177,#178);
#151=AXIS2_PLACEMENT_3D('',#217,#179,#180);
#152=AXIS2_PLACEMENT_3D('',#218,#181,#182);
#153=AXIS2_PLACEMENT_3D('',#220,#183,#184);
#154=AXIS2_PLACEMENT_3D('',#221,#185,#186);
#155=AXIS2_PLACEMENT_3D('',#223,#187,#188);
#156=AXIS2_PLACEMENT_3D('',#271,#189,#190);
#157=AXIS2_PLACEMENT_3D('',#272,#191,#192);
#158=AXIS2_PLACEMENT_3D('',#274,#193,#194);
#159=AXIS2_PLACEMENT_3D('',#275,#195,#196);
#160=AXIS2_PLACEMENT_3D('',#277,#197,#198);
#161=AXIS2_PLACEMENT_3D('',#279,#199,#200);
#162=AXIS2_PLACEMENT_3D('',#280,#201,#202);
#163=AXIS2_PLACEMENT_3D('',#281,#203,#204);
#164=AXIS2_PLACEMENT_3D('',#283,#205,#206);
#165=DIRECTION('',(0.,0.,1.));
#166=DIRECTION('',(1.,0.,0.));
#167=DIRECTION('',(0.,1.,0.));
#168=DIRECTION('',(0.,0.,1.));
#169=DIRECTION('',(0.,1.,0.));
#170=DIRECTION('',(1.,0.,0.));
#171=DIRECTION('',(0.,-1.,0.));
#172=DIRECTION('',(0.,0.,-1.));
#173=DIRECTION('',(0.,1.,0.));
#174=DIRECTION('',(1.,0.,0.));
#175=DIRECTION('',(0.,1.,0.));
#176=DIRECTION('',(0.,0.,1.));
#177=DIRECTION('',(0.,1.,0.));
#178=DIRECTION('',(0.,0.,1.));
#179=DIRECTION('',(0.,1.,0.));
#180=DIRECTION('',(0.,0.,1.));
#181=DIRECTION('',(0.,1.,0.));
#182=DIRECTION('',(0.,0.,1.));
#183=DIRECTION('',(0.,-1.,0.));
#184=DIRECTION('',(0.,0.,-1.));
#185=DIRECTION('',(0.,1.,0.));
#186=DIRECTION('',(0.,0.,1.));
#187=DIRECTION('',(-1.,-1.22464679914735E-16,0.));
#188=DIRECTION('',(1.22464679914735E-16,-1.,0.));
#189=DIRECTION('',(-1.22464679914735E-16,2.22044604925031E-16,1.));
#190=DIRECTION('',(-1.22464679914735E-16,1.,-2.22044604925031E-16));
#191=DIRECTION('',(-1.22464679914735E-16,2.22044604925031E-16,1.));
#192=DIRECTION('',(1.22464679914735E-16,-1.,2.22044604925031E-16));
#193=DIRECTION('',(-1.22464679914735E-16,2.22044604925031E-16,1.));
#194=DIRECTION('',(-1.22464679914735E-16,1.,-2.22044604925031E-16));
#195=DIRECTION('',(-1.22464679914735E-16,2.22044604925031E-16,1.));
#196=DIRECTION('',(1.,1.22464679914735E-16,1.22464679914735E-16));
#197=DIRECTION('',(-1.22464679914735E-16,2.22044604925031E-16,1.));
#198=DIRECTION('',(1.,1.22464679914735E-16,1.22464679914735E-16));
#199=DIRECTION('',(1.22464679914735E-16,-2.22044604925031E-16,-1.));
#200=DIRECTION('',(1.22464679914735E-16,-1.,2.22044604925031E-16));
#201=DIRECTION('',(1.22464679914735E-16,-2.22044604925031E-16,-1.));
#202=DIRECTION('',(1.22464679914735E-16,-1.,2.22044604925031E-16));
#203=DIRECTION('',(-1.22464679914735E-16,2.22044604925031E-16,1.));
#204=DIRECTION('',(1.22464679914735E-16,-1.,2.22044604925031E-16));
#205=DIRECTION('',(1.22464679914735E-16,-2.22044604925031E-16,-1.));
#206=DIRECTION('',(1.22464679914735E-16,-1.,2.22044604925031E-16));
#207=CARTESIAN_POINT('',(0.,0.,0.));
#208=CARTESIAN_POINT('',(0.,-6.50000000000001,0.));
#209=CARTESIAN_POINT('',(0.,-6.50000000000001,0.));
#210=CARTESIAN_POINT('',(27.,-6.50000000000001,0.));
#211=CARTESIAN_POINT('',(0.,-6.50000000000001,0.));
#212=CARTESIAN_POINT('',(0.,-40.2,0.));
#213=CARTESIAN_POINT('',(27.,-40.2,0.));
#214=CARTESIAN_POINT('',(0.,-40.2,0.));
#215=CARTESIAN_POINT('',(0.,-40.2,0.));
#216=CARTESIAN_POINT('',(0.,-40.2,29.5));
#217=CARTESIAN_POINT('',(0.,-40.2,0.));
#218=CARTESIAN_POINT('',(0.,-2.,0.));
#219=CARTESIAN_POINT('',(0.,-2.,29.5));
#220=CARTESIAN_POINT('',(0.,0.,0.));
#221=CARTESIAN_POINT('',(0.,0.,0.));
#222=CARTESIAN_POINT('',(0.,0.,27.5));
#223=CARTESIAN_POINT('',(5.91758361335666E-15,0.,65.));
#224=CARTESIAN_POINT('',(12.1122255854625,40.1073055815494,64.4477532785114));
#225=CARTESIAN_POINT('',(7.02467055846345,38.2257308317673,64.4283320464022));
#226=CARTESIAN_POINT('',(1.6644850686372,37.3666155166134,64.4195027493927));
#227=CARTESIAN_POINT('',(-3.78766694166587,37.5780166068162,64.421672960291));
#228=CARTESIAN_POINT('',(-8.17951518861306,38.6315607851384,64.4325151465403));
#229=CARTESIAN_POINT('',(-11.5391139934617,39.9855101983539,64.4465116916813));
#230=CARTESIAN_POINT('',(-13.9178324206907,41.2282039709706,64.4593962641015));
#231=CARTESIAN_POINT('',(-16.1748320013584,42.7010525866445,64.474714592919));
#232=CARTESIAN_POINT('',(-19.0104231433472,44.9831235942004,64.4985252901297));
#233=CARTESIAN_POINT('',(-22.0456956669911,48.2645125048018,64.5329122579951));
#234=CARTESIAN_POINT('',(-24.9078671969337,52.9305789619417,64.5820545003775));
#235=CARTESIAN_POINT('',(-26.458304934506,57.1294132818446,64.6264236111253));
#236=CARTESIAN_POINT('',(-27.2058105190056,60.691120667731,64.6641087520763));
#237=CARTESIAN_POINT('',(-27.4944398078138,63.3623691197451,64.6923864628667));
#238=CARTESIAN_POINT('',(-27.5247666919309,66.0486038973918,64.7208279908071));
#239=CARTESIAN_POINT('',(-27.2052438978027,69.6733392955454,64.7592032063742));
#240=CARTESIAN_POINT('',(-26.1637265455782,74.0273416415708,64.8052773912653));
#241=CARTESIAN_POINT('',(-23.8750967434176,78.9995272134152,64.8578256537461));
#242=CARTESIAN_POINT('',(-21.2507659061542,82.6173655586663,64.8959996623966));
#243=CARTESIAN_POINT('',(-18.7049424771698,85.2197500491717,64.9234270775829));
#244=CARTESIAN_POINT('',(-15.9533460736068,87.5245302120845,64.9476990267563));
#245=CARTESIAN_POINT('',(-12.1049024148444,89.8909356221119,64.9725912932511));
#246=CARTESIAN_POINT('',(-7.85886031446382,91.4594396293366,64.9890717956124));
#247=CARTESIAN_POINT('',(-4.35115389563716,92.1988538537902,64.9968377984239));
#248=CARTESIAN_POINT('',(-0.730323829469564,92.5942551228984,65.0009897039072));
#249=CARTESIAN_POINT('',(3.73587747187776,92.4236836695248,64.9991989651041));
#250=CARTESIAN_POINT('',(9.06165768498525,91.1518595871507,64.9858419318922));
#251=CARTESIAN_POINT('',(13.1261640578199,89.2831831103042,64.9661999372049));
#252=CARTESIAN_POINT('',(16.1758948741233,87.2948003796612,64.9452781105811));
#253=CARTESIAN_POINT('',(18.2710735850454,85.6104685239668,64.9275428965179));
#254=CARTESIAN_POINT('',(20.1924177914321,83.7342976002439,64.9077728913376));
#255=CARTESIAN_POINT('',(22.5302876111186,80.9485046301042,64.8783942248477));
#256=CARTESIAN_POINT('',(24.8770408151248,77.1310725152517,64.8380884033934));
#257=CARTESIAN_POINT('',(26.7763213815812,72.0028122516613,64.78386069265));
#258=CARTESIAN_POINT('',(27.6250001618022,66.6947182383593,64.7276709829552));
#259=CARTESIAN_POINT('',(27.453981085939,62.1363776088349,64.6794040226115));
#260=CARTESIAN_POINT('',(26.7954683135632,58.6232253257756,64.6422273781458));
#261=CARTESIAN_POINT('',(26.0407850984294,56.0208153781758,64.6147092657301));
#262=CARTESIAN_POINT('',(25.0275134573178,53.4958911016905,64.5880413182402));
#263=CARTESIAN_POINT('',(23.7880199680321,51.1142194863226,64.5629252855414));
#264=CARTESIAN_POINT('',(22.3212091305083,48.8583862546133,64.5391820258753));
#265=CARTESIAN_POINT('',(20.0436032975772,46.0176553322032,64.5093531145511));
#266=CARTESIAN_POINT('',(16.7641521798643,42.9758800626769,64.4775508833842));
#267=CARTESIAN_POINT('',(12.1122255854625,40.1073055815494,64.4477532785114));
#268=CARTESIAN_POINT('',(7.02467055846345,38.2257308317673,64.4283320464022));
#269=CARTESIAN_POINT('',(1.6644850686372,37.3666155166134,64.4195027493927));
#270=CARTESIAN_POINT('',(6.97923214799226,38.3961407375387,64.4300973689188));
#271=CARTESIAN_POINT('',(-6.93889390390723E-15,64.7081771393425,64.7081771393425));
#272=CARTESIAN_POINT('',(-7.1838232637367E-15,64.7081771393425,66.7081771393425));
#273=CARTESIAN_POINT('',(-3.57111520625201E-15,35.2081771393425,66.7081771393425));
#274=CARTESIAN_POINT('',(-7.73491432335301E-15,64.7081771393425,71.2081771393425));
#275=CARTESIAN_POINT('',(-7.73491432335301E-15,64.7081771393425,71.2081771393425));
#276=CARTESIAN_POINT('',(27.,64.7081771393425,71.2081771393425));
#277=CARTESIAN_POINT('',(-1.18619740364796E-14,64.7081771393425,104.908177139342));
#278=CARTESIAN_POINT('',(27.,64.7081771393425,104.908177139342));
#279=CARTESIAN_POINT('',(-7.73491432335301E-15,64.7081771393425,71.2081771393425));
#280=CARTESIAN_POINT('',(-1.18619740364796E-14,64.7081771393425,104.908177139342));
#281=CARTESIAN_POINT('',(-1.18619740364796E-14,64.7081771393425,104.908177139342));
#282=CARTESIAN_POINT('',(-8.2492659789949E-15,35.2081771393425,104.908177139342));
#283=CARTESIAN_POINT('',(-1.18619740364796E-14,64.7081771393425,104.908177139342));
#284=MECHANICAL_DESIGN_GEOMETRIC_PRESENTATION_REPRESENTATION('',(#133),
#285);
#285=(
GEOMETRIC_REPRESENTATION_CONTEXT(3)
GLOBAL_UNCERTAINTY_ASSIGNED_CONTEXT((#286))
GLOBAL_UNIT_ASSIGNED_CONTEXT((#289,#288,#287))
REPRESENTATION_CONTEXT('F3DN54','TOP_LEVEL_ASSEMBLY_PART')
);
#286=UNCERTAINTY_MEASURE_WITH_UNIT(LENGTH_MEASURE(0.005),#289,
'DISTANCE_ACCURACY_VALUE','Maximum Tolerance applied to model');
#287=(
NAMED_UNIT(*)
SI_UNIT($,.STERADIAN.)
SOLID_ANGLE_UNIT()
);
#288=(
NAMED_UNIT(*)
PLANE_ANGLE_UNIT()
SI_UNIT($,.RADIAN.)
);
#289=(
LENGTH_UNIT()
NAMED_UNIT(*)
SI_UNIT(.MILLI.,.METRE.)
);
#290=PRODUCT_DEFINITION_SHAPE('','',#291);
#291=PRODUCT_DEFINITION('','',#293,#292);
#292=PRODUCT_DEFINITION_CONTEXT('',#299,'design');
#293=PRODUCT_DEFINITION_FORMATION_WITH_SPECIFIED_SOURCE('','',#295,
 .NOT_KNOWN.);
#294=PRODUCT_RELATED_PRODUCT_CATEGORY('','',(#295));
#295=PRODUCT('F3DN54','F3DN54','F3DN54',(#297));
#296=PRODUCT_CATEGORY('','');
#297=PRODUCT_CONTEXT('',#299,'mechanical');
#298=APPLICATION_PROTOCOL_DEFINITION('international standard',
'automotive_design',2010,#299);
#299=APPLICATION_CONTEXT(
'core data for automotive mechanical design processes');
ENDSEC;
END-ISO-10303-21;
