ISO-10303-21;
HEADER;
FILE_DESCRIPTION( ( 'Unknown' ), '1' );
FILE_NAME( 'O:/alfredo/Alfredo2/ISOTUBI/PZAS3D/FICHATECNICA/NUMEPRESS/generico 3D/Genericos stp/F3DN168,3.stp', 'Unknown', ( 'Unknown' ), ( 'Unknown' ), 'PSStep 16.0.42', 'Unknown', '  ' );
FILE_SCHEMA( ( 'AUTOMOTIVE_DESIGN { 1 0 10303 214 1 1 1 1 }' ) );
ENDSEC;
DATA;
#1 = MECHANICAL_DESIGN_GEOMETRIC_PRESENTATION_REPRESENTATION( ' ', ( #10, #11, #12, #13, #14, #15, #16, #17, #18, #19, #20, #21, #22, #23, #24, #25, #26 ), #6 );
#2 = PRODUCT_DEFINITION_CONTEXT( '', #27, 'design' );
#3 = APPLICATION_PROTOCOL_DEFINITION( 'international standard', 'automotive_design', 2001, #27 );
#4 = PRODUCT_CATEGORY_RELATIONSHIP( 'NONE', 'NONE', #28, #29 );
#5 = SHAPE_DEFINITION_REPRESENTATION( #30, #31 );
#6 =  ( GEOMETRIC_REPRESENTATION_CONTEXT( 3 )GLOBAL_UNCERTAINTY_ASSIGNED_CONTEXT( ( #34 ) )GLOBAL_UNIT_ASSIGNED_CONTEXT( ( #36, #37, #38 ) )REPRESENTATION_CONTEXT( 'NONE', 'WORKSPACE' ) );
#10 = STYLED_ITEM( '', ( #40 ), #41 );
#11 = STYLED_ITEM( '', ( #42 ), #43 );
#12 = STYLED_ITEM( '', ( #44 ), #45 );
#13 = STYLED_ITEM( '', ( #46 ), #47 );
#14 = STYLED_ITEM( '', ( #48 ), #49 );
#15 = STYLED_ITEM( '', ( #50 ), #51 );
#16 = STYLED_ITEM( '', ( #52 ), #53 );
#17 = STYLED_ITEM( '', ( #54 ), #55 );
#18 = STYLED_ITEM( '', ( #56 ), #57 );
#19 = STYLED_ITEM( '', ( #58 ), #59 );
#20 = STYLED_ITEM( '', ( #60 ), #61 );
#21 = STYLED_ITEM( '', ( #62 ), #63 );
#22 = STYLED_ITEM( '', ( #64 ), #65 );
#23 = STYLED_ITEM( '', ( #66 ), #67 );
#24 = STYLED_ITEM( '', ( #68 ), #69 );
#25 = STYLED_ITEM( '', ( #70 ), #71 );
#26 = STYLED_ITEM( '', ( #72 ), #73 );
#27 = APPLICATION_CONTEXT( 'core data for automotive mechanical design processes' );
#28 = PRODUCT_CATEGORY( 'part', 'NONE' );
#29 = PRODUCT_RELATED_PRODUCT_CATEGORY( 'detail', ' ', ( #74 ) );
#30 = PRODUCT_DEFINITION_SHAPE( 'NONE', 'NONE', #75 );
#31 = ADVANCED_BREP_SHAPE_REPRESENTATION( '1', ( #76, #77 ), #6 );
#34 = UNCERTAINTY_MEASURE_WITH_UNIT( LENGTH_MEASURE( 0.00100000000000000 ), #36, '', '' );
#36 =  ( CONVERSION_BASED_UNIT( 'MILLIMETRE', #80 )LENGTH_UNIT(  )NAMED_UNIT( #83 ) );
#37 =  ( NAMED_UNIT( #85 )PLANE_ANGLE_UNIT(  )SI_UNIT( $, .RADIAN. ) );
#38 =  ( NAMED_UNIT( #85 )SI_UNIT( $, .STERADIAN. )SOLID_ANGLE_UNIT(  ) );
#40 = PRESENTATION_STYLE_ASSIGNMENT( ( #91 ) );
#41 = ADVANCED_FACE( '', ( #92, #93 ), #94, .F. );
#42 = PRESENTATION_STYLE_ASSIGNMENT( ( #95 ) );
#43 = ADVANCED_FACE( '', ( #96, #97 ), #98, .T. );
#44 = PRESENTATION_STYLE_ASSIGNMENT( ( #99 ) );
#45 = ADVANCED_FACE( '', ( #100 ), #101, .F. );
#46 = PRESENTATION_STYLE_ASSIGNMENT( ( #102 ) );
#47 = ADVANCED_FACE( '', ( #103, #104 ), #105, .T. );
#48 = PRESENTATION_STYLE_ASSIGNMENT( ( #106 ) );
#49 = ADVANCED_FACE( '', ( #107, #108 ), #109, .T. );
#50 = PRESENTATION_STYLE_ASSIGNMENT( ( #110 ) );
#51 = ADVANCED_FACE( '', ( #111, #112 ), #113, .F. );
#52 = PRESENTATION_STYLE_ASSIGNMENT( ( #114 ) );
#53 = ADVANCED_FACE( '', ( #115, #116 ), #117, .T. );
#54 = PRESENTATION_STYLE_ASSIGNMENT( ( #118 ) );
#55 = ADVANCED_FACE( '', ( #119, #120 ), #121, .T. );
#56 = PRESENTATION_STYLE_ASSIGNMENT( ( #122 ) );
#57 = ADVANCED_FACE( '', ( #123, #124 ), #125, .T. );
#58 = PRESENTATION_STYLE_ASSIGNMENT( ( #126 ) );
#59 = ADVANCED_FACE( '', ( #127, #128 ), #129, .T. );
#60 = PRESENTATION_STYLE_ASSIGNMENT( ( #130 ) );
#61 = ADVANCED_FACE( '', ( #131, #132 ), #133, .F. );
#62 = PRESENTATION_STYLE_ASSIGNMENT( ( #134 ) );
#63 = ADVANCED_FACE( '', ( #135, #136 ), #137, .T. );
#64 = PRESENTATION_STYLE_ASSIGNMENT( ( #138 ) );
#65 = ADVANCED_FACE( '', ( #139 ), #140, .F. );
#66 = PRESENTATION_STYLE_ASSIGNMENT( ( #141 ) );
#67 = ADVANCED_FACE( '', ( #142, #143 ), #144, .F. );
#68 = PRESENTATION_STYLE_ASSIGNMENT( ( #145 ) );
#69 = ADVANCED_FACE( '', ( #146, #147 ), #148, .T. );
#70 = PRESENTATION_STYLE_ASSIGNMENT( ( #149 ) );
#71 = ADVANCED_FACE( '', ( #150, #151 ), #152, .T. );
#72 = PRESENTATION_STYLE_ASSIGNMENT( ( #153 ) );
#73 = ADVANCED_FACE( '', ( #154, #155 ), #156, .T. );
#74 = PRODUCT( '1', '1', 'PART-1-DESC', ( #157 ) );
#75 = PRODUCT_DEFINITION( 'NONE', 'NONE', #158, #2 );
#76 = MANIFOLD_SOLID_BREP( '1', #159 );
#77 = AXIS2_PLACEMENT_3D( '', #160, #161, #162 );
#80 = LENGTH_MEASURE_WITH_UNIT( LENGTH_MEASURE( 1.00000000000000 ), #163 );
#83 = DIMENSIONAL_EXPONENTS( 1.00000000000000, 0.000000000000000, 0.000000000000000, 0.000000000000000, 0.000000000000000, 0.000000000000000, 0.000000000000000 );
#85 = DIMENSIONAL_EXPONENTS( 0.000000000000000, 0.000000000000000, 0.000000000000000, 0.000000000000000, 0.000000000000000, 0.000000000000000, 0.000000000000000 );
#91 = SURFACE_STYLE_USAGE( .BOTH., #164 );
#92 = FACE_OUTER_BOUND( '', #165, .T. );
#93 = FACE_OUTER_BOUND( '', #166, .T. );
#94 = CYLINDRICAL_SURFACE( '', #167, 84.1500000000000 );
#95 = SURFACE_STYLE_USAGE( .BOTH., #168 );
#96 = FACE_OUTER_BOUND( '', #169, .T. );
#97 = FACE_OUTER_BOUND( '', #170, .T. );
#98 = CYLINDRICAL_SURFACE( '', #171, 87.5000000000000 );
#99 = SURFACE_STYLE_USAGE( .BOTH., #172 );
#100 = FACE_OUTER_BOUND( '', #173, .T. );
#101 = PLANE( '', #174 );
#102 = SURFACE_STYLE_USAGE( .BOTH., #175 );
#103 = FACE_OUTER_BOUND( '', #176, .T. );
#104 = FACE_BOUND( '', #177, .T. );
#105 = PLANE( '', #178 );
#106 = SURFACE_STYLE_USAGE( .BOTH., #179 );
#107 = FACE_OUTER_BOUND( '', #180, .T. );
#108 = FACE_OUTER_BOUND( '', #181, .T. );
#109 = CYLINDRICAL_SURFACE( '', #182, 87.5000000000000 );
#110 = SURFACE_STYLE_USAGE( .BOTH., #183 );
#111 = FACE_OUTER_BOUND( '', #184, .T. );
#112 = FACE_OUTER_BOUND( '', #185, .T. );
#113 = CYLINDRICAL_SURFACE( '', #186, 84.1500000000000 );
#114 = SURFACE_STYLE_USAGE( .BOTH., #187 );
#115 = FACE_OUTER_BOUND( '', #188, .T. );
#116 = FACE_OUTER_BOUND( '', #189, .T. );
#117 = CYLINDRICAL_SURFACE( '', #190, 85.0000000000000 );
#118 = SURFACE_STYLE_USAGE( .BOTH., #191 );
#119 = FACE_OUTER_BOUND( '', #192, .T. );
#120 = FACE_BOUND( '', #193, .T. );
#121 = CONICAL_SURFACE( '', #194, 85.5000000000000, 0.785398163397448 );
#122 = SURFACE_STYLE_USAGE( .BOTH., #195 );
#123 = FACE_OUTER_BOUND( '', #196, .T. );
#124 = FACE_BOUND( '', #197, .T. );
#125 = PLANE( '', #198 );
#126 = SURFACE_STYLE_USAGE( .BOTH., #199 );
#127 = FACE_OUTER_BOUND( '', #200, .T. );
#128 = FACE_BOUND( '', #201, .T. );
#129 = PLANE( '', #202 );
#130 = SURFACE_STYLE_USAGE( .BOTH., #203 );
#131 = FACE_BOUND( '', #204, .T. );
#132 = FACE_OUTER_BOUND( '', #205, .T. );
#133 = PLANE( '', #206 );
#134 = SURFACE_STYLE_USAGE( .BOTH., #207 );
#135 = FACE_OUTER_BOUND( '', #208, .T. );
#136 = FACE_BOUND( '', #209, .T. );
#137 = PLANE( '', #210 );
#138 = SURFACE_STYLE_USAGE( .BOTH., #211 );
#139 = FACE_OUTER_BOUND( '', #212, .T. );
#140 = PLANE( '', #213 );
#141 = SURFACE_STYLE_USAGE( .BOTH., #214 );
#142 = FACE_BOUND( '', #215, .T. );
#143 = FACE_OUTER_BOUND( '', #216, .T. );
#144 = PLANE( '', #217 );
#145 = SURFACE_STYLE_USAGE( .BOTH., #218 );
#146 = FACE_OUTER_BOUND( '', #219, .T. );
#147 = FACE_OUTER_BOUND( '', #220, .T. );
#148 = CYLINDRICAL_SURFACE( '', #221, 85.0000000000000 );
#149 = SURFACE_STYLE_USAGE( .BOTH., #222 );
#150 = FACE_OUTER_BOUND( '', #223, .T. );
#151 = FACE_BOUND( '', #224, .T. );
#152 = CONICAL_SURFACE( '', #225, 85.5000000000000, 0.785398163397448 );
#153 = SURFACE_STYLE_USAGE( .BOTH., #226 );
#154 = FACE_OUTER_BOUND( '', #227, .T. );
#155 = FACE_OUTER_BOUND( '', #228, .T. );
#156 = TOROIDAL_SURFACE( '', #229, 229.000000000000, 84.1500000000000 );
#157 = PRODUCT_CONTEXT( '', #27, 'mechanical' );
#158 = PRODUCT_DEFINITION_FORMATION_WITH_SPECIFIED_SOURCE( ' ', 'NONE', #74, .NOT_KNOWN. );
#159 = CLOSED_SHELL( '', ( #69, #61, #71, #47, #73, #45, #51, #41, #55, #59, #49, #67, #53, #65, #57, #43, #63 ) );
#160 = CARTESIAN_POINT( '', ( 0.000000000000000, 0.000000000000000, 0.000000000000000 ) );
#161 = DIRECTION( '', ( 0.000000000000000, 0.000000000000000, 1.00000000000000 ) );
#162 = DIRECTION( '', ( 1.00000000000000, 0.000000000000000, 0.000000000000000 ) );
#163 =  ( LENGTH_UNIT(  )NAMED_UNIT( #83 )SI_UNIT( .MILLI., .METRE. ) );
#164 = SURFACE_SIDE_STYLE( '', ( #231 ) );
#165 = EDGE_LOOP( '', ( #232 ) );
#166 = EDGE_LOOP( '', ( #233 ) );
#167 = AXIS2_PLACEMENT_3D( '', #234, #235, #236 );
#168 = SURFACE_SIDE_STYLE( '', ( #237 ) );
#169 = EDGE_LOOP( '', ( #238 ) );
#170 = EDGE_LOOP( '', ( #239 ) );
#171 = AXIS2_PLACEMENT_3D( '', #240, #241, #242 );
#172 = SURFACE_SIDE_STYLE( '', ( #243 ) );
#173 = EDGE_LOOP( '', ( #244 ) );
#174 = AXIS2_PLACEMENT_3D( '', #245, #246, #247 );
#175 = SURFACE_SIDE_STYLE( '', ( #248 ) );
#176 = EDGE_LOOP( '', ( #249 ) );
#177 = EDGE_LOOP( '', ( #250 ) );
#178 = AXIS2_PLACEMENT_3D( '', #251, #252, #253 );
#179 = SURFACE_SIDE_STYLE( '', ( #254 ) );
#180 = EDGE_LOOP( '', ( #255 ) );
#181 = EDGE_LOOP( '', ( #256 ) );
#182 = AXIS2_PLACEMENT_3D( '', #257, #258, #259 );
#183 = SURFACE_SIDE_STYLE( '', ( #260 ) );
#184 = EDGE_LOOP( '', ( #261 ) );
#185 = EDGE_LOOP( '', ( #262 ) );
#186 = AXIS2_PLACEMENT_3D( '', #263, #264, #265 );
#187 = SURFACE_SIDE_STYLE( '', ( #266 ) );
#188 = EDGE_LOOP( '', ( #267 ) );
#189 = EDGE_LOOP( '', ( #268 ) );
#190 = AXIS2_PLACEMENT_3D( '', #269, #270, #271 );
#191 = SURFACE_SIDE_STYLE( '', ( #272 ) );
#192 = EDGE_LOOP( '', ( #273 ) );
#193 = EDGE_LOOP( '', ( #274 ) );
#194 = AXIS2_PLACEMENT_3D( '', #275, #276, #277 );
#195 = SURFACE_SIDE_STYLE( '', ( #278 ) );
#196 = EDGE_LOOP( '', ( #279 ) );
#197 = EDGE_LOOP( '', ( #280 ) );
#198 = AXIS2_PLACEMENT_3D( '', #281, #282, #283 );
#199 = SURFACE_SIDE_STYLE( '', ( #284 ) );
#200 = EDGE_LOOP( '', ( #285 ) );
#201 = EDGE_LOOP( '', ( #286 ) );
#202 = AXIS2_PLACEMENT_3D( '', #287, #288, #289 );
#203 = SURFACE_SIDE_STYLE( '', ( #290 ) );
#204 = EDGE_LOOP( '', ( #291 ) );
#205 = EDGE_LOOP( '', ( #292 ) );
#206 = AXIS2_PLACEMENT_3D( '', #293, #294, #295 );
#207 = SURFACE_SIDE_STYLE( '', ( #296 ) );
#208 = EDGE_LOOP( '', ( #297 ) );
#209 = EDGE_LOOP( '', ( #298 ) );
#210 = AXIS2_PLACEMENT_3D( '', #299, #300, #301 );
#211 = SURFACE_SIDE_STYLE( '', ( #302 ) );
#212 = EDGE_LOOP( '', ( #303 ) );
#213 = AXIS2_PLACEMENT_3D( '', #304, #305, #306 );
#214 = SURFACE_SIDE_STYLE( '', ( #307 ) );
#215 = EDGE_LOOP( '', ( #308 ) );
#216 = EDGE_LOOP( '', ( #309 ) );
#217 = AXIS2_PLACEMENT_3D( '', #310, #311, #312 );
#218 = SURFACE_SIDE_STYLE( '', ( #313 ) );
#219 = EDGE_LOOP( '', ( #314 ) );
#220 = EDGE_LOOP( '', ( #315 ) );
#221 = AXIS2_PLACEMENT_3D( '', #316, #317, #318 );
#222 = SURFACE_SIDE_STYLE( '', ( #319 ) );
#223 = EDGE_LOOP( '', ( #320 ) );
#224 = EDGE_LOOP( '', ( #321 ) );
#225 = AXIS2_PLACEMENT_3D( '', #322, #323, #324 );
#226 = SURFACE_SIDE_STYLE( '', ( #325 ) );
#227 = EDGE_LOOP( '', ( #326 ) );
#228 = EDGE_LOOP( '', ( #327 ) );
#229 = AXIS2_PLACEMENT_3D( '', #328, #329, #330 );
#231 = SURFACE_STYLE_FILL_AREA( #331 );
#232 = ORIENTED_EDGE( '', *, *, #332, .T. );
#233 = ORIENTED_EDGE( '', *, *, #333, .F. );
#234 = CARTESIAN_POINT( '', ( 0.000000000000000, -32.0000000000000, 0.000000000000000 ) );
#235 = DIRECTION( '', ( -0.000000000000000, 1.00000000000000, -0.000000000000000 ) );
#236 = DIRECTION( '', ( 0.000000000000000, 0.000000000000000, -1.00000000000000 ) );
#237 = SURFACE_STYLE_FILL_AREA( #334 );
#238 = ORIENTED_EDGE( '', *, *, #335, .F. );
#239 = ORIENTED_EDGE( '', *, *, #336, .F. );
#240 = CARTESIAN_POINT( '', ( 256.000000000000, 229.000000000000, 3.39013857156269E-030 ) );
#241 = DIRECTION( '', ( -1.00000000000000, 1.11022302462516E-015, -1.25560687835655E-031 ) );
#242 = DIRECTION( '', ( 1.25560687835655E-031, 1.25560687835655E-031, -1.00000000000000 ) );
#243 = SURFACE_STYLE_FILL_AREA( #337 );
#244 = ORIENTED_EDGE( '', *, *, #332, .F. );
#245 = CARTESIAN_POINT( '', ( 0.000000000000000, -31.0000000000000, 0.000000000000000 ) );
#246 = DIRECTION( '', ( 0.000000000000000, 1.00000000000000, 0.000000000000000 ) );
#247 = DIRECTION( '', ( 0.000000000000000, 0.000000000000000, 1.00000000000000 ) );
#248 = SURFACE_STYLE_FILL_AREA( #338 );
#249 = ORIENTED_EDGE( '', *, *, #339, .F. );
#250 = ORIENTED_EDGE( '', *, *, #333, .T. );
#251 = CARTESIAN_POINT( '', ( 0.000000000000000, -149.000000000000, 0.000000000000000 ) );
#252 = DIRECTION( '', ( 0.000000000000000, -1.00000000000000, 0.000000000000000 ) );
#253 = DIRECTION( '', ( 0.000000000000000, 0.000000000000000, -1.00000000000000 ) );
#254 = SURFACE_STYLE_FILL_AREA( #340 );
#255 = ORIENTED_EDGE( '', *, *, #341, .T. );
#256 = ORIENTED_EDGE( '', *, *, #339, .T. );
#257 = CARTESIAN_POINT( '', ( 0.000000000000000, -27.0000000000000, 0.000000000000000 ) );
#258 = DIRECTION( '', ( -0.000000000000000, 1.00000000000000, -0.000000000000000 ) );
#259 = DIRECTION( '', ( 0.000000000000000, 0.000000000000000, -1.00000000000000 ) );
#260 = SURFACE_STYLE_FILL_AREA( #342 );
#261 = ORIENTED_EDGE( '', *, *, #343, .F. );
#262 = ORIENTED_EDGE( '', *, *, #344, .T. );
#263 = CARTESIAN_POINT( '', ( 261.000000000000, 229.000000000000, 4.01794201074096E-030 ) );
#264 = DIRECTION( '', ( -1.00000000000000, 1.11022302462516E-015, -1.25560687835655E-031 ) );
#265 = DIRECTION( '', ( 1.25560687835655E-031, 1.25560687835655E-031, -1.00000000000000 ) );
#266 = SURFACE_STYLE_FILL_AREA( #345 );
#267 = ORIENTED_EDGE( '', *, *, #346, .T. );
#268 = ORIENTED_EDGE( '', *, *, #347, .T. );
#269 = CARTESIAN_POINT( '', ( 0.000000000000000, -150.000000000000, 0.000000000000000 ) );
#270 = DIRECTION( '', ( -0.000000000000000, -1.00000000000000, -0.000000000000000 ) );
#271 = DIRECTION( '', ( 0.000000000000000, 0.000000000000000, 1.00000000000000 ) );
#272 = SURFACE_STYLE_FILL_AREA( #348 );
#273 = ORIENTED_EDGE( '', *, *, #341, .F. );
#274 = ORIENTED_EDGE( '', *, *, #349, .F. );
#275 = CARTESIAN_POINT( '', ( 0.000000000000000, -27.0000000000000, 0.000000000000000 ) );
#276 = DIRECTION( '', ( 0.000000000000000, -1.00000000000000, -0.000000000000000 ) );
#277 = DIRECTION( '', ( 0.000000000000000, 0.000000000000000, -1.00000000000000 ) );
#278 = SURFACE_STYLE_FILL_AREA( #350 );
#279 = ORIENTED_EDGE( '', *, *, #351, .F. );
#280 = ORIENTED_EDGE( '', *, *, #352, .T. );
#281 = CARTESIAN_POINT( '', ( 256.000000000000, 229.000000000000, 3.39013857156269E-030 ) );
#282 = DIRECTION( '', ( -1.00000000000000, 1.11022302462516E-015, -1.25560687835655E-031 ) );
#283 = DIRECTION( '', ( -1.25560687835655E-031, -1.25560687835655E-031, 1.00000000000000 ) );
#284 = SURFACE_STYLE_FILL_AREA( #353 );
#285 = ORIENTED_EDGE( '', *, *, #349, .T. );
#286 = ORIENTED_EDGE( '', *, *, #346, .F. );
#287 = CARTESIAN_POINT( '', ( 0.000000000000000, -27.0000000000000, 0.000000000000000 ) );
#288 = DIRECTION( '', ( 0.000000000000000, 1.00000000000000, 0.000000000000000 ) );
#289 = DIRECTION( '', ( 0.000000000000000, 0.000000000000000, 1.00000000000000 ) );
#290 = SURFACE_STYLE_FILL_AREA( #354 );
#291 = ORIENTED_EDGE( '', *, *, #355, .F. );
#292 = ORIENTED_EDGE( '', *, *, #356, .T. );
#293 = CARTESIAN_POINT( '', ( 229.000000000000, 229.000000000000, 0.000000000000000 ) );
#294 = DIRECTION( '', ( 1.00000000000000, -1.11022302462516E-015, 1.25560687835655E-031 ) );
#295 = DIRECTION( '', ( 1.25560687835655E-031, 1.25560687835655E-031, -1.00000000000000 ) );
#296 = SURFACE_STYLE_FILL_AREA( #357 );
#297 = ORIENTED_EDGE( '', *, *, #336, .T. );
#298 = ORIENTED_EDGE( '', *, *, #344, .F. );
#299 = CARTESIAN_POINT( '', ( 378.000000000000, 229.000000000000, 1.88341031753482E-029 ) );
#300 = DIRECTION( '', ( 1.00000000000000, -1.11022302462516E-015, 1.25560687835655E-031 ) );
#301 = DIRECTION( '', ( 1.25560687835655E-031, 1.25560687835655E-031, -1.00000000000000 ) );
#302 = SURFACE_STYLE_FILL_AREA( #358 );
#303 = ORIENTED_EDGE( '', *, *, #343, .T. );
#304 = CARTESIAN_POINT( '', ( 260.000000000000, 229.000000000000, 4.01794201074096E-030 ) );
#305 = DIRECTION( '', ( -1.00000000000000, 1.11022302462516E-015, -1.25560687835655E-031 ) );
#306 = DIRECTION( '', ( -1.25560687835655E-031, -1.25560687835655E-031, 1.00000000000000 ) );
#307 = SURFACE_STYLE_FILL_AREA( #359 );
#308 = ORIENTED_EDGE( '', *, *, #360, .T. );
#309 = ORIENTED_EDGE( '', *, *, #347, .F. );
#310 = CARTESIAN_POINT( '', ( 0.000000000000000, 0.000000000000000, 0.000000000000000 ) );
#311 = DIRECTION( '', ( 0.000000000000000, -1.00000000000000, 0.000000000000000 ) );
#312 = DIRECTION( '', ( 0.000000000000000, 0.000000000000000, -1.00000000000000 ) );
#313 = SURFACE_STYLE_FILL_AREA( #361 );
#314 = ORIENTED_EDGE( '', *, *, #352, .F. );
#315 = ORIENTED_EDGE( '', *, *, #356, .F. );
#316 = CARTESIAN_POINT( '', ( 379.000000000000, 229.000000000000, 1.88341031753482E-029 ) );
#317 = DIRECTION( '', ( 1.00000000000000, -1.11022302462516E-015, 1.25560687835655E-031 ) );
#318 = DIRECTION( '', ( -1.25560687835655E-031, -1.25560687835655E-031, 1.00000000000000 ) );
#319 = SURFACE_STYLE_FILL_AREA( #362 );
#320 = ORIENTED_EDGE( '', *, *, #335, .T. );
#321 = ORIENTED_EDGE( '', *, *, #351, .T. );
#322 = CARTESIAN_POINT( '', ( 256.000000000000, 229.000000000000, 3.39013857156269E-030 ) );
#323 = DIRECTION( '', ( 1.00000000000000, -1.11022302462516E-015, 1.25560687835655E-031 ) );
#324 = DIRECTION( '', ( 1.25560687835655E-031, 1.25560687835655E-031, -1.00000000000000 ) );
#325 = SURFACE_STYLE_FILL_AREA( #363 );
#326 = ORIENTED_EDGE( '', *, *, #355, .T. );
#327 = ORIENTED_EDGE( '', *, *, #360, .F. );
#328 = CARTESIAN_POINT( '', ( 229.000000000000, 0.000000000000000, 0.000000000000000 ) );
#329 = DIRECTION( '', ( 0.000000000000000, 0.000000000000000, 1.00000000000000 ) );
#330 = DIRECTION( '', ( 1.00000000000000, 0.000000000000000, 0.000000000000000 ) );
#331 = FILL_AREA_STYLE( '', ( #364 ) );
#332 = EDGE_CURVE( '', #365, #365, #366, .T. );
#333 = EDGE_CURVE( '', #367, #367, #368, .T. );
#334 = FILL_AREA_STYLE( '', ( #369 ) );
#335 = EDGE_CURVE( '', #370, #370, #371, .F. );
#336 = EDGE_CURVE( '', #372, #372, #373, .T. );
#337 = FILL_AREA_STYLE( '', ( #374 ) );
#338 = FILL_AREA_STYLE( '', ( #375 ) );
#339 = EDGE_CURVE( '', #376, #376, #377, .T. );
#340 = FILL_AREA_STYLE( '', ( #378 ) );
#341 = EDGE_CURVE( '', #379, #379, #380, .F. );
#342 = FILL_AREA_STYLE( '', ( #381 ) );
#343 = EDGE_CURVE( '', #382, #382, #383, .T. );
#344 = EDGE_CURVE( '', #384, #384, #385, .T. );
#345 = FILL_AREA_STYLE( '', ( #386 ) );
#346 = EDGE_CURVE( '', #387, #387, #388, .T. );
#347 = EDGE_CURVE( '', #389, #389, #390, .T. );
#348 = FILL_AREA_STYLE( '', ( #391 ) );
#349 = EDGE_CURVE( '', #392, #392, #393, .T. );
#350 = FILL_AREA_STYLE( '', ( #394 ) );
#351 = EDGE_CURVE( '', #395, #395, #396, .T. );
#352 = EDGE_CURVE( '', #397, #397, #398, .T. );
#353 = FILL_AREA_STYLE( '', ( #399 ) );
#354 = FILL_AREA_STYLE( '', ( #400 ) );
#355 = EDGE_CURVE( '', #401, #401, #402, .F. );
#356 = EDGE_CURVE( '', #403, #403, #404, .T. );
#357 = FILL_AREA_STYLE( '', ( #405 ) );
#358 = FILL_AREA_STYLE( '', ( #406 ) );
#359 = FILL_AREA_STYLE( '', ( #407 ) );
#360 = EDGE_CURVE( '', #408, #408, #409, .T. );
#361 = FILL_AREA_STYLE( '', ( #410 ) );
#362 = FILL_AREA_STYLE( '', ( #411 ) );
#363 = FILL_AREA_STYLE( '', ( #412 ) );
#364 = FILL_AREA_STYLE_COLOUR( '', #413 );
#365 = VERTEX_POINT( '', #414 );
#366 = CIRCLE( '', #415, 84.1500000000000 );
#367 = VERTEX_POINT( '', #416 );
#368 = CIRCLE( '', #417, 84.1500000000000 );
#369 = FILL_AREA_STYLE_COLOUR( '', #418 );
#370 = VERTEX_POINT( '', #419 );
#371 = CIRCLE( '', #420, 87.5000000000000 );
#372 = VERTEX_POINT( '', #421 );
#373 = CIRCLE( '', #422, 87.5000000000000 );
#374 = FILL_AREA_STYLE_COLOUR( '', #423 );
#375 = FILL_AREA_STYLE_COLOUR( '', #424 );
#376 = VERTEX_POINT( '', #425 );
#377 = CIRCLE( '', #426, 87.5000000000000 );
#378 = FILL_AREA_STYLE_COLOUR( '', #427 );
#379 = VERTEX_POINT( '', #428 );
#380 = CIRCLE( '', #429, 87.5000000000000 );
#381 = FILL_AREA_STYLE_COLOUR( '', #430 );
#382 = VERTEX_POINT( '', #431 );
#383 = CIRCLE( '', #432, 84.1500000000000 );
#384 = VERTEX_POINT( '', #433 );
#385 = CIRCLE( '', #434, 84.1500000000000 );
#386 = FILL_AREA_STYLE_COLOUR( '', #435 );
#387 = VERTEX_POINT( '', #436 );
#388 = CIRCLE( '', #437, 85.0000000000000 );
#389 = VERTEX_POINT( '', #438 );
#390 = CIRCLE( '', #439, 85.0000000000000 );
#391 = FILL_AREA_STYLE_COLOUR( '', #440 );
#392 = VERTEX_POINT( '', #441 );
#393 = CIRCLE( '', #442, 85.5000000000000 );
#394 = FILL_AREA_STYLE_COLOUR( '', #443 );
#395 = VERTEX_POINT( '', #444 );
#396 = CIRCLE( '', #445, 85.5000000000000 );
#397 = VERTEX_POINT( '', #446 );
#398 = CIRCLE( '', #447, 85.0000000000000 );
#399 = FILL_AREA_STYLE_COLOUR( '', #448 );
#400 = FILL_AREA_STYLE_COLOUR( '', #449 );
#401 = VERTEX_POINT( '', #450 );
#402 = CIRCLE( '', #451, 84.1500000000000 );
#403 = VERTEX_POINT( '', #452 );
#404 = CIRCLE( '', #453, 85.0000000000000 );
#405 = FILL_AREA_STYLE_COLOUR( '', #454 );
#406 = FILL_AREA_STYLE_COLOUR( '', #455 );
#407 = FILL_AREA_STYLE_COLOUR( '', #456 );
#408 = VERTEX_POINT( '', #457 );
#409 = CIRCLE( '', #458, 84.1500000000000 );
#410 = FILL_AREA_STYLE_COLOUR( '', #459 );
#411 = FILL_AREA_STYLE_COLOUR( '', #460 );
#412 = FILL_AREA_STYLE_COLOUR( '', #461 );
#413 = COLOUR_RGB( '', 0.858823537826538, 0.858823537826538, 0.858823537826538 );
#414 = CARTESIAN_POINT( '', ( 84.1500000000000, -31.0000000000000, 0.000000000000000 ) );
#415 = AXIS2_PLACEMENT_3D( '', #462, #463, #464 );
#416 = CARTESIAN_POINT( '', ( 84.1500000000000, -149.000000000000, 0.000000000000000 ) );
#417 = AXIS2_PLACEMENT_3D( '', #465, #466, #467 );
#418 = COLOUR_RGB( '', 0.858823537826538, 0.858823537826538, 0.858823537826538 );
#419 = CARTESIAN_POINT( '', ( 258.000000000000, 229.000000000000, 87.5000000000000 ) );
#420 = AXIS2_PLACEMENT_3D( '', #468, #469, #470 );
#421 = CARTESIAN_POINT( '', ( 378.000000000000, 141.500000000000, 7.84754298972842E-030 ) );
#422 = AXIS2_PLACEMENT_3D( '', #471, #472, #473 );
#423 = COLOUR_RGB( '', 0.858823537826538, 0.858823537826538, 0.858823537826538 );
#424 = COLOUR_RGB( '', 0.858823537826538, 0.858823537826538, 0.858823537826538 );
#425 = CARTESIAN_POINT( '', ( 87.5000000000000, -149.000000000000, 0.000000000000000 ) );
#426 = AXIS2_PLACEMENT_3D( '', #474, #475, #476 );
#427 = COLOUR_RGB( '', 0.858823537826538, 0.858823537826538, 0.858823537826538 );
#428 = CARTESIAN_POINT( '', ( 0.000000000000000, -29.0000000000000, 87.5000000000000 ) );
#429 = AXIS2_PLACEMENT_3D( '', #477, #478, #479 );
#430 = COLOUR_RGB( '', 0.858823537826538, 0.858823537826538, 0.858823537826538 );
#431 = CARTESIAN_POINT( '', ( 260.000000000000, 144.850000000000, -6.54798987062943E-030 ) );
#432 = AXIS2_PLACEMENT_3D( '', #480, #481, #482 );
#433 = CARTESIAN_POINT( '', ( 378.000000000000, 144.850000000000, 8.26817129397786E-030 ) );
#434 = AXIS2_PLACEMENT_3D( '', #483, #484, #485 );
#435 = COLOUR_RGB( '', 0.858823537826538, 0.858823537826538, 0.858823537826538 );
#436 = CARTESIAN_POINT( '', ( 0.000000000000000, -27.0000000000000, 85.0000000000000 ) );
#437 = AXIS2_PLACEMENT_3D( '', #486, #487, #488 );
#438 = CARTESIAN_POINT( '', ( 85.0000000000000, 0.000000000000000, 0.000000000000000 ) );
#439 = AXIS2_PLACEMENT_3D( '', #489, #490, #491 );
#440 = COLOUR_RGB( '', 0.858823537826538, 0.858823537826538, 0.858823537826538 );
#441 = CARTESIAN_POINT( '', ( 0.000000000000000, -27.0000000000000, 85.5000000000000 ) );
#442 = AXIS2_PLACEMENT_3D( '', #492, #493, #494 );
#443 = COLOUR_RGB( '', 0.858823537826538, 0.858823537826538, 0.858823537826538 );
#444 = CARTESIAN_POINT( '', ( 256.000000000000, 229.000000000000, 85.5000000000000 ) );
#445 = AXIS2_PLACEMENT_3D( '', #495, #496, #497 );
#446 = CARTESIAN_POINT( '', ( 256.000000000000, 229.000000000000, 85.0000000000000 ) );
#447 = AXIS2_PLACEMENT_3D( '', #498, #499, #500 );
#448 = COLOUR_RGB( '', 0.858823537826538, 0.858823537826538, 0.858823537826538 );
#449 = COLOUR_RGB( '', 0.858823537826538, 0.858823537826538, 0.858823537826538 );
#450 = CARTESIAN_POINT( '', ( 229.000000000000, 313.150000000000, 0.000000000000000 ) );
#451 = AXIS2_PLACEMENT_3D( '', #501, #502, #503 );
#452 = CARTESIAN_POINT( '', ( 229.000000000000, 144.000000000000, -1.06726584660307E-029 ) );
#453 = AXIS2_PLACEMENT_3D( '', #504, #505, #506 );
#454 = COLOUR_RGB( '', 0.858823537826538, 0.858823537826538, 0.858823537826538 );
#455 = COLOUR_RGB( '', 0.858823537826538, 0.858823537826538, 0.858823537826538 );
#456 = COLOUR_RGB( '', 0.858823537826538, 0.858823537826538, 0.858823537826538 );
#457 = CARTESIAN_POINT( '', ( 84.1500000000000, 0.000000000000000, 0.000000000000000 ) );
#458 = AXIS2_PLACEMENT_3D( '', #507, #508, #509 );
#459 = COLOUR_RGB( '', 0.858823537826538, 0.858823537826538, 0.858823537826538 );
#460 = COLOUR_RGB( '', 0.858823537826538, 0.858823537826538, 0.858823537826538 );
#461 = COLOUR_RGB( '', 0.858823537826538, 0.858823537826538, 0.858823537826538 );
#462 = CARTESIAN_POINT( '', ( 0.000000000000000, -31.0000000000000, 0.000000000000000 ) );
#463 = DIRECTION( '', ( -0.000000000000000, 1.00000000000000, 0.000000000000000 ) );
#464 = DIRECTION( '', ( 1.00000000000000, 0.000000000000000, 0.000000000000000 ) );
#465 = CARTESIAN_POINT( '', ( 0.000000000000000, -149.000000000000, 0.000000000000000 ) );
#466 = DIRECTION( '', ( -0.000000000000000, 1.00000000000000, 0.000000000000000 ) );
#467 = DIRECTION( '', ( 1.00000000000000, 0.000000000000000, 0.000000000000000 ) );
#468 = CARTESIAN_POINT( '', ( 258.000000000000, 229.000000000000, 3.64125994723400E-030 ) );
#469 = DIRECTION( '', ( 1.00000000000000, -1.11022302462516E-015, 1.25560687835655E-031 ) );
#470 = DIRECTION( '', ( -1.25560687835655E-031, -1.25560687835655E-031, 1.00000000000000 ) );
#471 = CARTESIAN_POINT( '', ( 378.000000000000, 229.000000000000, 1.88341031753482E-029 ) );
#472 = DIRECTION( '', ( 1.00000000000000, -1.11022302462516E-015, 1.25560687835655E-031 ) );
#473 = DIRECTION( '', ( -1.11022302462516E-015, -1.00000000000000, -1.25560687835655E-031 ) );
#474 = CARTESIAN_POINT( '', ( 0.000000000000000, -149.000000000000, 0.000000000000000 ) );
#475 = DIRECTION( '', ( -0.000000000000000, 1.00000000000000, 0.000000000000000 ) );
#476 = DIRECTION( '', ( 1.00000000000000, 0.000000000000000, 0.000000000000000 ) );
#477 = CARTESIAN_POINT( '', ( 0.000000000000000, -29.0000000000000, 0.000000000000000 ) );
#478 = DIRECTION( '', ( 0.000000000000000, 1.00000000000000, 0.000000000000000 ) );
#479 = DIRECTION( '', ( 0.000000000000000, 0.000000000000000, 1.00000000000000 ) );
#480 = CARTESIAN_POINT( '', ( 260.000000000000, 229.000000000000, 4.01794201074096E-030 ) );
#481 = DIRECTION( '', ( 1.00000000000000, -1.11022302462516E-015, 1.25560687835655E-031 ) );
#482 = DIRECTION( '', ( -1.11022302462516E-015, -1.00000000000000, -1.25560687835655E-031 ) );
#483 = CARTESIAN_POINT( '', ( 378.000000000000, 229.000000000000, 1.88341031753482E-029 ) );
#484 = DIRECTION( '', ( 1.00000000000000, -1.11022302462516E-015, 1.25560687835655E-031 ) );
#485 = DIRECTION( '', ( -1.11022302462516E-015, -1.00000000000000, -1.25560687835655E-031 ) );
#486 = CARTESIAN_POINT( '', ( 0.000000000000000, -27.0000000000000, 0.000000000000000 ) );
#487 = DIRECTION( '', ( 0.000000000000000, 1.00000000000000, 0.000000000000000 ) );
#488 = DIRECTION( '', ( 0.000000000000000, 0.000000000000000, 1.00000000000000 ) );
#489 = CARTESIAN_POINT( '', ( 0.000000000000000, 0.000000000000000, 0.000000000000000 ) );
#490 = DIRECTION( '', ( 0.000000000000000, -1.00000000000000, 0.000000000000000 ) );
#491 = DIRECTION( '', ( 1.00000000000000, 0.000000000000000, 0.000000000000000 ) );
#492 = CARTESIAN_POINT( '', ( 0.000000000000000, -27.0000000000000, 0.000000000000000 ) );
#493 = DIRECTION( '', ( 0.000000000000000, 1.00000000000000, 0.000000000000000 ) );
#494 = DIRECTION( '', ( 0.000000000000000, 0.000000000000000, 1.00000000000000 ) );
#495 = CARTESIAN_POINT( '', ( 256.000000000000, 229.000000000000, 3.39013857156269E-030 ) );
#496 = DIRECTION( '', ( 1.00000000000000, -1.11022302462516E-015, 1.25560687835655E-031 ) );
#497 = DIRECTION( '', ( -1.25560687835655E-031, -1.25560687835655E-031, 1.00000000000000 ) );
#498 = CARTESIAN_POINT( '', ( 256.000000000000, 229.000000000000, 3.39013857156269E-030 ) );
#499 = DIRECTION( '', ( 1.00000000000000, -1.11022302462516E-015, 1.25560687835655E-031 ) );
#500 = DIRECTION( '', ( -1.25560687835655E-031, -1.25560687835655E-031, 1.00000000000000 ) );
#501 = CARTESIAN_POINT( '', ( 229.000000000000, 229.000000000000, 0.000000000000000 ) );
#502 = DIRECTION( '', ( 1.00000000000000, -1.11022302462516E-015, 1.25560687835655E-031 ) );
#503 = DIRECTION( '', ( 1.11022302462516E-015, 1.00000000000000, 0.000000000000000 ) );
#504 = CARTESIAN_POINT( '', ( 229.000000000000, 229.000000000000, 0.000000000000000 ) );
#505 = DIRECTION( '', ( -1.00000000000000, 1.11022302462516E-015, -1.25560687835655E-031 ) );
#506 = DIRECTION( '', ( -1.11022302462516E-015, -1.00000000000000, -1.25560687835655E-031 ) );
#507 = CARTESIAN_POINT( '', ( 0.000000000000000, 0.000000000000000, 0.000000000000000 ) );
#508 = DIRECTION( '', ( 0.000000000000000, -1.00000000000000, 0.000000000000000 ) );
#509 = DIRECTION( '', ( 1.00000000000000, 0.000000000000000, 0.000000000000000 ) );
ENDSEC;
END-ISO-10303-21;
