ISO-10303-21;
HEADER;
/* Generated by software containing ST-Developer
 * from STEP Tools, Inc. (www.steptools.com) 
 */
/* OPTION: strings as raw bytes, not using required /X/ escapes */

FILE_DESCRIPTION(
/* description */ ('Unknown'),
/* implementation_level */ '2;1');

FILE_NAME(
/* name */ 'F5DN22',
/* time_stamp */ '2016-07-07T13:01:52+02:00',
/* author */ ('Unknown'),
/* organization */ ('Unknown'),
/* preprocessor_version */ 'ST-DEVELOPER v16',
/* originating_system */ 'DEX',
/* authorisation */ $);

FILE_SCHEMA (('AUTOMOTIVE_DESIGN {1 0 10303 214 3 1 1}'));
ENDSEC;

DATA;
#10=PROPERTY_DEFINITION_REPRESENTATION(#14,#12);
#11=PROPERTY_DEFINITION_REPRESENTATION(#15,#13);
#12=REPRESENTATION('',(#16),#323);
#13=REPRESENTATION('',(#17),#323);
#14=PROPERTY_DEFINITION('pmi validation property','',#328);
#15=PROPERTY_DEFINITION('pmi validation property','',#328);
#16=VALUE_REPRESENTATION_ITEM('number of annotations',COUNT_MEASURE(0.));
#17=VALUE_REPRESENTATION_ITEM('number of views',COUNT_MEASURE(0.));
#18=SHAPE_REPRESENTATION_RELATIONSHIP('','',#187,#19);
#19=ADVANCED_BREP_SHAPE_REPRESENTATION('',(#185),#323);
#20=TOROIDAL_SURFACE('',#203,34.,11.);
#21=CONICAL_SURFACE('',#193,12.5,0.785398163397448);
#22=CONICAL_SURFACE('',#214,12.5,0.785398163397448);
#23=PLANE('',#192);
#24=PLANE('',#198);
#25=PLANE('',#202);
#26=PLANE('',#205);
#27=PLANE('',#212);
#28=PLANE('',#217);
#29=ORIENTED_EDGE('',*,*,#57,.F.);
#30=ORIENTED_EDGE('',*,*,#58,.T.);
#31=ORIENTED_EDGE('',*,*,#57,.T.);
#32=ORIENTED_EDGE('',*,*,#59,.T.);
#33=ORIENTED_EDGE('',*,*,#60,.T.);
#34=ORIENTED_EDGE('',*,*,#59,.F.);
#35=ORIENTED_EDGE('',*,*,#61,.F.);
#36=ORIENTED_EDGE('',*,*,#60,.F.);
#37=ORIENTED_EDGE('',*,*,#62,.F.);
#38=ORIENTED_EDGE('',*,*,#62,.T.);
#39=ORIENTED_EDGE('',*,*,#63,.T.);
#40=ORIENTED_EDGE('',*,*,#61,.T.);
#41=ORIENTED_EDGE('',*,*,#58,.F.);
#42=ORIENTED_EDGE('',*,*,#64,.T.);
#43=ORIENTED_EDGE('',*,*,#63,.F.);
#44=ORIENTED_EDGE('',*,*,#65,.F.);
#45=ORIENTED_EDGE('',*,*,#66,.T.);
#46=ORIENTED_EDGE('',*,*,#67,.F.);
#47=ORIENTED_EDGE('',*,*,#64,.F.);
#48=ORIENTED_EDGE('',*,*,#68,.T.);
#49=ORIENTED_EDGE('',*,*,#65,.T.);
#50=ORIENTED_EDGE('',*,*,#69,.T.);
#51=ORIENTED_EDGE('',*,*,#67,.T.);
#52=ORIENTED_EDGE('',*,*,#68,.F.);
#53=ORIENTED_EDGE('',*,*,#69,.F.);
#54=ORIENTED_EDGE('',*,*,#70,.T.);
#55=ORIENTED_EDGE('',*,*,#66,.F.);
#56=ORIENTED_EDGE('',*,*,#70,.F.);
#57=EDGE_CURVE('',#71,#71,#85,.T.);
#58=EDGE_CURVE('',#72,#72,#86,.T.);
#59=EDGE_CURVE('',#73,#73,#87,.F.);
#60=EDGE_CURVE('',#74,#74,#88,.T.);
#61=EDGE_CURVE('',#75,#75,#89,.T.);
#62=EDGE_CURVE('',#76,#76,#90,.F.);
#63=EDGE_CURVE('',#77,#77,#91,.T.);
#64=EDGE_CURVE('',#78,#78,#92,.T.);
#65=EDGE_CURVE('',#79,#79,#93,.T.);
#66=EDGE_CURVE('',#80,#80,#94,.T.);
#67=EDGE_CURVE('',#81,#81,#95,.F.);
#68=EDGE_CURVE('',#82,#82,#96,.F.);
#69=EDGE_CURVE('',#83,#83,#97,.T.);
#70=EDGE_CURVE('',#84,#84,#98,.T.);
#71=VERTEX_POINT('',#281);
#72=VERTEX_POINT('',#283);
#73=VERTEX_POINT('',#287);
#74=VERTEX_POINT('',#289);
#75=VERTEX_POINT('',#292);
#76=VERTEX_POINT('',#295);
#77=VERTEX_POINT('',#298);
#78=VERTEX_POINT('',#302);
#79=VERTEX_POINT('',#305);
#80=VERTEX_POINT('',#307);
#81=VERTEX_POINT('',#310);
#82=VERTEX_POINT('',#313);
#83=VERTEX_POINT('',#316);
#84=VERTEX_POINT('',#320);
#85=CIRCLE('',#190,11.);
#86=CIRCLE('',#191,11.);
#87=CIRCLE('',#194,13.5);
#88=CIRCLE('',#195,12.5);
#89=CIRCLE('',#197,13.5);
#90=CIRCLE('',#199,11.);
#91=CIRCLE('',#201,11.);
#92=CIRCLE('',#204,11.);
#93=CIRCLE('',#206,13.5);
#94=CIRCLE('',#207,11.);
#95=CIRCLE('',#209,11.);
#96=CIRCLE('',#211,13.5);
#97=CIRCLE('',#213,12.5);
#98=CIRCLE('',#216,11.);
#99=EDGE_LOOP('',(#29));
#100=EDGE_LOOP('',(#30));
#101=EDGE_LOOP('',(#31));
#102=EDGE_LOOP('',(#32));
#103=EDGE_LOOP('',(#33));
#104=EDGE_LOOP('',(#34));
#105=EDGE_LOOP('',(#35));
#106=EDGE_LOOP('',(#36));
#107=EDGE_LOOP('',(#37));
#108=EDGE_LOOP('',(#38));
#109=EDGE_LOOP('',(#39));
#110=EDGE_LOOP('',(#40));
#111=EDGE_LOOP('',(#41));
#112=EDGE_LOOP('',(#42));
#113=EDGE_LOOP('',(#43));
#114=EDGE_LOOP('',(#44));
#115=EDGE_LOOP('',(#45));
#116=EDGE_LOOP('',(#46));
#117=EDGE_LOOP('',(#47));
#118=EDGE_LOOP('',(#48));
#119=EDGE_LOOP('',(#49));
#120=EDGE_LOOP('',(#50));
#121=EDGE_LOOP('',(#51));
#122=EDGE_LOOP('',(#52));
#123=EDGE_LOOP('',(#53));
#124=EDGE_LOOP('',(#54));
#125=EDGE_LOOP('',(#55));
#126=EDGE_LOOP('',(#56));
#127=FACE_BOUND('',#99,.T.);
#128=FACE_BOUND('',#100,.T.);
#129=FACE_BOUND('',#101,.T.);
#130=FACE_BOUND('',#102,.T.);
#131=FACE_BOUND('',#103,.T.);
#132=FACE_BOUND('',#104,.T.);
#133=FACE_BOUND('',#105,.T.);
#134=FACE_BOUND('',#106,.T.);
#135=FACE_BOUND('',#107,.T.);
#136=FACE_BOUND('',#108,.T.);
#137=FACE_BOUND('',#109,.T.);
#138=FACE_BOUND('',#110,.T.);
#139=FACE_BOUND('',#111,.T.);
#140=FACE_BOUND('',#112,.T.);
#141=FACE_BOUND('',#113,.T.);
#142=FACE_BOUND('',#114,.T.);
#143=FACE_BOUND('',#115,.T.);
#144=FACE_BOUND('',#116,.T.);
#145=FACE_BOUND('',#117,.T.);
#146=FACE_BOUND('',#118,.T.);
#147=FACE_BOUND('',#119,.T.);
#148=FACE_BOUND('',#120,.T.);
#149=FACE_BOUND('',#121,.T.);
#150=FACE_BOUND('',#122,.T.);
#151=FACE_BOUND('',#123,.T.);
#152=FACE_BOUND('',#124,.T.);
#153=FACE_BOUND('',#125,.T.);
#154=FACE_BOUND('',#126,.T.);
#155=CYLINDRICAL_SURFACE('',#189,11.);
#156=CYLINDRICAL_SURFACE('',#196,13.5);
#157=CYLINDRICAL_SURFACE('',#200,11.);
#158=CYLINDRICAL_SURFACE('',#208,11.);
#159=CYLINDRICAL_SURFACE('',#210,13.5);
#160=CYLINDRICAL_SURFACE('',#215,11.);
#161=ADVANCED_FACE('',(#127,#128),#155,.F.);
#162=ADVANCED_FACE('',(#129),#23,.F.);
#163=ADVANCED_FACE('',(#130,#131),#21,.T.);
#164=ADVANCED_FACE('',(#132,#133),#156,.T.);
#165=ADVANCED_FACE('',(#134,#135),#24,.T.);
#166=ADVANCED_FACE('',(#136,#137),#157,.T.);
#167=ADVANCED_FACE('',(#138,#139),#25,.F.);
#168=ADVANCED_FACE('',(#140,#141),#20,.T.);
#169=ADVANCED_FACE('',(#142,#143),#26,.F.);
#170=ADVANCED_FACE('',(#144,#145),#158,.T.);
#171=ADVANCED_FACE('',(#146,#147),#159,.T.);
#172=ADVANCED_FACE('',(#148,#149),#27,.T.);
#173=ADVANCED_FACE('',(#150,#151),#22,.T.);
#174=ADVANCED_FACE('',(#152,#153),#160,.F.);
#175=ADVANCED_FACE('',(#154),#28,.F.);
#176=CLOSED_SHELL('',(#161,#162,#163,#164,#165,#166,#167,#168,#169,#170,
#171,#172,#173,#174,#175));
#177=STYLED_ITEM('',(#178),#185);
#178=PRESENTATION_STYLE_ASSIGNMENT((#179));
#179=SURFACE_STYLE_USAGE(.BOTH.,#180);
#180=SURFACE_SIDE_STYLE('',(#181));
#181=SURFACE_STYLE_FILL_AREA(#182);
#182=FILL_AREA_STYLE('',(#183));
#183=FILL_AREA_STYLE_COLOUR('',#184);
#184=COLOUR_RGB('',0.,0.699999988079071,0.);
#185=MANIFOLD_SOLID_BREP('',#176);
#186=SHAPE_DEFINITION_REPRESENTATION(#328,#187);
#187=SHAPE_REPRESENTATION('F5DN22',(#188),#323);
#188=AXIS2_PLACEMENT_3D('',#278,#218,#219);
#189=AXIS2_PLACEMENT_3D('',#279,#220,#221);
#190=AXIS2_PLACEMENT_3D('',#280,#222,#223);
#191=AXIS2_PLACEMENT_3D('',#282,#224,#225);
#192=AXIS2_PLACEMENT_3D('',#284,#226,#227);
#193=AXIS2_PLACEMENT_3D('',#285,#228,#229);
#194=AXIS2_PLACEMENT_3D('',#286,#230,#231);
#195=AXIS2_PLACEMENT_3D('',#288,#232,#233);
#196=AXIS2_PLACEMENT_3D('',#290,#234,#235);
#197=AXIS2_PLACEMENT_3D('',#291,#236,#237);
#198=AXIS2_PLACEMENT_3D('',#293,#238,#239);
#199=AXIS2_PLACEMENT_3D('',#294,#240,#241);
#200=AXIS2_PLACEMENT_3D('',#296,#242,#243);
#201=AXIS2_PLACEMENT_3D('',#297,#244,#245);
#202=AXIS2_PLACEMENT_3D('',#299,#246,#247);
#203=AXIS2_PLACEMENT_3D('',#300,#248,#249);
#204=AXIS2_PLACEMENT_3D('',#301,#250,#251);
#205=AXIS2_PLACEMENT_3D('',#303,#252,#253);
#206=AXIS2_PLACEMENT_3D('',#304,#254,#255);
#207=AXIS2_PLACEMENT_3D('',#306,#256,#257);
#208=AXIS2_PLACEMENT_3D('',#308,#258,#259);
#209=AXIS2_PLACEMENT_3D('',#309,#260,#261);
#210=AXIS2_PLACEMENT_3D('',#311,#262,#263);
#211=AXIS2_PLACEMENT_3D('',#312,#264,#265);
#212=AXIS2_PLACEMENT_3D('',#314,#266,#267);
#213=AXIS2_PLACEMENT_3D('',#315,#268,#269);
#214=AXIS2_PLACEMENT_3D('',#317,#270,#271);
#215=AXIS2_PLACEMENT_3D('',#318,#272,#273);
#216=AXIS2_PLACEMENT_3D('',#319,#274,#275);
#217=AXIS2_PLACEMENT_3D('',#321,#276,#277);
#218=DIRECTION('',(0.,0.,1.));
#219=DIRECTION('',(1.,0.,0.));
#220=DIRECTION('',(-2.4280522189494E-16,0.707106781186547,0.707106781186548));
#221=DIRECTION('',(-1.00573215923893E-16,0.707106781186548,-0.707106781186547));
#222=DIRECTION('',(-2.4280522189494E-16,0.707106781186547,0.707106781186548));
#223=DIRECTION('',(1.,2.4280522189494E-16,1.00573215923893E-16));
#224=DIRECTION('',(-2.4280522189494E-16,0.707106781186547,0.707106781186548));
#225=DIRECTION('',(1.,2.4280522189494E-16,1.00573215923893E-16));
#226=DIRECTION('',(2.4280522189494E-16,-0.707106781186547,-0.707106781186548));
#227=DIRECTION('',(1.00573215923893E-16,-0.707106781186548,0.707106781186547));
#228=DIRECTION('',(-2.4280522189494E-16,0.707106781186547,0.707106781186548));
#229=DIRECTION('',(-1.00573215923893E-16,0.707106781186548,-0.707106781186547));
#230=DIRECTION('',(-2.4280522189494E-16,0.707106781186547,0.707106781186548));
#231=DIRECTION('',(1.00573215923893E-16,-0.707106781186548,0.707106781186547));
#232=DIRECTION('',(-2.4280522189494E-16,0.707106781186547,0.707106781186548));
#233=DIRECTION('',(1.00573215923893E-16,-0.707106781186548,0.707106781186547));
#234=DIRECTION('',(-2.4280522189494E-16,0.707106781186547,0.707106781186548));
#235=DIRECTION('',(-1.00573215923893E-16,0.707106781186548,-0.707106781186547));
#236=DIRECTION('',(-2.4280522189494E-16,0.707106781186547,0.707106781186548));
#237=DIRECTION('',(1.,2.4280522189494E-16,1.00573215923893E-16));
#238=DIRECTION('',(2.4280522189494E-16,-0.707106781186547,-0.707106781186548));
#239=DIRECTION('',(1.00573215923893E-16,-0.707106781186548,0.707106781186547));
#240=DIRECTION('',(-2.4280522189494E-16,0.707106781186547,0.707106781186548));
#241=DIRECTION('',(1.00573215923893E-16,-0.707106781186548,0.707106781186547));
#242=DIRECTION('',(2.4280522189494E-16,-0.707106781186547,-0.707106781186548));
#243=DIRECTION('',(1.00573215923893E-16,-0.707106781186548,0.707106781186547));
#244=DIRECTION('',(-7.94354865157135E-17,0.707106781186547,0.707106781186548));
#245=DIRECTION('',(1.,0.,1.12338742364227E-16));
#246=DIRECTION('',(2.4280522189494E-16,-0.707106781186547,-0.707106781186548));
#247=DIRECTION('',(1.00573215923893E-16,-0.707106781186548,0.707106781186547));
#248=DIRECTION('',(-1.,0.,-1.12338742364227E-16));
#249=DIRECTION('',(-1.12338742364227E-16,0.,1.));
#250=DIRECTION('',(0.,1.,0.));
#251=DIRECTION('',(1.,0.,0.));
#252=DIRECTION('',(0.,1.,0.));
#253=DIRECTION('',(0.,0.,1.));
#254=DIRECTION('',(0.,1.,0.));
#255=DIRECTION('',(1.,0.,0.));
#256=DIRECTION('',(0.,1.,0.));
#257=DIRECTION('',(1.,0.,0.));
#258=DIRECTION('',(0.,1.,0.));
#259=DIRECTION('',(0.,0.,1.));
#260=DIRECTION('',(0.,1.,0.));
#261=DIRECTION('',(0.,0.,1.));
#262=DIRECTION('',(0.,-1.,0.));
#263=DIRECTION('',(0.,0.,-1.));
#264=DIRECTION('',(0.,1.,0.));
#265=DIRECTION('',(0.,0.,1.));
#266=DIRECTION('',(0.,1.,0.));
#267=DIRECTION('',(0.,0.,1.));
#268=DIRECTION('',(0.,1.,0.));
#269=DIRECTION('',(0.,0.,1.));
#270=DIRECTION('',(0.,-1.,0.));
#271=DIRECTION('',(0.,0.,-1.));
#272=DIRECTION('',(0.,-1.,0.));
#273=DIRECTION('',(0.,0.,-1.));
#274=DIRECTION('',(0.,1.,0.));
#275=DIRECTION('',(1.,0.,0.));
#276=DIRECTION('',(0.,1.,0.));
#277=DIRECTION('',(0.,0.,1.));
#278=CARTESIAN_POINT('',(0.,0.,0.));
#279=CARTESIAN_POINT('',(-4.92627828332325E-15,28.2842712474619,14.2010101267767));
#280=CARTESIAN_POINT('',(-4.92627828332325E-15,28.2842712474619,14.2010101267767));
#281=CARTESIAN_POINT('',(11.,28.2842712474619,14.2010101267767));
#282=CARTESIAN_POINT('',(-9.95234637654851E-15,43.1335136523794,29.0502525316942));
#283=CARTESIAN_POINT('',(11.,43.1335136523794,29.0502525316942));
#284=CARTESIAN_POINT('',(-4.92627828332325E-15,28.2842712474619,14.2010101267767));
#285=CARTESIAN_POINT('',(-4.12502105106995E-15,25.9508188695463,11.8675577488611));
#286=CARTESIAN_POINT('',(-4.36782627296489E-15,26.6579256507328,12.5746645300476));
#287=CARTESIAN_POINT('',(-3.01008785799234E-15,17.1119841047144,22.120606076066));
#288=CARTESIAN_POINT('',(-4.12502105106995E-15,25.9508188695463,11.8675577488611));
#289=CARTESIAN_POINT('',(-2.86785585202129E-15,17.1119841047144,20.7063925136929));
#290=CARTESIAN_POINT('',(-4.12502105106995E-15,25.9508188695463,11.8675577488611));
#291=CARTESIAN_POINT('',(-9.95234637654851E-15,43.1335136523794,29.0502525316942));
#292=CARTESIAN_POINT('',(13.5,43.1335136523794,29.0502525316942));
#293=CARTESIAN_POINT('',(-4.12502105106995E-15,25.9508188695463,11.8675577488611));
#294=CARTESIAN_POINT('',(-4.12502105106995E-15,25.9508188695463,11.8675577488611));
#295=CARTESIAN_POINT('',(-3.01871567590713E-15,18.1726442764943,19.6457323419131));
#296=CARTESIAN_POINT('',(-9.95234637654851E-15,42.9213816180234,28.8381204973382));
#297=CARTESIAN_POINT('',(-5.15173163404394E-15,24.0416305603426,9.95836943965738));
#298=CARTESIAN_POINT('',(11.,24.0416305603426,9.95836943965738));
#299=CARTESIAN_POINT('',(-9.95234637654851E-15,43.1335136523794,29.0502525316942));
#300=CARTESIAN_POINT('',(-6.93889390390723E-15,0.,34.));
#301=CARTESIAN_POINT('',(0.,0.,0.));
#302=CARTESIAN_POINT('',(11.,0.,0.));
#303=CARTESIAN_POINT('',(0.,-27.,0.));
#304=CARTESIAN_POINT('',(0.,-27.,0.));
#305=CARTESIAN_POINT('',(13.5,-27.,0.));
#306=CARTESIAN_POINT('',(0.,-27.,0.));
#307=CARTESIAN_POINT('',(11.,-27.,0.));
#308=CARTESIAN_POINT('',(0.,-26.7,0.));
#309=CARTESIAN_POINT('',(0.,-2.7,0.));
#310=CARTESIAN_POINT('',(0.,-2.7,11.));
#311=CARTESIAN_POINT('',(0.,-2.7,0.));
#312=CARTESIAN_POINT('',(0.,-3.7,0.));
#313=CARTESIAN_POINT('',(0.,-3.7,13.5));
#314=CARTESIAN_POINT('',(0.,-2.7,0.));
#315=CARTESIAN_POINT('',(0.,-2.7,0.));
#316=CARTESIAN_POINT('',(0.,-2.7,12.5));
#317=CARTESIAN_POINT('',(0.,-2.7,0.));
#318=CARTESIAN_POINT('',(0.,-6.,0.));
#319=CARTESIAN_POINT('',(0.,-6.,0.));
#320=CARTESIAN_POINT('',(11.,-6.,0.));
#321=CARTESIAN_POINT('',(0.,-6.,0.));
#322=MECHANICAL_DESIGN_GEOMETRIC_PRESENTATION_REPRESENTATION('',(#177),
#323);
#323=(
GEOMETRIC_REPRESENTATION_CONTEXT(3)
GLOBAL_UNCERTAINTY_ASSIGNED_CONTEXT((#324))
GLOBAL_UNIT_ASSIGNED_CONTEXT((#327,#326,#325))
REPRESENTATION_CONTEXT('F5DN22','TOP_LEVEL_ASSEMBLY_PART')
);
#324=UNCERTAINTY_MEASURE_WITH_UNIT(LENGTH_MEASURE(0.005),#327,
'DISTANCE_ACCURACY_VALUE','Maximum Tolerance applied to model');
#325=(
NAMED_UNIT(*)
SI_UNIT($,.STERADIAN.)
SOLID_ANGLE_UNIT()
);
#326=(
NAMED_UNIT(*)
PLANE_ANGLE_UNIT()
SI_UNIT($,.RADIAN.)
);
#327=(
LENGTH_UNIT()
NAMED_UNIT(*)
SI_UNIT(.MILLI.,.METRE.)
);
#328=PRODUCT_DEFINITION_SHAPE('','',#329);
#329=PRODUCT_DEFINITION('','',#331,#330);
#330=PRODUCT_DEFINITION_CONTEXT('',#337,'design');
#331=PRODUCT_DEFINITION_FORMATION_WITH_SPECIFIED_SOURCE('','',#333,
 .NOT_KNOWN.);
#332=PRODUCT_RELATED_PRODUCT_CATEGORY('','',(#333));
#333=PRODUCT('F5DN22','F5DN22','F5DN22',(#335));
#334=PRODUCT_CATEGORY('','');
#335=PRODUCT_CONTEXT('',#337,'mechanical');
#336=APPLICATION_PROTOCOL_DEFINITION('international standard',
'automotive_design',2010,#337);
#337=APPLICATION_CONTEXT(
'core data for automotive mechanical design processes');
ENDSEC;
END-ISO-10303-21;
