ISO-10303-21;
HEADER;
FILE_DESCRIPTION( ( 'Unknown' ), '1' );
FILE_NAME( '//Server/ofimatica/alfredo/Alfredo2/ISOTUBI/PZAS3D/FICHATECNICA/NUMEPRESS/generico 3D/F5DN28.stp', 'Unknown', ( 'Unknown' ), ( 'Unknown' ), 'PSStep 14.0', 'Unknown', '  ' );
FILE_SCHEMA( ( 'AUTOMOTIVE_DESIGN { 1 0 10303 214 1 1 1 1 }' ) );
ENDSEC;
DATA;
#1 = MECHANICAL_DESIGN_GEOMETRIC_PRESENTATION_REPRESENTATION( ' ', ( #10, #11, #12, #13, #14, #15, #16, #17, #18, #19, #20, #21, #22, #23, #24 ), #6 );
#2 = PRODUCT_DEFINITION_CONTEXT( '', #25, 'design' );
#3 = APPLICATION_PROTOCOL_DEFINITION( 'international standard', 'automotive_design', 2001, #25 );
#4 = PRODUCT_CATEGORY_RELATIONSHIP( 'NONE', 'NONE', #26, #27 );
#5 = SHAPE_DEFINITION_REPRESENTATION( #28, #29 );
#6 =  ( GEOMETRIC_REPRESENTATION_CONTEXT( 3 )GLOBAL_UNCERTAINTY_ASSIGNED_CONTEXT( ( #32 ) )GLOBAL_UNIT_ASSIGNED_CONTEXT( ( #34, #35, #36 ) )REPRESENTATION_CONTEXT( 'NONE', 'WORKSPACE' ) );
#10 = STYLED_ITEM( '', ( #38 ), #39 );
#11 = STYLED_ITEM( '', ( #40 ), #41 );
#12 = STYLED_ITEM( '', ( #42 ), #43 );
#13 = STYLED_ITEM( '', ( #44 ), #45 );
#14 = STYLED_ITEM( '', ( #46 ), #47 );
#15 = STYLED_ITEM( '', ( #48 ), #49 );
#16 = STYLED_ITEM( '', ( #50 ), #51 );
#17 = STYLED_ITEM( '', ( #52 ), #53 );
#18 = STYLED_ITEM( '', ( #54 ), #55 );
#19 = STYLED_ITEM( '', ( #56 ), #57 );
#20 = STYLED_ITEM( '', ( #58 ), #59 );
#21 = STYLED_ITEM( '', ( #60 ), #61 );
#22 = STYLED_ITEM( '', ( #62 ), #63 );
#23 = STYLED_ITEM( '', ( #64 ), #65 );
#24 = STYLED_ITEM( '', ( #66 ), #67 );
#25 = APPLICATION_CONTEXT( 'core data for automotive mechanical design processes' );
#26 = PRODUCT_CATEGORY( 'part', 'NONE' );
#27 = PRODUCT_RELATED_PRODUCT_CATEGORY( 'detail', ' ', ( #68 ) );
#28 = PRODUCT_DEFINITION_SHAPE( 'NONE', 'NONE', #69 );
#29 = ADVANCED_BREP_SHAPE_REPRESENTATION( '1', ( #70, #71 ), #6 );
#32 = UNCERTAINTY_MEASURE_WITH_UNIT( LENGTH_MEASURE( 0.00100000000000000 ), #34, '', '' );
#34 =  ( CONVERSION_BASED_UNIT( 'MILLIMETRE', #74 )LENGTH_UNIT(  )NAMED_UNIT( #77 ) );
#35 =  ( NAMED_UNIT( #79 )PLANE_ANGLE_UNIT(  )SI_UNIT( $, .RADIAN. ) );
#36 =  ( NAMED_UNIT( #79 )SI_UNIT( $, .STERADIAN. )SOLID_ANGLE_UNIT(  ) );
#38 = PRESENTATION_STYLE_ASSIGNMENT( ( #85 ) );
#39 = ADVANCED_FACE( '', ( #86, #87 ), #88, .T. );
#40 = PRESENTATION_STYLE_ASSIGNMENT( ( #89 ) );
#41 = ADVANCED_FACE( '', ( #90, #91 ), #92, .T. );
#42 = PRESENTATION_STYLE_ASSIGNMENT( ( #93 ) );
#43 = ADVANCED_FACE( '', ( #94, #95 ), #96, .T. );
#44 = PRESENTATION_STYLE_ASSIGNMENT( ( #97 ) );
#45 = ADVANCED_FACE( '', ( #98 ), #99, .F. );
#46 = PRESENTATION_STYLE_ASSIGNMENT( ( #100 ) );
#47 = ADVANCED_FACE( '', ( #101, #102 ), #103, .F. );
#48 = PRESENTATION_STYLE_ASSIGNMENT( ( #104 ) );
#49 = ADVANCED_FACE( '', ( #105, #106 ), #107, .T. );
#50 = PRESENTATION_STYLE_ASSIGNMENT( ( #108 ) );
#51 = ADVANCED_FACE( '', ( #109, #110 ), #111, .T. );
#52 = PRESENTATION_STYLE_ASSIGNMENT( ( #112 ) );
#53 = ADVANCED_FACE( '', ( #113 ), #114, .F. );
#54 = PRESENTATION_STYLE_ASSIGNMENT( ( #115 ) );
#55 = ADVANCED_FACE( '', ( #116, #117 ), #118, .T. );
#56 = PRESENTATION_STYLE_ASSIGNMENT( ( #119 ) );
#57 = ADVANCED_FACE( '', ( #120, #121 ), #122, .T. );
#58 = PRESENTATION_STYLE_ASSIGNMENT( ( #123 ) );
#59 = ADVANCED_FACE( '', ( #124, #125 ), #126, .T. );
#60 = PRESENTATION_STYLE_ASSIGNMENT( ( #127 ) );
#61 = ADVANCED_FACE( '', ( #128, #129 ), #130, .F. );
#62 = PRESENTATION_STYLE_ASSIGNMENT( ( #131 ) );
#63 = ADVANCED_FACE( '', ( #132, #133 ), #134, .T. );
#64 = PRESENTATION_STYLE_ASSIGNMENT( ( #135 ) );
#65 = ADVANCED_FACE( '', ( #136, #137 ), #138, .T. );
#66 = PRESENTATION_STYLE_ASSIGNMENT( ( #139 ) );
#67 = ADVANCED_FACE( '', ( #140, #141 ), #142, .T. );
#68 = PRODUCT( '1', '1', 'PART-1-DESC', ( #143 ) );
#69 = PRODUCT_DEFINITION( 'NONE', 'NONE', #144, #2 );
#70 = MANIFOLD_SOLID_BREP( '1', #145 );
#71 = AXIS2_PLACEMENT_3D( '', #146, #147, #148 );
#74 = LENGTH_MEASURE_WITH_UNIT( LENGTH_MEASURE( 1.00000000000000 ), #149 );
#77 = DIMENSIONAL_EXPONENTS( 1.00000000000000, 0.000000000000000, 0.000000000000000, 0.000000000000000, 0.000000000000000, 0.000000000000000, 0.000000000000000 );
#79 = DIMENSIONAL_EXPONENTS( 0.000000000000000, 0.000000000000000, 0.000000000000000, 0.000000000000000, 0.000000000000000, 0.000000000000000, 0.000000000000000 );
#85 = SURFACE_STYLE_USAGE( .BOTH., #150 );
#86 = FACE_OUTER_BOUND( '', #151, .T. );
#87 = FACE_OUTER_BOUND( '', #152, .T. );
#88 = CYLINDRICAL_SURFACE( '', #153, 14.0000000000000 );
#89 = SURFACE_STYLE_USAGE( .BOTH., #154 );
#90 = FACE_OUTER_BOUND( '', #155, .T. );
#91 = FACE_BOUND( '', #156, .T. );
#92 = PLANE( '', #157 );
#93 = SURFACE_STYLE_USAGE( .BOTH., #158 );
#94 = FACE_OUTER_BOUND( '', #159, .T. );
#95 = FACE_OUTER_BOUND( '', #160, .T. );
#96 = TOROIDAL_SURFACE( '', #161, 43.0000000000000, 14.0000000000000 );
#97 = SURFACE_STYLE_USAGE( .BOTH., #162 );
#98 = FACE_OUTER_BOUND( '', #163, .T. );
#99 = PLANE( '', #164 );
#100 = SURFACE_STYLE_USAGE( .BOTH., #165 );
#101 = FACE_OUTER_BOUND( '', #166, .T. );
#102 = FACE_OUTER_BOUND( '', #167, .T. );
#103 = CYLINDRICAL_SURFACE( '', #168, 14.0000000000000 );
#104 = SURFACE_STYLE_USAGE( .BOTH., #169 );
#105 = FACE_OUTER_BOUND( '', #170, .T. );
#106 = FACE_BOUND( '', #171, .T. );
#107 = PLANE( '', #172 );
#108 = SURFACE_STYLE_USAGE( .BOTH., #173 );
#109 = FACE_OUTER_BOUND( '', #174, .T. );
#110 = FACE_OUTER_BOUND( '', #175, .T. );
#111 = CYLINDRICAL_SURFACE( '', #176, 14.0000000000000 );
#112 = SURFACE_STYLE_USAGE( .BOTH., #177 );
#113 = FACE_OUTER_BOUND( '', #178, .T. );
#114 = PLANE( '', #179 );
#115 = SURFACE_STYLE_USAGE( .BOTH., #180 );
#116 = FACE_OUTER_BOUND( '', #181, .T. );
#117 = FACE_BOUND( '', #182, .T. );
#118 = CONICAL_SURFACE( '', #183, 15.5000000000000, 0.785398163397449 );
#119 = SURFACE_STYLE_USAGE( .BOTH., #184 );
#120 = FACE_OUTER_BOUND( '', #185, .T. );
#121 = FACE_OUTER_BOUND( '', #186, .T. );
#122 = CYLINDRICAL_SURFACE( '', #187, 16.5000000000000 );
#123 = SURFACE_STYLE_USAGE( .BOTH., #188 );
#124 = FACE_OUTER_BOUND( '', #189, .T. );
#125 = FACE_OUTER_BOUND( '', #190, .T. );
#126 = CYLINDRICAL_SURFACE( '', #191, 16.5000000000000 );
#127 = SURFACE_STYLE_USAGE( .BOTH., #192 );
#128 = FACE_OUTER_BOUND( '', #193, .T. );
#129 = FACE_OUTER_BOUND( '', #194, .T. );
#130 = CYLINDRICAL_SURFACE( '', #195, 14.0000000000000 );
#131 = SURFACE_STYLE_USAGE( .BOTH., #196 );
#132 = FACE_OUTER_BOUND( '', #197, .T. );
#133 = FACE_BOUND( '', #198, .T. );
#134 = PLANE( '', #199 );
#135 = SURFACE_STYLE_USAGE( .BOTH., #200 );
#136 = FACE_OUTER_BOUND( '', #201, .T. );
#137 = FACE_BOUND( '', #202, .T. );
#138 = CONICAL_SURFACE( '', #203, 15.5000000000000, 0.785398163397449 );
#139 = SURFACE_STYLE_USAGE( .BOTH., #204 );
#140 = FACE_OUTER_BOUND( '', #205, .T. );
#141 = FACE_BOUND( '', #206, .T. );
#142 = PLANE( '', #207 );
#143 = PRODUCT_CONTEXT( '', #25, 'mechanical' );
#144 = PRODUCT_DEFINITION_FORMATION_WITH_SPECIFIED_SOURCE( ' ', 'NONE', #68, .NOT_KNOWN. );
#145 = CLOSED_SHELL( '', ( #45, #51, #39, #67, #65, #43, #59, #47, #63, #53, #61, #55, #41, #57, #49 ) );
#146 = CARTESIAN_POINT( '', ( 0.000000000000000, 0.000000000000000, 0.000000000000000 ) );
#147 = DIRECTION( '', ( 0.000000000000000, 0.000000000000000, 1.00000000000000 ) );
#148 = DIRECTION( '', ( 1.00000000000000, 0.000000000000000, 0.000000000000000 ) );
#149 =  ( LENGTH_UNIT(  )NAMED_UNIT( #77 )SI_UNIT( .MILLI., .METRE. ) );
#150 = SURFACE_SIDE_STYLE( '', ( #209 ) );
#151 = EDGE_LOOP( '', ( #210 ) );
#152 = EDGE_LOOP( '', ( #211 ) );
#153 = AXIS2_PLACEMENT_3D( '', #212, #213, #214 );
#154 = SURFACE_SIDE_STYLE( '', ( #215 ) );
#155 = EDGE_LOOP( '', ( #216 ) );
#156 = EDGE_LOOP( '', ( #217 ) );
#157 = AXIS2_PLACEMENT_3D( '', #218, #219, #220 );
#158 = SURFACE_SIDE_STYLE( '', ( #221 ) );
#159 = EDGE_LOOP( '', ( #222 ) );
#160 = EDGE_LOOP( '', ( #223 ) );
#161 = AXIS2_PLACEMENT_3D( '', #224, #225, #226 );
#162 = SURFACE_SIDE_STYLE( '', ( #227 ) );
#163 = EDGE_LOOP( '', ( #228 ) );
#164 = AXIS2_PLACEMENT_3D( '', #229, #230, #231 );
#165 = SURFACE_SIDE_STYLE( '', ( #232 ) );
#166 = EDGE_LOOP( '', ( #233 ) );
#167 = EDGE_LOOP( '', ( #234 ) );
#168 = AXIS2_PLACEMENT_3D( '', #235, #236, #237 );
#169 = SURFACE_SIDE_STYLE( '', ( #238 ) );
#170 = EDGE_LOOP( '', ( #239 ) );
#171 = EDGE_LOOP( '', ( #240 ) );
#172 = AXIS2_PLACEMENT_3D( '', #241, #242, #243 );
#173 = SURFACE_SIDE_STYLE( '', ( #244 ) );
#174 = EDGE_LOOP( '', ( #245 ) );
#175 = EDGE_LOOP( '', ( #246 ) );
#176 = AXIS2_PLACEMENT_3D( '', #247, #248, #249 );
#177 = SURFACE_SIDE_STYLE( '', ( #250 ) );
#178 = EDGE_LOOP( '', ( #251 ) );
#179 = AXIS2_PLACEMENT_3D( '', #252, #253, #254 );
#180 = SURFACE_SIDE_STYLE( '', ( #255 ) );
#181 = EDGE_LOOP( '', ( #256 ) );
#182 = EDGE_LOOP( '', ( #257 ) );
#183 = AXIS2_PLACEMENT_3D( '', #258, #259, #260 );
#184 = SURFACE_SIDE_STYLE( '', ( #261 ) );
#185 = EDGE_LOOP( '', ( #262 ) );
#186 = EDGE_LOOP( '', ( #263 ) );
#187 = AXIS2_PLACEMENT_3D( '', #264, #265, #266 );
#188 = SURFACE_SIDE_STYLE( '', ( #267 ) );
#189 = EDGE_LOOP( '', ( #268 ) );
#190 = EDGE_LOOP( '', ( #269 ) );
#191 = AXIS2_PLACEMENT_3D( '', #270, #271, #272 );
#192 = SURFACE_SIDE_STYLE( '', ( #273 ) );
#193 = EDGE_LOOP( '', ( #274 ) );
#194 = EDGE_LOOP( '', ( #275 ) );
#195 = AXIS2_PLACEMENT_3D( '', #276, #277, #278 );
#196 = SURFACE_SIDE_STYLE( '', ( #279 ) );
#197 = EDGE_LOOP( '', ( #280 ) );
#198 = EDGE_LOOP( '', ( #281 ) );
#199 = AXIS2_PLACEMENT_3D( '', #282, #283, #284 );
#200 = SURFACE_SIDE_STYLE( '', ( #285 ) );
#201 = EDGE_LOOP( '', ( #286 ) );
#202 = EDGE_LOOP( '', ( #287 ) );
#203 = AXIS2_PLACEMENT_3D( '', #288, #289, #290 );
#204 = SURFACE_SIDE_STYLE( '', ( #291 ) );
#205 = EDGE_LOOP( '', ( #292 ) );
#206 = EDGE_LOOP( '', ( #293 ) );
#207 = AXIS2_PLACEMENT_3D( '', #294, #295, #296 );
#209 = SURFACE_STYLE_FILL_AREA( #297 );
#210 = ORIENTED_EDGE( '', *, *, #298, .T. );
#211 = ORIENTED_EDGE( '', *, *, #299, .T. );
#212 = CARTESIAN_POINT( '', ( 0.000000000000000, -28.2000000000000, 0.000000000000000 ) );
#213 = DIRECTION( '', ( -0.000000000000000, -1.00000000000000, -0.000000000000000 ) );
#214 = DIRECTION( '', ( 0.000000000000000, 0.000000000000000, 1.00000000000000 ) );
#215 = SURFACE_STYLE_FILL_AREA( #300 );
#216 = ORIENTED_EDGE( '', *, *, #301, .T. );
#217 = ORIENTED_EDGE( '', *, *, #302, .F. );
#218 = CARTESIAN_POINT( '', ( 5.44673183212796E-015, 50.3460028204822, -32.5348196384391 ) );
#219 = DIRECTION( '', ( 1.93146518869786E-016, 0.707106781186547, -0.707106781186548 ) );
#220 = DIRECTION( '', ( -8.00039076410161E-017, -0.707106781186548, -0.707106781186547 ) );
#221 = SURFACE_STYLE_FILL_AREA( #303 );
#222 = ORIENTED_EDGE( '', *, *, #304, .T. );
#223 = ORIENTED_EDGE( '', *, *, #299, .F. );
#224 = CARTESIAN_POINT( '', ( 0.000000000000000, 0.000000000000000, -43.0000000000000 ) );
#225 = DIRECTION( '', ( 1.00000000000000, 0.000000000000000, 0.000000000000000 ) );
#226 = DIRECTION( '', ( 0.000000000000000, 0.000000000000000, -1.00000000000000 ) );
#227 = SURFACE_STYLE_FILL_AREA( #305 );
#228 = ORIENTED_EDGE( '', *, *, #306, .F. );
#229 = CARTESIAN_POINT( '', ( 0.000000000000000, -6.00000000000000, 0.000000000000000 ) );
#230 = DIRECTION( '', ( 0.000000000000000, 1.00000000000000, 0.000000000000000 ) );
#231 = DIRECTION( '', ( 0.000000000000000, 0.000000000000000, 1.00000000000000 ) );
#232 = SURFACE_STYLE_FILL_AREA( #307 );
#233 = ORIENTED_EDGE( '', *, *, #306, .T. );
#234 = ORIENTED_EDGE( '', *, *, #308, .F. );
#235 = CARTESIAN_POINT( '', ( 0.000000000000000, -6.00000000000000, 0.000000000000000 ) );
#236 = DIRECTION( '', ( -0.000000000000000, 1.00000000000000, -0.000000000000000 ) );
#237 = DIRECTION( '', ( 0.000000000000000, 0.000000000000000, -1.00000000000000 ) );
#238 = SURFACE_STYLE_FILL_AREA( #309 );
#239 = ORIENTED_EDGE( '', *, *, #310, .F. );
#240 = ORIENTED_EDGE( '', *, *, #311, .T. );
#241 = CARTESIAN_POINT( '', ( 6.18068860383314E-016, 32.6683332908185, -14.8571501087754 ) );
#242 = DIRECTION( '', ( -1.93146518869786E-016, -0.707106781186547, 0.707106781186548 ) );
#243 = DIRECTION( '', ( 8.00039076410161E-017, 0.707106781186548, 0.707106781186547 ) );
#244 = SURFACE_STYLE_FILL_AREA( #312 );
#245 = ORIENTED_EDGE( '', *, *, #311, .F. );
#246 = ORIENTED_EDGE( '', *, *, #304, .F. );
#247 = CARTESIAN_POINT( '', ( 5.44673183212796E-015, 50.3460028204822, -32.5348196384391 ) );
#248 = DIRECTION( '', ( 1.93146518869786E-016, 0.707106781186547, -0.707106781186548 ) );
#249 = DIRECTION( '', ( 8.00039076410161E-017, 0.707106781186548, 0.707106781186547 ) );
#250 = SURFACE_STYLE_FILL_AREA( #313 );
#251 = ORIENTED_EDGE( '', *, *, #314, .T. );
#252 = CARTESIAN_POINT( '', ( 1.15887911321871E-015, 34.6482322781408, -16.8370490960978 ) );
#253 = DIRECTION( '', ( -1.93146518869786E-016, -0.707106781186547, 0.707106781186548 ) );
#254 = DIRECTION( '', ( 8.00039076410161E-017, 0.707106781186548, 0.707106781186547 ) );
#255 = SURFACE_STYLE_FILL_AREA( #315 );
#256 = ORIENTED_EDGE( '', *, *, #316, .T. );
#257 = ORIENTED_EDGE( '', *, *, #310, .T. );
#258 = CARTESIAN_POINT( '', ( 6.18068860383314E-016, 32.6683332908185, -14.8571501087754 ) );
#259 = DIRECTION( '', ( 1.93146518869786E-016, 0.707106781186547, -0.707106781186548 ) );
#260 = DIRECTION( '', ( -8.00039076410161E-017, -0.707106781186548, -0.707106781186547 ) );
#261 = SURFACE_STYLE_FILL_AREA( #317 );
#262 = ORIENTED_EDGE( '', *, *, #316, .F. );
#263 = ORIENTED_EDGE( '', *, *, #301, .F. );
#264 = CARTESIAN_POINT( '', ( 6.18068860383314E-016, 32.6683332908185, -14.8571501087754 ) );
#265 = DIRECTION( '', ( -1.93146518869786E-016, -0.707106781186547, 0.707106781186548 ) );
#266 = DIRECTION( '', ( -8.00039076410161E-017, -0.707106781186548, -0.707106781186548 ) );
#267 = SURFACE_STYLE_FILL_AREA( #318 );
#268 = ORIENTED_EDGE( '', *, *, #319, .T. );
#269 = ORIENTED_EDGE( '', *, *, #320, .T. );
#270 = CARTESIAN_POINT( '', ( 0.000000000000000, -3.20000000000000, 0.000000000000000 ) );
#271 = DIRECTION( '', ( -0.000000000000000, 1.00000000000000, -0.000000000000000 ) );
#272 = DIRECTION( '', ( 0.000000000000000, 0.000000000000000, -1.00000000000000 ) );
#273 = SURFACE_STYLE_FILL_AREA( #321 );
#274 = ORIENTED_EDGE( '', *, *, #314, .F. );
#275 = ORIENTED_EDGE( '', *, *, #302, .T. );
#276 = CARTESIAN_POINT( '', ( 1.15887911321871E-015, 34.6482322781408, -16.8370490960978 ) );
#277 = DIRECTION( '', ( -1.93146518869786E-016, -0.707106781186547, 0.707106781186548 ) );
#278 = DIRECTION( '', ( -8.00039076410161E-017, -0.707106781186548, -0.707106781186547 ) );
#279 = SURFACE_STYLE_FILL_AREA( #322 );
#280 = ORIENTED_EDGE( '', *, *, #320, .F. );
#281 = ORIENTED_EDGE( '', *, *, #308, .T. );
#282 = CARTESIAN_POINT( '', ( 0.000000000000000, -28.2000000000000, 0.000000000000000 ) );
#283 = DIRECTION( '', ( 0.000000000000000, -1.00000000000000, 0.000000000000000 ) );
#284 = DIRECTION( '', ( 0.000000000000000, 0.000000000000000, -1.00000000000000 ) );
#285 = SURFACE_STYLE_FILL_AREA( #323 );
#286 = ORIENTED_EDGE( '', *, *, #319, .F. );
#287 = ORIENTED_EDGE( '', *, *, #324, .F. );
#288 = CARTESIAN_POINT( '', ( 0.000000000000000, -3.20000000000000, 0.000000000000000 ) );
#289 = DIRECTION( '', ( 0.000000000000000, -1.00000000000000, -0.000000000000000 ) );
#290 = DIRECTION( '', ( 0.000000000000000, 0.000000000000000, -1.00000000000000 ) );
#291 = SURFACE_STYLE_FILL_AREA( #325 );
#292 = ORIENTED_EDGE( '', *, *, #324, .T. );
#293 = ORIENTED_EDGE( '', *, *, #298, .F. );
#294 = CARTESIAN_POINT( '', ( 0.000000000000000, -3.20000000000000, 0.000000000000000 ) );
#295 = DIRECTION( '', ( 0.000000000000000, 1.00000000000000, 0.000000000000000 ) );
#296 = DIRECTION( '', ( 0.000000000000000, 0.000000000000000, 1.00000000000000 ) );
#297 = FILL_AREA_STYLE( '', ( #326 ) );
#298 = EDGE_CURVE( '', #327, #327, #328, .T. );
#299 = EDGE_CURVE( '', #329, #329, #330, .T. );
#300 = FILL_AREA_STYLE( '', ( #331 ) );
#301 = EDGE_CURVE( '', #332, #332, #333, .T. );
#302 = EDGE_CURVE( '', #334, #334, #335, .T. );
#303 = FILL_AREA_STYLE( '', ( #336 ) );
#304 = EDGE_CURVE( '', #337, #337, #338, .T. );
#305 = FILL_AREA_STYLE( '', ( #339 ) );
#306 = EDGE_CURVE( '', #340, #340, #341, .T. );
#307 = FILL_AREA_STYLE( '', ( #342 ) );
#308 = EDGE_CURVE( '', #343, #343, #344, .T. );
#309 = FILL_AREA_STYLE( '', ( #345 ) );
#310 = EDGE_CURVE( '', #346, #346, #347, .T. );
#311 = EDGE_CURVE( '', #348, #348, #349, .T. );
#312 = FILL_AREA_STYLE( '', ( #350 ) );
#313 = FILL_AREA_STYLE( '', ( #351 ) );
#314 = EDGE_CURVE( '', #352, #352, #353, .T. );
#315 = FILL_AREA_STYLE( '', ( #354 ) );
#316 = EDGE_CURVE( '', #355, #355, #356, .F. );
#317 = FILL_AREA_STYLE( '', ( #357 ) );
#318 = FILL_AREA_STYLE( '', ( #358 ) );
#319 = EDGE_CURVE( '', #359, #359, #360, .F. );
#320 = EDGE_CURVE( '', #361, #361, #362, .T. );
#321 = FILL_AREA_STYLE( '', ( #363 ) );
#322 = FILL_AREA_STYLE( '', ( #364 ) );
#323 = FILL_AREA_STYLE( '', ( #365 ) );
#324 = EDGE_CURVE( '', #366, #366, #367, .T. );
#325 = FILL_AREA_STYLE( '', ( #368 ) );
#326 = FILL_AREA_STYLE_COLOUR( '', #369 );
#327 = VERTEX_POINT( '', #370 );
#328 = CIRCLE( '', #371, 14.0000000000000 );
#329 = VERTEX_POINT( '', #372 );
#330 = CIRCLE( '', #373, 14.0000000000000 );
#331 = FILL_AREA_STYLE_COLOUR( '', #374 );
#332 = VERTEX_POINT( '', #375 );
#333 = CIRCLE( '', #376, 16.5000000000000 );
#334 = VERTEX_POINT( '', #377 );
#335 = CIRCLE( '', #378, 14.0000000000000 );
#336 = FILL_AREA_STYLE_COLOUR( '', #379 );
#337 = VERTEX_POINT( '', #380 );
#338 = CIRCLE( '', #381, 14.0000000000000 );
#339 = FILL_AREA_STYLE_COLOUR( '', #382 );
#340 = VERTEX_POINT( '', #383 );
#341 = CIRCLE( '', #384, 14.0000000000000 );
#342 = FILL_AREA_STYLE_COLOUR( '', #385 );
#343 = VERTEX_POINT( '', #386 );
#344 = CIRCLE( '', #387, 14.0000000000000 );
#345 = FILL_AREA_STYLE_COLOUR( '', #388 );
#346 = VERTEX_POINT( '', #389 );
#347 = CIRCLE( '', #390, 15.5000000000000 );
#348 = VERTEX_POINT( '', #391 );
#349 = CIRCLE( '', #392, 14.0000000000000 );
#350 = FILL_AREA_STYLE_COLOUR( '', #393 );
#351 = FILL_AREA_STYLE_COLOUR( '', #394 );
#352 = VERTEX_POINT( '', #395 );
#353 = CIRCLE( '', #396, 14.0000000000000 );
#354 = FILL_AREA_STYLE_COLOUR( '', #397 );
#355 = VERTEX_POINT( '', #398 );
#356 = CIRCLE( '', #399, 16.5000000000000 );
#357 = FILL_AREA_STYLE_COLOUR( '', #400 );
#358 = FILL_AREA_STYLE_COLOUR( '', #401 );
#359 = VERTEX_POINT( '', #402 );
#360 = CIRCLE( '', #403, 16.5000000000000 );
#361 = VERTEX_POINT( '', #404 );
#362 = CIRCLE( '', #405, 16.5000000000000 );
#363 = FILL_AREA_STYLE_COLOUR( '', #406 );
#364 = FILL_AREA_STYLE_COLOUR( '', #407 );
#365 = FILL_AREA_STYLE_COLOUR( '', #408 );
#366 = VERTEX_POINT( '', #409 );
#367 = CIRCLE( '', #410, 15.5000000000000 );
#368 = FILL_AREA_STYLE_COLOUR( '', #411 );
#369 = COLOUR_RGB( '', 0.749019622802734, 0.000000000000000, 0.000000000000000 );
#370 = CARTESIAN_POINT( '', ( 0.000000000000000, -3.20000000000000, 14.0000000000000 ) );
#371 = AXIS2_PLACEMENT_3D( '', #412, #413, #414 );
#372 = CARTESIAN_POINT( '', ( 0.000000000000000, 0.000000000000000, -14.0000000000000 ) );
#373 = AXIS2_PLACEMENT_3D( '', #415, #416, #417 );
#374 = COLOUR_RGB( '', 0.749019622802734, 0.000000000000000, 0.000000000000000 );
#375 = CARTESIAN_POINT( '', ( 16.5000000000000, 50.3460028204822, -32.5348196384391 ) );
#376 = AXIS2_PLACEMENT_3D( '', #418, #419, #420 );
#377 = CARTESIAN_POINT( '', ( 14.0000000000000, 50.3460028204822, -32.5348196384391 ) );
#378 = AXIS2_PLACEMENT_3D( '', #421, #422, #423 );
#379 = COLOUR_RGB( '', 0.749019622802734, 0.000000000000000, 0.000000000000000 );
#380 = CARTESIAN_POINT( '', ( 0.000000000000000, 20.5060966544099, -22.4939033455901 ) );
#381 = AXIS2_PLACEMENT_3D( '', #424, #425, #426 );
#382 = COLOUR_RGB( '', 0.749019622802734, 0.000000000000000, 0.000000000000000 );
#383 = CARTESIAN_POINT( '', ( 14.0000000000000, -6.00000000000000, 0.000000000000000 ) );
#384 = AXIS2_PLACEMENT_3D( '', #427, #428, #429 );
#385 = COLOUR_RGB( '', 0.749019622802734, 0.000000000000000, 0.000000000000000 );
#386 = CARTESIAN_POINT( '', ( 14.0000000000000, -28.2000000000000, 0.000000000000000 ) );
#387 = AXIS2_PLACEMENT_3D( '', #430, #431, #432 );
#388 = COLOUR_RGB( '', 0.749019622802734, 0.000000000000000, 0.000000000000000 );
#389 = CARTESIAN_POINT( '', ( 1.85812942881906E-015, 43.6284883992100, -3.89699500038394 ) );
#390 = AXIS2_PLACEMENT_3D( '', #433, #434, #435 );
#391 = CARTESIAN_POINT( '', ( 1.73812356735754E-015, 42.5678282274302, -4.95765517216376 ) );
#392 = AXIS2_PLACEMENT_3D( '', #436, #437, #438 );
#393 = COLOUR_RGB( '', 0.749019622802734, 0.000000000000000, 0.000000000000000 );
#394 = COLOUR_RGB( '', 0.749019622802734, 0.000000000000000, 0.000000000000000 );
#395 = CARTESIAN_POINT( '', ( 14.0000000000000, 34.6482322781408, -16.8370490960978 ) );
#396 = AXIS2_PLACEMENT_3D( '', #439, #440, #441 );
#397 = COLOUR_RGB( '', 0.749019622802734, 0.000000000000000, 0.000000000000000 );
#398 = CARTESIAN_POINT( '', ( 2.13127985532987E-015, 45.0427019615831, -3.89699500038392 ) );
#399 = AXIS2_PLACEMENT_3D( '', #442, #443, #444 );
#400 = COLOUR_RGB( '', 0.749019622802734, 0.000000000000000, 0.000000000000000 );
#401 = COLOUR_RGB( '', 0.749019622802734, 0.000000000000000, 0.000000000000000 );
#402 = CARTESIAN_POINT( '', ( 0.000000000000000, -4.20000000000000, 16.5000000000000 ) );
#403 = AXIS2_PLACEMENT_3D( '', #445, #446, #447 );
#404 = CARTESIAN_POINT( '', ( 16.5000000000000, -28.2000000000000, 0.000000000000000 ) );
#405 = AXIS2_PLACEMENT_3D( '', #448, #449, #450 );
#406 = COLOUR_RGB( '', 0.749019622802734, 0.000000000000000, 0.000000000000000 );
#407 = COLOUR_RGB( '', 0.749019622802734, 0.000000000000000, 0.000000000000000 );
#408 = COLOUR_RGB( '', 0.749019622802734, 0.000000000000000, 0.000000000000000 );
#409 = CARTESIAN_POINT( '', ( 0.000000000000000, -3.20000000000000, 15.5000000000000 ) );
#410 = AXIS2_PLACEMENT_3D( '', #451, #452, #453 );
#411 = COLOUR_RGB( '', 0.749019622802734, 0.000000000000000, 0.000000000000000 );
#412 = CARTESIAN_POINT( '', ( 0.000000000000000, -3.20000000000000, 0.000000000000000 ) );
#413 = DIRECTION( '', ( 0.000000000000000, 1.00000000000000, 0.000000000000000 ) );
#414 = DIRECTION( '', ( 0.000000000000000, 0.000000000000000, 1.00000000000000 ) );
#415 = CARTESIAN_POINT( '', ( 0.000000000000000, 0.000000000000000, 0.000000000000000 ) );
#416 = DIRECTION( '', ( 0.000000000000000, -1.00000000000000, 0.000000000000000 ) );
#417 = DIRECTION( '', ( 0.000000000000000, 0.000000000000000, -1.00000000000000 ) );
#418 = CARTESIAN_POINT( '', ( 5.44673183212796E-015, 50.3460028204822, -32.5348196384391 ) );
#419 = DIRECTION( '', ( 1.93146518869786E-016, 0.707106781186548, -0.707106781186548 ) );
#420 = DIRECTION( '', ( 1.00000000000000, -1.93146518869786E-016, 8.00039076410161E-017 ) );
#421 = CARTESIAN_POINT( '', ( 5.44673183212796E-015, 50.3460028204822, -32.5348196384391 ) );
#422 = DIRECTION( '', ( 1.93146518869786E-016, 0.707106781186548, -0.707106781186548 ) );
#423 = DIRECTION( '', ( 1.00000000000000, -1.93146518869786E-016, 8.00039076410161E-017 ) );
#424 = CARTESIAN_POINT( '', ( 0.000000000000000, 30.4055915910216, -12.5944084089785 ) );
#425 = DIRECTION( '', ( 0.000000000000000, -0.707106781186548, 0.707106781186548 ) );
#426 = DIRECTION( '', ( 0.000000000000000, -0.707106781186547, -0.707106781186547 ) );
#427 = CARTESIAN_POINT( '', ( 0.000000000000000, -6.00000000000000, 0.000000000000000 ) );
#428 = DIRECTION( '', ( -0.000000000000000, 1.00000000000000, 0.000000000000000 ) );
#429 = DIRECTION( '', ( 1.00000000000000, 0.000000000000000, 0.000000000000000 ) );
#430 = CARTESIAN_POINT( '', ( 0.000000000000000, -28.2000000000000, 0.000000000000000 ) );
#431 = DIRECTION( '', ( -0.000000000000000, 1.00000000000000, 0.000000000000000 ) );
#432 = DIRECTION( '', ( 1.00000000000000, 0.000000000000000, 0.000000000000000 ) );
#433 = CARTESIAN_POINT( '', ( 6.18068860383314E-016, 32.6683332908185, -14.8571501087754 ) );
#434 = DIRECTION( '', ( 1.93146518869786E-016, 0.707106781186547, -0.707106781186548 ) );
#435 = DIRECTION( '', ( 8.00039076410161E-017, 0.707106781186548, 0.707106781186547 ) );
#436 = CARTESIAN_POINT( '', ( 6.18068860383314E-016, 32.6683332908185, -14.8571501087754 ) );
#437 = DIRECTION( '', ( 1.93146518869786E-016, 0.707106781186547, -0.707106781186548 ) );
#438 = DIRECTION( '', ( 8.00039076410161E-017, 0.707106781186548, 0.707106781186547 ) );
#439 = CARTESIAN_POINT( '', ( 1.15887911321871E-015, 34.6482322781408, -16.8370490960978 ) );
#440 = DIRECTION( '', ( 1.93146518869786E-016, 0.707106781186548, -0.707106781186548 ) );
#441 = DIRECTION( '', ( 1.00000000000000, -1.93146518869786E-016, 8.00039076410161E-017 ) );
#442 = CARTESIAN_POINT( '', ( 8.11215379253100E-016, 33.3754400720050, -15.5642568899620 ) );
#443 = DIRECTION( '', ( 1.93146518869786E-016, 0.707106781186547, -0.707106781186548 ) );
#444 = DIRECTION( '', ( 8.00039076410161E-017, 0.707106781186548, 0.707106781186548 ) );
#445 = CARTESIAN_POINT( '', ( 0.000000000000000, -4.20000000000000, 0.000000000000000 ) );
#446 = DIRECTION( '', ( 0.000000000000000, 1.00000000000000, 0.000000000000000 ) );
#447 = DIRECTION( '', ( 0.000000000000000, 0.000000000000000, 1.00000000000000 ) );
#448 = CARTESIAN_POINT( '', ( 0.000000000000000, -28.2000000000000, 0.000000000000000 ) );
#449 = DIRECTION( '', ( -0.000000000000000, 1.00000000000000, 0.000000000000000 ) );
#450 = DIRECTION( '', ( 1.00000000000000, 0.000000000000000, 0.000000000000000 ) );
#451 = CARTESIAN_POINT( '', ( 0.000000000000000, -3.20000000000000, 0.000000000000000 ) );
#452 = DIRECTION( '', ( 0.000000000000000, 1.00000000000000, 0.000000000000000 ) );
#453 = DIRECTION( '', ( 0.000000000000000, 0.000000000000000, 1.00000000000000 ) );
ENDSEC;
END-ISO-10303-21;
