ISO-10303-21;
HEADER;
/* Generated by software containing ST-Developer
 * from STEP Tools, Inc. (www.steptools.com) 
 */
/* OPTION: strings as raw bytes, not using required /X/ escapes */

FILE_DESCRIPTION(
/* description */ ('Unknown'),
/* implementation_level */ '2;1');

FILE_NAME(
/* name */ 'F5DN54',
/* time_stamp */ '2019-10-28T10:37:27+01:00',
/* author */ ('Unknown'),
/* organization */ ('Unknown'),
/* preprocessor_version */ 'ST-DEVELOPER v16.7',
/* originating_system */ 'DEX',
/* authorisation */ $);

FILE_SCHEMA (('AUTOMOTIVE_DESIGN {1 0 10303 214 3 1 1}'));
ENDSEC;

DATA;
#10=PROPERTY_DEFINITION_REPRESENTATION(#14,#12);
#11=PROPERTY_DEFINITION_REPRESENTATION(#15,#13);
#12=REPRESENTATION('',(#16),#243);
#13=REPRESENTATION('',(#17),#243);
#14=PROPERTY_DEFINITION('pmi validation property','',#248);
#15=PROPERTY_DEFINITION('pmi validation property','',#248);
#16=VALUE_REPRESENTATION_ITEM('number of annotations',COUNT_MEASURE(0.));
#17=VALUE_REPRESENTATION_ITEM('number of views',COUNT_MEASURE(0.));
#18=SHAPE_REPRESENTATION_RELATIONSHIP('','',#143,#19);
#19=ADVANCED_BREP_SHAPE_REPRESENTATION('',(#141),#243);
#20=TOROIDAL_SURFACE('',#165,65.,27.5);
#21=PLANE('',#151);
#22=PLANE('',#154);
#23=PLANE('',#155);
#24=PLANE('',#162);
#25=CYLINDRICAL_SURFACE('',#148,27.);
#26=CYLINDRICAL_SURFACE('',#152,29.5);
#27=CYLINDRICAL_SURFACE('',#158,29.5);
#28=CYLINDRICAL_SURFACE('',#160,27.);
#29=ORIENTED_EDGE('',*,*,#49,.T.);
#30=ORIENTED_EDGE('',*,*,#50,.T.);
#31=ORIENTED_EDGE('',*,*,#51,.F.);
#32=ORIENTED_EDGE('',*,*,#52,.T.);
#33=ORIENTED_EDGE('',*,*,#51,.T.);
#34=ORIENTED_EDGE('',*,*,#49,.F.);
#35=ORIENTED_EDGE('',*,*,#53,.F.);
#36=ORIENTED_EDGE('',*,*,#53,.T.);
#37=ORIENTED_EDGE('',*,*,#52,.F.);
#38=ORIENTED_EDGE('',*,*,#54,.F.);
#39=ORIENTED_EDGE('',*,*,#55,.T.);
#40=ORIENTED_EDGE('',*,*,#56,.T.);
#41=ORIENTED_EDGE('',*,*,#54,.T.);
#42=ORIENTED_EDGE('',*,*,#57,.T.);
#43=ORIENTED_EDGE('',*,*,#55,.F.);
#44=ORIENTED_EDGE('',*,*,#57,.F.);
#45=ORIENTED_EDGE('',*,*,#56,.F.);
#46=ORIENTED_EDGE('',*,*,#58,.F.);
#47=ORIENTED_EDGE('',*,*,#50,.F.);
#48=ORIENTED_EDGE('',*,*,#58,.T.);
#49=EDGE_CURVE('',#59,#59,#69,.F.);
#50=EDGE_CURVE('',#60,#60,#70,.T.);
#51=EDGE_CURVE('',#61,#61,#71,.T.);
#52=EDGE_CURVE('',#62,#62,#72,.T.);
#53=EDGE_CURVE('',#63,#63,#73,.T.);
#54=EDGE_CURVE('',#64,#64,#74,.T.);
#55=EDGE_CURVE('',#65,#65,#75,.T.);
#56=EDGE_CURVE('',#66,#66,#76,.F.);
#57=EDGE_CURVE('',#67,#67,#77,.T.);
#58=EDGE_CURVE('',#68,#68,#78,.T.);
#59=VERTEX_POINT('',#213);
#60=VERTEX_POINT('',#215);
#61=VERTEX_POINT('',#218);
#62=VERTEX_POINT('',#220);
#63=VERTEX_POINT('',#224);
#64=VERTEX_POINT('',#228);
#65=VERTEX_POINT('',#230);
#66=VERTEX_POINT('',#233);
#67=VERTEX_POINT('',#236);
#68=VERTEX_POINT('',#240);
#69=CIRCLE('',#146,29.5);
#70=CIRCLE('',#147,27.5);
#71=CIRCLE('',#149,27.);
#72=CIRCLE('',#150,27.);
#73=CIRCLE('',#153,29.5);
#74=CIRCLE('',#156,29.5);
#75=CIRCLE('',#157,27.);
#76=CIRCLE('',#159,29.5);
#77=CIRCLE('',#161,27.);
#78=CIRCLE('',#164,27.5);
#79=EDGE_LOOP('',(#29));
#80=EDGE_LOOP('',(#30));
#81=EDGE_LOOP('',(#31));
#82=EDGE_LOOP('',(#32));
#83=EDGE_LOOP('',(#33));
#84=EDGE_LOOP('',(#34));
#85=EDGE_LOOP('',(#35));
#86=EDGE_LOOP('',(#36));
#87=EDGE_LOOP('',(#37));
#88=EDGE_LOOP('',(#38));
#89=EDGE_LOOP('',(#39));
#90=EDGE_LOOP('',(#40));
#91=EDGE_LOOP('',(#41));
#92=EDGE_LOOP('',(#42));
#93=EDGE_LOOP('',(#43));
#94=EDGE_LOOP('',(#44));
#95=EDGE_LOOP('',(#45));
#96=EDGE_LOOP('',(#46));
#97=EDGE_LOOP('',(#47));
#98=EDGE_LOOP('',(#48));
#99=FACE_BOUND('',#79,.T.);
#100=FACE_BOUND('',#80,.T.);
#101=FACE_BOUND('',#81,.T.);
#102=FACE_BOUND('',#82,.T.);
#103=FACE_BOUND('',#83,.T.);
#104=FACE_BOUND('',#84,.T.);
#105=FACE_BOUND('',#85,.T.);
#106=FACE_BOUND('',#86,.T.);
#107=FACE_BOUND('',#87,.T.);
#108=FACE_BOUND('',#88,.T.);
#109=FACE_BOUND('',#89,.T.);
#110=FACE_BOUND('',#90,.T.);
#111=FACE_BOUND('',#91,.T.);
#112=FACE_BOUND('',#92,.T.);
#113=FACE_BOUND('',#93,.T.);
#114=FACE_BOUND('',#94,.T.);
#115=FACE_BOUND('',#95,.T.);
#116=FACE_BOUND('',#96,.T.);
#117=FACE_BOUND('',#97,.T.);
#118=FACE_BOUND('',#98,.T.);
#119=CONICAL_SURFACE('',#145,27.5,0.785398163397447);
#120=CONICAL_SURFACE('',#163,27.5,0.785398163397447);
#121=ADVANCED_FACE('',(#99,#100),#119,.T.);
#122=ADVANCED_FACE('',(#101,#102),#25,.F.);
#123=ADVANCED_FACE('',(#103),#21,.F.);
#124=ADVANCED_FACE('',(#104,#105),#26,.T.);
#125=ADVANCED_FACE('',(#106,#107),#22,.F.);
#126=ADVANCED_FACE('',(#108,#109),#23,.F.);
#127=ADVANCED_FACE('',(#110,#111),#27,.T.);
#128=ADVANCED_FACE('',(#112,#113),#28,.F.);
#129=ADVANCED_FACE('',(#114),#24,.F.);
#130=ADVANCED_FACE('',(#115,#116),#120,.T.);
#131=ADVANCED_FACE('',(#117,#118),#20,.T.);
#132=CLOSED_SHELL('',(#121,#122,#123,#124,#125,#126,#127,#128,#129,#130,
#131));
#133=STYLED_ITEM('',(#134),#141);
#134=PRESENTATION_STYLE_ASSIGNMENT((#135));
#135=SURFACE_STYLE_USAGE(.BOTH.,#136);
#136=SURFACE_SIDE_STYLE('',(#137));
#137=SURFACE_STYLE_FILL_AREA(#138);
#138=FILL_AREA_STYLE('',(#139));
#139=FILL_AREA_STYLE_COLOUR('',#140);
#140=COLOUR_RGB('',0.400000005960464,0.295081973075867,0.131147548556328);
#141=MANIFOLD_SOLID_BREP('',#132);
#142=SHAPE_DEFINITION_REPRESENTATION(#248,#143);
#143=SHAPE_REPRESENTATION('F5DN54',(#144),#243);
#144=AXIS2_PLACEMENT_3D('',#210,#166,#167);
#145=AXIS2_PLACEMENT_3D('',#211,#168,#169);
#146=AXIS2_PLACEMENT_3D('',#212,#170,#171);
#147=AXIS2_PLACEMENT_3D('',#214,#172,#173);
#148=AXIS2_PLACEMENT_3D('',#216,#174,#175);
#149=AXIS2_PLACEMENT_3D('',#217,#176,#177);
#150=AXIS2_PLACEMENT_3D('',#219,#178,#179);
#151=AXIS2_PLACEMENT_3D('',#221,#180,#181);
#152=AXIS2_PLACEMENT_3D('',#222,#182,#183);
#153=AXIS2_PLACEMENT_3D('',#223,#184,#185);
#154=AXIS2_PLACEMENT_3D('',#225,#186,#187);
#155=AXIS2_PLACEMENT_3D('',#226,#188,#189);
#156=AXIS2_PLACEMENT_3D('',#227,#190,#191);
#157=AXIS2_PLACEMENT_3D('',#229,#192,#193);
#158=AXIS2_PLACEMENT_3D('',#231,#194,#195);
#159=AXIS2_PLACEMENT_3D('',#232,#196,#197);
#160=AXIS2_PLACEMENT_3D('',#234,#198,#199);
#161=AXIS2_PLACEMENT_3D('',#235,#200,#201);
#162=AXIS2_PLACEMENT_3D('',#237,#202,#203);
#163=AXIS2_PLACEMENT_3D('',#238,#204,#205);
#164=AXIS2_PLACEMENT_3D('',#239,#206,#207);
#165=AXIS2_PLACEMENT_3D('',#241,#208,#209);
#166=DIRECTION('',(0.,0.,1.));
#167=DIRECTION('',(1.,0.,0.));
#168=DIRECTION('',(0.707106781186548,0.707106781186547,6.86915450674152E-17));
#169=DIRECTION('',(2.84529695872861E-17,6.86915450674152E-17,-1.));
#170=DIRECTION('',(0.707106781186548,0.707106781186547,6.86915450674152E-17));
#171=DIRECTION('',(-2.84529695872861E-17,-6.86915450674152E-17,1.));
#172=DIRECTION('',(0.707106781186547,0.707106781186548,6.03821574796344E-17));
#173=DIRECTION('',(-2.50111085534126E-17,-6.03821574796344E-17,1.));
#174=DIRECTION('',(0.707106781186548,0.707106781186547,6.86915450674152E-17));
#175=DIRECTION('',(2.84529695872861E-17,6.86915450674152E-17,-1.));
#176=DIRECTION('',(0.707106781186548,0.707106781186547,6.86915450674152E-17));
#177=DIRECTION('',(0.707106781186547,-0.707106781186548,-2.84529695872861E-17));
#178=DIRECTION('',(0.707106781186548,0.707106781186547,6.86915450674152E-17));
#179=DIRECTION('',(0.707106781186547,-0.707106781186548,-2.84529695872861E-17));
#180=DIRECTION('',(-0.707106781186548,-0.707106781186547,-6.86915450674152E-17));
#181=DIRECTION('',(-2.84529695872861E-17,-6.86915450674152E-17,1.));
#182=DIRECTION('',(-0.707106781186548,-0.707106781186547,-6.86915450674152E-17));
#183=DIRECTION('',(-2.84529695872861E-17,-6.86915450674152E-17,1.));
#184=DIRECTION('',(0.707106781186548,0.707106781186547,6.86915450674152E-17));
#185=DIRECTION('',(-2.84529695872861E-17,-6.86915450674152E-17,1.));
#186=DIRECTION('',(-0.707106781186548,-0.707106781186547,-6.86915450674152E-17));
#187=DIRECTION('',(-2.84529695872861E-17,-6.86915450674152E-17,1.));
#188=DIRECTION('',(0.,1.,0.));
#189=DIRECTION('',(0.,0.,1.));
#190=DIRECTION('',(0.,1.,0.));
#191=DIRECTION('',(0.,0.,1.));
#192=DIRECTION('',(0.,1.,0.));
#193=DIRECTION('',(1.,0.,0.));
#194=DIRECTION('',(0.,1.,0.));
#195=DIRECTION('',(0.,0.,1.));
#196=DIRECTION('',(0.,1.,0.));
#197=DIRECTION('',(0.,0.,1.));
#198=DIRECTION('',(0.,-1.,0.));
#199=DIRECTION('',(0.,0.,-1.));
#200=DIRECTION('',(0.,1.,0.));
#201=DIRECTION('',(1.,0.,0.));
#202=DIRECTION('',(0.,1.,0.));
#203=DIRECTION('',(0.,0.,1.));
#204=DIRECTION('',(0.,-1.,0.));
#205=DIRECTION('',(0.,0.,-1.));
#206=DIRECTION('',(0.,1.,0.));
#207=DIRECTION('',(0.,0.,1.));
#208=DIRECTION('',(-8.5393266033047E-17,0.,1.));
#209=DIRECTION('',(1.,0.,8.5393266033047E-17));
#210=CARTESIAN_POINT('',(0.,0.,0.));
#211=CARTESIAN_POINT('',(19.0380592228745,45.9619407771256,0.));
#212=CARTESIAN_POINT('',(20.4522727852476,47.3761543394987,1.3738309013483E-16));
#213=CARTESIAN_POINT('',(20.4522727852476,47.3761543394987,29.5));
#214=CARTESIAN_POINT('',(19.0380592228744,45.9619407771256,0.));
#215=CARTESIAN_POINT('',(19.0380592228744,45.9619407771256,27.5));
#216=CARTESIAN_POINT('',(23.634253300587,50.5581348548382,4.46495042938199E-16));
#217=CARTESIAN_POINT('',(23.634253300587,50.5581348548382,4.46495042938199E-16));
#218=CARTESIAN_POINT('',(42.7261363926238,31.4662517628014,-3.21735135918525E-16));
#219=CARTESIAN_POINT('',(47.1101984359804,74.0340799902315,2.76140011171009E-15));
#220=CARTESIAN_POINT('',(66.2020815280172,54.9421968981947,1.99316993285337E-15));
#221=CARTESIAN_POINT('',(23.634253300587,50.5581348548382,4.46495042938199E-16));
#222=CARTESIAN_POINT('',(47.4637518265737,74.3876333808248,2.76140011171009E-15));
#223=CARTESIAN_POINT('',(47.1101984359804,74.0340799902315,2.76140011171009E-15));
#224=CARTESIAN_POINT('',(47.1101984359804,74.0340799902315,29.5));
#225=CARTESIAN_POINT('',(47.1101984359804,74.0340799902315,2.76140011171009E-15));
#226=CARTESIAN_POINT('',(0.,-39.7,0.));
#227=CARTESIAN_POINT('',(0.,-39.7,0.));
#228=CARTESIAN_POINT('',(0.,-39.7,29.5));
#229=CARTESIAN_POINT('',(0.,-39.7,0.));
#230=CARTESIAN_POINT('',(27.,-39.7,0.));
#231=CARTESIAN_POINT('',(0.,-40.2,0.));
#232=CARTESIAN_POINT('',(0.,-2.,0.));
#233=CARTESIAN_POINT('',(0.,-2.,29.5));
#234=CARTESIAN_POINT('',(0.,-6.50000000000001,0.));
#235=CARTESIAN_POINT('',(0.,-6.50000000000001,0.));
#236=CARTESIAN_POINT('',(27.,-6.50000000000001,0.));
#237=CARTESIAN_POINT('',(0.,-6.50000000000001,0.));
#238=CARTESIAN_POINT('',(0.,0.,0.));
#239=CARTESIAN_POINT('',(0.,0.,0.));
#240=CARTESIAN_POINT('',(0.,0.,27.5));
#241=CARTESIAN_POINT('',(65.,0.,0.));
#242=MECHANICAL_DESIGN_GEOMETRIC_PRESENTATION_REPRESENTATION('',(#133),
#243);
#243=(
GEOMETRIC_REPRESENTATION_CONTEXT(3)
GLOBAL_UNCERTAINTY_ASSIGNED_CONTEXT((#244))
GLOBAL_UNIT_ASSIGNED_CONTEXT((#247,#246,#245))
REPRESENTATION_CONTEXT('F5DN54','TOP_LEVEL_ASSEMBLY_PART')
);
#244=UNCERTAINTY_MEASURE_WITH_UNIT(LENGTH_MEASURE(0.005),#247,
'DISTANCE_ACCURACY_VALUE','Maximum Tolerance applied to model');
#245=(
NAMED_UNIT(*)
SI_UNIT($,.STERADIAN.)
SOLID_ANGLE_UNIT()
);
#246=(
NAMED_UNIT(*)
PLANE_ANGLE_UNIT()
SI_UNIT($,.RADIAN.)
);
#247=(
LENGTH_UNIT()
NAMED_UNIT(*)
SI_UNIT(.MILLI.,.METRE.)
);
#248=PRODUCT_DEFINITION_SHAPE('','',#249);
#249=PRODUCT_DEFINITION('','',#251,#250);
#250=PRODUCT_DEFINITION_CONTEXT('',#257,'design');
#251=PRODUCT_DEFINITION_FORMATION_WITH_SPECIFIED_SOURCE('','',#253,
 .NOT_KNOWN.);
#252=PRODUCT_RELATED_PRODUCT_CATEGORY('','',(#253));
#253=PRODUCT('F5DN54','F5DN54','F5DN54',(#255));
#254=PRODUCT_CATEGORY('','');
#255=PRODUCT_CONTEXT('',#257,'mechanical');
#256=APPLICATION_PROTOCOL_DEFINITION('international standard',
'automotive_design',2010,#257);
#257=APPLICATION_CONTEXT(
'core data for automotive mechanical design processes');
ENDSEC;
END-ISO-10303-21;
