ISO-10303-21;
HEADER;
FILE_DESCRIPTION( ( 'Unknown' ), '1' );
FILE_NAME( '//Server/ofimatica/alfredo/Alfredo2/ISOTUBI/PZAS3D/FICHATECNICA/NUMEPRESS/generico 3D/F5DN88,9.stp', 'Unknown', ( 'Unknown' ), ( 'Unknown' ), 'PSStep 14.0', 'Unknown', '  ' );
FILE_SCHEMA( ( 'AUTOMOTIVE_DESIGN { 1 0 10303 214 1 1 1 1 }' ) );
ENDSEC;
DATA;
#1 = MECHANICAL_DESIGN_GEOMETRIC_PRESENTATION_REPRESENTATION( ' ', ( #10, #11, #12, #13, #14, #15, #16, #17, #18, #19, #20, #21, #22, #23, #24, #25, #26 ), #6 );
#2 = PRODUCT_DEFINITION_CONTEXT( '', #27, 'design' );
#3 = APPLICATION_PROTOCOL_DEFINITION( 'international standard', 'automotive_design', 2001, #27 );
#4 = PRODUCT_CATEGORY_RELATIONSHIP( 'NONE', 'NONE', #28, #29 );
#5 = SHAPE_DEFINITION_REPRESENTATION( #30, #31 );
#6 =  ( GEOMETRIC_REPRESENTATION_CONTEXT( 3 )GLOBAL_UNCERTAINTY_ASSIGNED_CONTEXT( ( #34 ) )GLOBAL_UNIT_ASSIGNED_CONTEXT( ( #36, #37, #38 ) )REPRESENTATION_CONTEXT( 'NONE', 'WORKSPACE' ) );
#10 = STYLED_ITEM( '', ( #40 ), #41 );
#11 = STYLED_ITEM( '', ( #42 ), #43 );
#12 = STYLED_ITEM( '', ( #44 ), #45 );
#13 = STYLED_ITEM( '', ( #46 ), #47 );
#14 = STYLED_ITEM( '', ( #48 ), #49 );
#15 = STYLED_ITEM( '', ( #50 ), #51 );
#16 = STYLED_ITEM( '', ( #52 ), #53 );
#17 = STYLED_ITEM( '', ( #54 ), #55 );
#18 = STYLED_ITEM( '', ( #56 ), #57 );
#19 = STYLED_ITEM( '', ( #58 ), #59 );
#20 = STYLED_ITEM( '', ( #60 ), #61 );
#21 = STYLED_ITEM( '', ( #62 ), #63 );
#22 = STYLED_ITEM( '', ( #64 ), #65 );
#23 = STYLED_ITEM( '', ( #66 ), #67 );
#24 = STYLED_ITEM( '', ( #68 ), #69 );
#25 = STYLED_ITEM( '', ( #70 ), #71 );
#26 = STYLED_ITEM( '', ( #72 ), #73 );
#27 = APPLICATION_CONTEXT( 'core data for automotive mechanical design processes' );
#28 = PRODUCT_CATEGORY( 'part', 'NONE' );
#29 = PRODUCT_RELATED_PRODUCT_CATEGORY( 'detail', ' ', ( #74 ) );
#30 = PRODUCT_DEFINITION_SHAPE( 'NONE', 'NONE', #75 );
#31 = ADVANCED_BREP_SHAPE_REPRESENTATION( '1', ( #76, #77 ), #6 );
#34 = UNCERTAINTY_MEASURE_WITH_UNIT( LENGTH_MEASURE( 0.00100000000000000 ), #36, '', '' );
#36 =  ( CONVERSION_BASED_UNIT( 'MILLIMETRE', #80 )LENGTH_UNIT(  )NAMED_UNIT( #83 ) );
#37 =  ( NAMED_UNIT( #85 )PLANE_ANGLE_UNIT(  )SI_UNIT( $, .RADIAN. ) );
#38 =  ( NAMED_UNIT( #85 )SI_UNIT( $, .STERADIAN. )SOLID_ANGLE_UNIT(  ) );
#40 = PRESENTATION_STYLE_ASSIGNMENT( ( #91 ) );
#41 = ADVANCED_FACE( '', ( #92, #93 ), #94, .F. );
#42 = PRESENTATION_STYLE_ASSIGNMENT( ( #95 ) );
#43 = ADVANCED_FACE( '', ( #96, #97 ), #98, .T. );
#44 = PRESENTATION_STYLE_ASSIGNMENT( ( #99 ) );
#45 = ADVANCED_FACE( '', ( #100, #101 ), #102, .T. );
#46 = PRESENTATION_STYLE_ASSIGNMENT( ( #103 ) );
#47 = ADVANCED_FACE( '', ( #104, #105 ), #106, .F. );
#48 = PRESENTATION_STYLE_ASSIGNMENT( ( #107 ) );
#49 = ADVANCED_FACE( '', ( #108, #109 ), #110, .T. );
#50 = PRESENTATION_STYLE_ASSIGNMENT( ( #111 ) );
#51 = ADVANCED_FACE( '', ( #112, #113 ), #114, .T. );
#52 = PRESENTATION_STYLE_ASSIGNMENT( ( #115 ) );
#53 = ADVANCED_FACE( '', ( #116, #117 ), #118, .T. );
#54 = PRESENTATION_STYLE_ASSIGNMENT( ( #119 ) );
#55 = ADVANCED_FACE( '', ( #120 ), #121, .F. );
#56 = PRESENTATION_STYLE_ASSIGNMENT( ( #122 ) );
#57 = ADVANCED_FACE( '', ( #123, #124 ), #125, .T. );
#58 = PRESENTATION_STYLE_ASSIGNMENT( ( #126 ) );
#59 = ADVANCED_FACE( '', ( #127, #128 ), #129, .T. );
#60 = PRESENTATION_STYLE_ASSIGNMENT( ( #130 ) );
#61 = ADVANCED_FACE( '', ( #131, #132 ), #133, .T. );
#62 = PRESENTATION_STYLE_ASSIGNMENT( ( #134 ) );
#63 = ADVANCED_FACE( '', ( #135, #136 ), #137, .T. );
#64 = PRESENTATION_STYLE_ASSIGNMENT( ( #138 ) );
#65 = ADVANCED_FACE( '', ( #139, #140 ), #141, .F. );
#66 = PRESENTATION_STYLE_ASSIGNMENT( ( #142 ) );
#67 = ADVANCED_FACE( '', ( #143, #144 ), #145, .T. );
#68 = PRESENTATION_STYLE_ASSIGNMENT( ( #146 ) );
#69 = ADVANCED_FACE( '', ( #147, #148 ), #149, .F. );
#70 = PRESENTATION_STYLE_ASSIGNMENT( ( #150 ) );
#71 = ADVANCED_FACE( '', ( #151, #152 ), #153, .T. );
#72 = PRESENTATION_STYLE_ASSIGNMENT( ( #154 ) );
#73 = ADVANCED_FACE( '', ( #155 ), #156, .F. );
#74 = PRODUCT( '1', '1', 'PART-1-DESC', ( #157 ) );
#75 = PRODUCT_DEFINITION( 'NONE', 'NONE', #158, #2 );
#76 = MANIFOLD_SOLID_BREP( '1', #159 );
#77 = AXIS2_PLACEMENT_3D( '', #160, #161, #162 );
#80 = LENGTH_MEASURE_WITH_UNIT( LENGTH_MEASURE( 1.00000000000000 ), #163 );
#83 = DIMENSIONAL_EXPONENTS( 1.00000000000000, 0.000000000000000, 0.000000000000000, 0.000000000000000, 0.000000000000000, 0.000000000000000, 0.000000000000000 );
#85 = DIMENSIONAL_EXPONENTS( 0.000000000000000, 0.000000000000000, 0.000000000000000, 0.000000000000000, 0.000000000000000, 0.000000000000000, 0.000000000000000 );
#91 = SURFACE_STYLE_USAGE( .BOTH., #164 );
#92 = FACE_OUTER_BOUND( '', #165, .T. );
#93 = FACE_BOUND( '', #166, .T. );
#94 = PLANE( '', #167 );
#95 = SURFACE_STYLE_USAGE( .BOTH., #168 );
#96 = FACE_OUTER_BOUND( '', #169, .T. );
#97 = FACE_OUTER_BOUND( '', #170, .T. );
#98 = CYLINDRICAL_SURFACE( '', #171, 47.0000000000000 );
#99 = SURFACE_STYLE_USAGE( .BOTH., #172 );
#100 = FACE_OUTER_BOUND( '', #173, .T. );
#101 = FACE_BOUND( '', #174, .T. );
#102 = CONICAL_SURFACE( '', #175, 45.0000000000000, 0.785398163397452 );
#103 = SURFACE_STYLE_USAGE( .BOTH., #176 );
#104 = FACE_OUTER_BOUND( '', #177, .T. );
#105 = FACE_OUTER_BOUND( '', #178, .T. );
#106 = CYLINDRICAL_SURFACE( '', #179, 44.5000000000000 );
#107 = SURFACE_STYLE_USAGE( .BOTH., #180 );
#108 = FACE_OUTER_BOUND( '', #181, .T. );
#109 = FACE_OUTER_BOUND( '', #182, .T. );
#110 = CYLINDRICAL_SURFACE( '', #183, 46.0000000000000 );
#111 = SURFACE_STYLE_USAGE( .BOTH., #184 );
#112 = FACE_OUTER_BOUND( '', #185, .T. );
#113 = FACE_BOUND( '', #186, .T. );
#114 = CONICAL_SURFACE( '', #187, 45.0000000000000, 0.785398163397452 );
#115 = SURFACE_STYLE_USAGE( .BOTH., #188 );
#116 = FACE_OUTER_BOUND( '', #189, .T. );
#117 = FACE_OUTER_BOUND( '', #190, .T. );
#118 = CYLINDRICAL_SURFACE( '', #191, 47.0000000000000 );
#119 = SURFACE_STYLE_USAGE( .BOTH., #192 );
#120 = FACE_OUTER_BOUND( '', #193, .T. );
#121 = PLANE( '', #194 );
#122 = SURFACE_STYLE_USAGE( .BOTH., #195 );
#123 = FACE_OUTER_BOUND( '', #196, .T. );
#124 = FACE_BOUND( '', #197, .T. );
#125 = PLANE( '', #198 );
#126 = SURFACE_STYLE_USAGE( .BOTH., #199 );
#127 = FACE_OUTER_BOUND( '', #200, .T. );
#128 = FACE_BOUND( '', #201, .T. );
#129 = CONICAL_SURFACE( '', #202, 46.0000000000000, 0.785398163397448 );
#130 = SURFACE_STYLE_USAGE( .BOTH., #203 );
#131 = FACE_OUTER_BOUND( '', #204, .T. );
#132 = FACE_OUTER_BOUND( '', #205, .T. );
#133 = TOROIDAL_SURFACE( '', #206, 114.000000000000, 44.5000000000000 );
#134 = SURFACE_STYLE_USAGE( .BOTH., #207 );
#135 = FACE_OUTER_BOUND( '', #208, .T. );
#136 = FACE_BOUND( '', #209, .T. );
#137 = CONICAL_SURFACE( '', #210, 46.0000000000000, 0.785398163397448 );
#138 = SURFACE_STYLE_USAGE( .BOTH., #211 );
#139 = FACE_OUTER_BOUND( '', #212, .T. );
#140 = FACE_BOUND( '', #213, .T. );
#141 = PLANE( '', #214 );
#142 = SURFACE_STYLE_USAGE( .BOTH., #215 );
#143 = FACE_OUTER_BOUND( '', #216, .T. );
#144 = FACE_OUTER_BOUND( '', #217, .T. );
#145 = CYLINDRICAL_SURFACE( '', #218, 46.0000000000000 );
#146 = SURFACE_STYLE_USAGE( .BOTH., #219 );
#147 = FACE_OUTER_BOUND( '', #220, .T. );
#148 = FACE_OUTER_BOUND( '', #221, .T. );
#149 = CYLINDRICAL_SURFACE( '', #222, 44.5000000000000 );
#150 = SURFACE_STYLE_USAGE( .BOTH., #223 );
#151 = FACE_OUTER_BOUND( '', #224, .T. );
#152 = FACE_BOUND( '', #225, .T. );
#153 = PLANE( '', #226 );
#154 = SURFACE_STYLE_USAGE( .BOTH., #227 );
#155 = FACE_OUTER_BOUND( '', #228, .T. );
#156 = PLANE( '', #229 );
#157 = PRODUCT_CONTEXT( '', #27, 'mechanical' );
#158 = PRODUCT_DEFINITION_FORMATION_WITH_SPECIFIED_SOURCE( ' ', 'NONE', #74, .NOT_KNOWN. );
#159 = CLOSED_SHELL( '', ( #61, #43, #65, #67, #69, #55, #57, #51, #41, #71, #47, #73, #49, #53, #59, #45, #63 ) );
#160 = CARTESIAN_POINT( '', ( 0.000000000000000, 0.000000000000000, 0.000000000000000 ) );
#161 = DIRECTION( '', ( 0.000000000000000, 0.000000000000000, 1.00000000000000 ) );
#162 = DIRECTION( '', ( 1.00000000000000, 0.000000000000000, 0.000000000000000 ) );
#163 =  ( LENGTH_UNIT(  )NAMED_UNIT( #83 )SI_UNIT( .MILLI., .METRE. ) );
#164 = SURFACE_SIDE_STYLE( '', ( #231 ) );
#165 = EDGE_LOOP( '', ( #232 ) );
#166 = EDGE_LOOP( '', ( #233 ) );
#167 = AXIS2_PLACEMENT_3D( '', #234, #235, #236 );
#168 = SURFACE_SIDE_STYLE( '', ( #237 ) );
#169 = EDGE_LOOP( '', ( #238 ) );
#170 = EDGE_LOOP( '', ( #239 ) );
#171 = AXIS2_PLACEMENT_3D( '', #240, #241, #242 );
#172 = SURFACE_SIDE_STYLE( '', ( #243 ) );
#173 = EDGE_LOOP( '', ( #244 ) );
#174 = EDGE_LOOP( '', ( #245 ) );
#175 = AXIS2_PLACEMENT_3D( '', #246, #247, #248 );
#176 = SURFACE_SIDE_STYLE( '', ( #249 ) );
#177 = EDGE_LOOP( '', ( #250 ) );
#178 = EDGE_LOOP( '', ( #251 ) );
#179 = AXIS2_PLACEMENT_3D( '', #252, #253, #254 );
#180 = SURFACE_SIDE_STYLE( '', ( #255 ) );
#181 = EDGE_LOOP( '', ( #256 ) );
#182 = EDGE_LOOP( '', ( #257 ) );
#183 = AXIS2_PLACEMENT_3D( '', #258, #259, #260 );
#184 = SURFACE_SIDE_STYLE( '', ( #261 ) );
#185 = EDGE_LOOP( '', ( #262 ) );
#186 = EDGE_LOOP( '', ( #263 ) );
#187 = AXIS2_PLACEMENT_3D( '', #264, #265, #266 );
#188 = SURFACE_SIDE_STYLE( '', ( #267 ) );
#189 = EDGE_LOOP( '', ( #268 ) );
#190 = EDGE_LOOP( '', ( #269 ) );
#191 = AXIS2_PLACEMENT_3D( '', #270, #271, #272 );
#192 = SURFACE_SIDE_STYLE( '', ( #273 ) );
#193 = EDGE_LOOP( '', ( #274 ) );
#194 = AXIS2_PLACEMENT_3D( '', #275, #276, #277 );
#195 = SURFACE_SIDE_STYLE( '', ( #278 ) );
#196 = EDGE_LOOP( '', ( #279 ) );
#197 = EDGE_LOOP( '', ( #280 ) );
#198 = AXIS2_PLACEMENT_3D( '', #281, #282, #283 );
#199 = SURFACE_SIDE_STYLE( '', ( #284 ) );
#200 = EDGE_LOOP( '', ( #285 ) );
#201 = EDGE_LOOP( '', ( #286 ) );
#202 = AXIS2_PLACEMENT_3D( '', #287, #288, #289 );
#203 = SURFACE_SIDE_STYLE( '', ( #290 ) );
#204 = EDGE_LOOP( '', ( #291 ) );
#205 = EDGE_LOOP( '', ( #292 ) );
#206 = AXIS2_PLACEMENT_3D( '', #293, #294, #295 );
#207 = SURFACE_SIDE_STYLE( '', ( #296 ) );
#208 = EDGE_LOOP( '', ( #297 ) );
#209 = EDGE_LOOP( '', ( #298 ) );
#210 = AXIS2_PLACEMENT_3D( '', #299, #300, #301 );
#211 = SURFACE_SIDE_STYLE( '', ( #302 ) );
#212 = EDGE_LOOP( '', ( #303 ) );
#213 = EDGE_LOOP( '', ( #304 ) );
#214 = AXIS2_PLACEMENT_3D( '', #305, #306, #307 );
#215 = SURFACE_SIDE_STYLE( '', ( #308 ) );
#216 = EDGE_LOOP( '', ( #309 ) );
#217 = EDGE_LOOP( '', ( #310 ) );
#218 = AXIS2_PLACEMENT_3D( '', #311, #312, #313 );
#219 = SURFACE_SIDE_STYLE( '', ( #314 ) );
#220 = EDGE_LOOP( '', ( #315 ) );
#221 = EDGE_LOOP( '', ( #316 ) );
#222 = AXIS2_PLACEMENT_3D( '', #317, #318, #319 );
#223 = SURFACE_SIDE_STYLE( '', ( #320 ) );
#224 = EDGE_LOOP( '', ( #321 ) );
#225 = EDGE_LOOP( '', ( #322 ) );
#226 = AXIS2_PLACEMENT_3D( '', #323, #324, #325 );
#227 = SURFACE_SIDE_STYLE( '', ( #326 ) );
#228 = EDGE_LOOP( '', ( #327 ) );
#229 = AXIS2_PLACEMENT_3D( '', #328, #329, #330 );
#231 = SURFACE_STYLE_FILL_AREA( #331 );
#232 = ORIENTED_EDGE( '', *, *, #332, .T. );
#233 = ORIENTED_EDGE( '', *, *, #333, .F. );
#234 = CARTESIAN_POINT( '', ( 9.71445146547012E-014, -67.0000000000000, -4.72414064560404E-015 ) );
#235 = DIRECTION( '', ( -2.88159009762259E-016, 1.00000000000000, 5.40373448828381E-017 ) );
#236 = DIRECTION( '', ( 1.00000000000000, 2.88159009762259E-016, 1.57009245868377E-016 ) );
#237 = SURFACE_STYLE_FILL_AREA( #334 );
#238 = ORIENTED_EDGE( '', *, *, #335, .T. );
#239 = ORIENTED_EDGE( '', *, *, #336, .T. );
#240 = CARTESIAN_POINT( '', ( 39.4002345848194, 86.6205806953522, 2.31533677729111E-014 ) );
#241 = DIRECTION( '', ( -0.707106781186547, -0.707106781186548, -4.04744070546275E-016 ) );
#242 = DIRECTION( '', ( -0.707106781186548, 0.707106781186547, 3.30242385670865E-017 ) );
#243 = SURFACE_STYLE_FILL_AREA( #337 );
#244 = ORIENTED_EDGE( '', *, *, #338, .T. );
#245 = ORIENTED_EDGE( '', *, *, #339, .T. );
#246 = CARTESIAN_POINT( '', ( 6.93889390390723E-014, 1.38777878078145E-014, -1.10363853845389E-015 ) );
#247 = DIRECTION( '', ( 4.44089209850063E-016, -1.00000000000000, -5.40373448828379E-017 ) );
#248 = DIRECTION( '', ( 1.57009245868377E-016, 5.40373448828380E-017, -1.00000000000000 ) );
#249 = SURFACE_STYLE_FILL_AREA( #340 );
#250 = ORIENTED_EDGE( '', *, *, #341, .F. );
#251 = ORIENTED_EDGE( '', *, *, #333, .T. );
#252 = CARTESIAN_POINT( '', ( 8.32667268468867E-014, -10.5000000000000, -1.67103065972369E-015 ) );
#253 = DIRECTION( '', ( -2.88159009762259E-016, 1.00000000000000, 5.40373448828381E-017 ) );
#254 = DIRECTION( '', ( -1.00000000000000, -2.88159009762259E-016, -1.57009245868377E-016 ) );
#255 = SURFACE_STYLE_FILL_AREA( #342 );
#256 = ORIENTED_EDGE( '', *, *, #338, .F. );
#257 = ORIENTED_EDGE( '', *, *, #343, .T. );
#258 = CARTESIAN_POINT( '', ( 9.71445146547012E-014, -67.0000000000000, -4.72414064560404E-015 ) );
#259 = DIRECTION( '', ( 3.82856869892695E-016, -1.00000000000000, -5.40373448828380E-017 ) );
#260 = DIRECTION( '', ( -1.57009245868377E-016, -5.40373448828381E-017, 1.00000000000000 ) );
#261 = SURFACE_STYLE_FILL_AREA( #344 );
#262 = ORIENTED_EDGE( '', *, *, #345, .F. );
#263 = ORIENTED_EDGE( '', *, *, #346, .F. );
#264 = CARTESIAN_POINT( '', ( 33.3898269447336, 80.6101730552665, 1.97130431732678E-014 ) );
#265 = DIRECTION( '', ( 0.707106781186547, 0.707106781186548, 4.04744070546276E-016 ) );
#266 = DIRECTION( '', ( 2.62845613894009E-016, 3.09548939962627E-016, -1.00000000000000 ) );
#267 = SURFACE_STYLE_FILL_AREA( #347 );
#268 = ORIENTED_EDGE( '', *, *, #348, .F. );
#269 = ORIENTED_EDGE( '', *, *, #332, .F. );
#270 = CARTESIAN_POINT( '', ( 8.32667268468867E-014, -8.50000000000000, -1.56295596995801E-015 ) );
#271 = DIRECTION( '', ( -2.88159009762259E-016, 1.00000000000000, 5.40373448828381E-017 ) );
#272 = DIRECTION( '', ( -1.00000000000000, -2.88159009762259E-016, -1.57009245868377E-016 ) );
#273 = SURFACE_STYLE_FILL_AREA( #349 );
#274 = ORIENTED_EDGE( '', *, *, #350, .F. );
#275 = CARTESIAN_POINT( '', ( 40.8144481471924, 88.0347942577253, 2.39628559140037E-014 ) );
#276 = DIRECTION( '', ( -0.707106781186547, -0.707106781186548, -4.04744070546275E-016 ) );
#277 = DIRECTION( '', ( -2.62845613894009E-016, -3.09548939962627E-016, 1.00000000000000 ) );
#278 = SURFACE_STYLE_FILL_AREA( #351 );
#279 = ORIENTED_EDGE( '', *, *, #346, .T. );
#280 = ORIENTED_EDGE( '', *, *, #352, .T. );
#281 = CARTESIAN_POINT( '', ( 33.3898269447336, 80.6101730552665, 1.97130431732678E-014 ) );
#282 = DIRECTION( '', ( -0.707106781186547, -0.707106781186548, -4.04744070546275E-016 ) );
#283 = DIRECTION( '', ( 0.707106781186548, -0.707106781186547, -3.30242385670866E-017 ) );
#284 = SURFACE_STYLE_FILL_AREA( #353 );
#285 = ORIENTED_EDGE( '', *, *, #348, .T. );
#286 = ORIENTED_EDGE( '', *, *, #343, .F. );
#287 = CARTESIAN_POINT( '', ( 8.32667268468867E-014, -8.50000000000000, -1.56295596995801E-015 ) );
#288 = DIRECTION( '', ( 4.44089209850063E-016, -1.00000000000000, -5.40373448828379E-017 ) );
#289 = DIRECTION( '', ( 1.57009245868377E-016, 5.40373448828380E-017, -1.00000000000000 ) );
#290 = SURFACE_STYLE_FILL_AREA( #354 );
#291 = ORIENTED_EDGE( '', *, *, #355, .T. );
#292 = ORIENTED_EDGE( '', *, *, #352, .F. );
#293 = CARTESIAN_POINT( '', ( 114.000000000000, 0.000000000000000, 1.38777878078145E-014 ) );
#294 = DIRECTION( '', ( -1.02971900985539E-016, 0.000000000000000, 1.00000000000000 ) );
#295 = DIRECTION( '', ( 1.00000000000000, 0.000000000000000, 1.02971900985539E-016 ) );
#296 = SURFACE_STYLE_FILL_AREA( #356 );
#297 = ORIENTED_EDGE( '', *, *, #335, .F. );
#298 = ORIENTED_EDGE( '', *, *, #357, .T. );
#299 = CARTESIAN_POINT( '', ( 39.4002345848194, 86.6205806953522, 2.31533677729111E-014 ) );
#300 = DIRECTION( '', ( 0.707106781186547, 0.707106781186548, 4.04744070546275E-016 ) );
#301 = DIRECTION( '', ( 2.62845613894009E-016, 3.09548939962627E-016, -1.00000000000000 ) );
#302 = SURFACE_STYLE_FILL_AREA( #358 );
#303 = ORIENTED_EDGE( '', *, *, #336, .F. );
#304 = ORIENTED_EDGE( '', *, *, #359, .T. );
#305 = CARTESIAN_POINT( '', ( 80.7659812842323, 127.986327394765, 4.68308958998682E-014 ) );
#306 = DIRECTION( '', ( -0.707106781186547, -0.707106781186548, -4.04744070546275E-016 ) );
#307 = DIRECTION( '', ( 0.707106781186548, -0.707106781186547, -3.30242385670866E-017 ) );
#308 = SURFACE_STYLE_FILL_AREA( #360 );
#309 = ORIENTED_EDGE( '', *, *, #345, .T. );
#310 = ORIENTED_EDGE( '', *, *, #357, .F. );
#311 = CARTESIAN_POINT( '', ( 80.7659812842323, 127.986327394765, 4.68308958998682E-014 ) );
#312 = DIRECTION( '', ( 0.707106781186547, 0.707106781186548, 4.04744070546275E-016 ) );
#313 = DIRECTION( '', ( -2.62845613894008E-016, -3.09548939962627E-016, 1.00000000000000 ) );
#314 = SURFACE_STYLE_FILL_AREA( #361 );
#315 = ORIENTED_EDGE( '', *, *, #350, .T. );
#316 = ORIENTED_EDGE( '', *, *, #359, .F. );
#317 = CARTESIAN_POINT( '', ( 40.8144481471924, 88.0347942577253, 2.39628559140037E-014 ) );
#318 = DIRECTION( '', ( -0.707106781186547, -0.707106781186548, -4.04744070546275E-016 ) );
#319 = DIRECTION( '', ( -0.707106781186548, 0.707106781186547, 3.30242385670865E-017 ) );
#320 = SURFACE_STYLE_FILL_AREA( #362 );
#321 = ORIENTED_EDGE( '', *, *, #339, .F. );
#322 = ORIENTED_EDGE( '', *, *, #355, .F. );
#323 = CARTESIAN_POINT( '', ( 6.93889390390723E-014, 1.38777878078145E-014, -1.10363853845389E-015 ) );
#324 = DIRECTION( '', ( -2.88159009762259E-016, 1.00000000000000, 5.40373448828381E-017 ) );
#325 = DIRECTION( '', ( 1.00000000000000, 2.88159009762259E-016, 1.57009245868377E-016 ) );
#326 = SURFACE_STYLE_FILL_AREA( #363 );
#327 = ORIENTED_EDGE( '', *, *, #341, .T. );
#328 = CARTESIAN_POINT( '', ( 8.32667268468867E-014, -10.5000000000000, -1.67103065972369E-015 ) );
#329 = DIRECTION( '', ( -4.44089209850063E-016, 1.00000000000000, 5.40373448828380E-017 ) );
#330 = DIRECTION( '', ( -1.57009245868377E-016, -5.40373448828381E-017, 1.00000000000000 ) );
#331 = FILL_AREA_STYLE( '', ( #364 ) );
#332 = EDGE_CURVE( '', #365, #365, #366, .T. );
#333 = EDGE_CURVE( '', #367, #367, #368, .T. );
#334 = FILL_AREA_STYLE( '', ( #369 ) );
#335 = EDGE_CURVE( '', #370, #370, #371, .F. );
#336 = EDGE_CURVE( '', #372, #372, #373, .T. );
#337 = FILL_AREA_STYLE( '', ( #374 ) );
#338 = EDGE_CURVE( '', #375, #375, #376, .F. );
#339 = EDGE_CURVE( '', #377, #377, #378, .T. );
#340 = FILL_AREA_STYLE( '', ( #379 ) );
#341 = EDGE_CURVE( '', #380, #380, #381, .T. );
#342 = FILL_AREA_STYLE( '', ( #382 ) );
#343 = EDGE_CURVE( '', #383, #383, #384, .F. );
#344 = FILL_AREA_STYLE( '', ( #385 ) );
#345 = EDGE_CURVE( '', #386, #386, #387, .F. );
#346 = EDGE_CURVE( '', #388, #388, #389, .T. );
#347 = FILL_AREA_STYLE( '', ( #390 ) );
#348 = EDGE_CURVE( '', #391, #391, #392, .F. );
#349 = FILL_AREA_STYLE( '', ( #393 ) );
#350 = EDGE_CURVE( '', #394, #394, #395, .T. );
#351 = FILL_AREA_STYLE( '', ( #396 ) );
#352 = EDGE_CURVE( '', #397, #397, #398, .T. );
#353 = FILL_AREA_STYLE( '', ( #399 ) );
#354 = FILL_AREA_STYLE( '', ( #400 ) );
#355 = EDGE_CURVE( '', #401, #401, #402, .T. );
#356 = FILL_AREA_STYLE( '', ( #403 ) );
#357 = EDGE_CURVE( '', #404, #404, #405, .F. );
#358 = FILL_AREA_STYLE( '', ( #406 ) );
#359 = EDGE_CURVE( '', #407, #407, #408, .T. );
#360 = FILL_AREA_STYLE( '', ( #409 ) );
#361 = FILL_AREA_STYLE( '', ( #410 ) );
#362 = FILL_AREA_STYLE( '', ( #411 ) );
#363 = FILL_AREA_STYLE( '', ( #412 ) );
#364 = FILL_AREA_STYLE_COLOUR( '', #413 );
#365 = VERTEX_POINT( '', #414 );
#366 = CIRCLE( '', #415, 47.0000000000000 );
#367 = VERTEX_POINT( '', #416 );
#368 = CIRCLE( '', #417, 44.5000000000000 );
#369 = FILL_AREA_STYLE_COLOUR( '', #418 );
#370 = VERTEX_POINT( '', #419 );
#371 = CIRCLE( '', #420, 47.0000000000000 );
#372 = VERTEX_POINT( '', #421 );
#373 = CIRCLE( '', #422, 47.0000000000000 );
#374 = FILL_AREA_STYLE_COLOUR( '', #423 );
#375 = VERTEX_POINT( '', #424 );
#376 = CIRCLE( '', #425, 46.0000000000000 );
#377 = VERTEX_POINT( '', #426 );
#378 = CIRCLE( '', #427, 45.0000000000000 );
#379 = FILL_AREA_STYLE_COLOUR( '', #428 );
#380 = VERTEX_POINT( '', #429 );
#381 = CIRCLE( '', #430, 44.5000000000000 );
#382 = FILL_AREA_STYLE_COLOUR( '', #431 );
#383 = VERTEX_POINT( '', #432 );
#384 = CIRCLE( '', #433, 46.0000000000000 );
#385 = FILL_AREA_STYLE_COLOUR( '', #434 );
#386 = VERTEX_POINT( '', #435 );
#387 = CIRCLE( '', #436, 46.0000000000000 );
#388 = VERTEX_POINT( '', #437 );
#389 = CIRCLE( '', #438, 45.0000000000000 );
#390 = FILL_AREA_STYLE_COLOUR( '', #439 );
#391 = VERTEX_POINT( '', #440 );
#392 = CIRCLE( '', #441, 47.0000000000000 );
#393 = FILL_AREA_STYLE_COLOUR( '', #442 );
#394 = VERTEX_POINT( '', #443 );
#395 = CIRCLE( '', #444, 44.5000000000000 );
#396 = FILL_AREA_STYLE_COLOUR( '', #445 );
#397 = VERTEX_POINT( '', #446 );
#398 = CIRCLE( '', #447, 44.5000000000000 );
#399 = FILL_AREA_STYLE_COLOUR( '', #448 );
#400 = FILL_AREA_STYLE_COLOUR( '', #449 );
#401 = VERTEX_POINT( '', #450 );
#402 = CIRCLE( '', #451, 44.5000000000000 );
#403 = FILL_AREA_STYLE_COLOUR( '', #452 );
#404 = VERTEX_POINT( '', #453 );
#405 = CIRCLE( '', #454, 46.0000000000000 );
#406 = FILL_AREA_STYLE_COLOUR( '', #455 );
#407 = VERTEX_POINT( '', #456 );
#408 = CIRCLE( '', #457, 44.5000000000000 );
#409 = FILL_AREA_STYLE_COLOUR( '', #458 );
#410 = FILL_AREA_STYLE_COLOUR( '', #459 );
#411 = FILL_AREA_STYLE_COLOUR( '', #460 );
#412 = FILL_AREA_STYLE_COLOUR( '', #461 );
#413 = COLOUR_RGB( '', 0.698039233684540, 0.682352960109711, 0.521568655967712 );
#414 = CARTESIAN_POINT( '', ( -46.9999999999999, -67.0000000000000, -1.91933146249752E-014 ) );
#415 = AXIS2_PLACEMENT_3D( '', #462, #463, #464 );
#416 = CARTESIAN_POINT( '', ( -44.4999999999999, -67.0000000000000, -1.82808558893824E-014 ) );
#417 = AXIS2_PLACEMENT_3D( '', #465, #466, #467 );
#418 = COLOUR_RGB( '', 0.698039233684540, 0.682352960109711, 0.521568655967712 );
#419 = CARTESIAN_POINT( '', ( 40.1073413660058, 87.3276874765387, 47.0000000000000 ) );
#420 = AXIS2_PLACEMENT_3D( '', #468, #469, #470 );
#421 = CARTESIAN_POINT( '', ( 47.5319625684647, 161.220346110533, 4.12932956889639E-014 ) );
#422 = AXIS2_PLACEMENT_3D( '', #471, #472, #473 );
#423 = COLOUR_RGB( '', 0.698039233684540, 0.682352960109711, 0.521568655967712 );
#424 = CARTESIAN_POINT( '', ( 6.21665137291269E-014, -0.999999999999989, 46.0000000000000 ) );
#425 = AXIS2_PLACEMENT_3D( '', #474, #475, #476 );
#426 = CARTESIAN_POINT( '', ( 45.0000000000001, 3.68369504687426E-014, 5.96177752562309E-015 ) );
#427 = AXIS2_PLACEMENT_3D( '', #477, #478, #479 );
#428 = COLOUR_RGB( '', 0.698039233684540, 0.682352960109711, 0.521568655967712 );
#429 = CARTESIAN_POINT( '', ( -44.4999999999999, -10.5000000000000, -1.52277459035021E-014 ) );
#430 = AXIS2_PLACEMENT_3D( '', #480, #481, #482 );
#431 = COLOUR_RGB( '', 0.698039233684540, 0.682352960109711, 0.521568655967712 );
#432 = CARTESIAN_POINT( '', ( 6.21665137291269E-014, -8.50000000000000, 46.0000000000000 ) );
#433 = AXIS2_PLACEMENT_3D( '', #483, #484, #485 );
#434 = COLOUR_RGB( '', 0.698039233684540, 0.682352960109711, 0.521568655967712 );
#435 = CARTESIAN_POINT( '', ( 34.0969337259202, 81.3172798364531, 46.0000000000000 ) );
#436 = AXIS2_PLACEMENT_3D( '', #486, #487, #488 );
#437 = CARTESIAN_POINT( '', ( 65.2096320981283, 48.7903679018719, 1.82269524377489E-014 ) );
#438 = AXIS2_PLACEMENT_3D( '', #489, #490, #491 );
#439 = COLOUR_RGB( '', 0.698039233684540, 0.682352960109711, 0.521568655967712 );
#440 = CARTESIAN_POINT( '', ( 7.58872922910729E-014, -9.50000000000000, 47.0000000000000 ) );
#441 = AXIS2_PLACEMENT_3D( '', #492, #493, #494 );
#442 = COLOUR_RGB( '', 0.698039233684540, 0.682352960109711, 0.521568655967712 );
#443 = CARTESIAN_POINT( '', ( 9.34819638439101, 119.501046020527, 1.88626307276035E-014 ) );
#444 = AXIS2_PLACEMENT_3D( '', #495, #496, #497 );
#445 = COLOUR_RGB( '', 0.698039233684540, 0.682352960109711, 0.521568655967712 );
#446 = CARTESIAN_POINT( '', ( 33.3898269447336, 80.6101730552664, -44.5000000000000 ) );
#447 = AXIS2_PLACEMENT_3D( '', #498, #499, #500 );
#448 = COLOUR_RGB( '', 0.698039233684540, 0.682352960109711, 0.521568655967712 );
#449 = COLOUR_RGB( '', 0.698039233684540, 0.682352960109711, 0.521568655967712 );
#450 = CARTESIAN_POINT( '', ( -44.5000000000000, -4.56732030473181E-014, 2.13899109546297E-015 ) );
#451 = AXIS2_PLACEMENT_3D( '', #501, #502, #503 );
#452 = COLOUR_RGB( '', 0.698039233684540, 0.682352960109711, 0.521568655967712 );
#453 = CARTESIAN_POINT( '', ( 39.4002345848193, 86.6205806953522, 46.0000000000000 ) );
#454 = AXIS2_PLACEMENT_3D( '', #504, #505, #506 );
#455 = COLOUR_RGB( '', 0.698039233684540, 0.682352960109711, 0.521568655967712 );
#456 = CARTESIAN_POINT( '', ( 49.2997295214310, 159.452579157567, 4.17306707134680E-014 ) );
#457 = AXIS2_PLACEMENT_3D( '', #507, #508, #509 );
#458 = COLOUR_RGB( '', 0.698039233684540, 0.682352960109711, 0.521568655967712 );
#459 = COLOUR_RGB( '', 0.698039233684540, 0.682352960109711, 0.521568655967712 );
#460 = COLOUR_RGB( '', 0.698039233684540, 0.682352960109711, 0.521568655967712 );
#461 = COLOUR_RGB( '', 0.698039233684540, 0.682352960109711, 0.521568655967712 );
#462 = CARTESIAN_POINT( '', ( 9.71445146547012E-014, -67.0000000000000, -4.72414064560405E-015 ) );
#463 = DIRECTION( '', ( 4.44089209850063E-016, -1.00000000000000, -5.40373448828380E-017 ) );
#464 = DIRECTION( '', ( -1.00000000000000, -4.44089209850062E-016, -3.07854765518534E-016 ) );
#465 = CARTESIAN_POINT( '', ( 9.71445146547012E-014, -67.0000000000000, -4.72414064560405E-015 ) );
#466 = DIRECTION( '', ( 4.44089209850063E-016, -1.00000000000000, -5.40373448828380E-017 ) );
#467 = DIRECTION( '', ( -1.00000000000000, -4.44089209850063E-016, -3.04645286377042E-016 ) );
#468 = CARTESIAN_POINT( '', ( 40.1073413660058, 87.3276874765387, 2.35581118434574E-014 ) );
#469 = DIRECTION( '', ( -0.707106781186547, -0.707106781186548, -4.04744070546276E-016 ) );
#470 = DIRECTION( '', ( -2.62845613894009E-016, -3.09548939962627E-016, 1.00000000000000 ) );
#471 = CARTESIAN_POINT( '', ( 80.7659812842324, 127.986327394765, 4.68308958998682E-014 ) );
#472 = DIRECTION( '', ( -0.707106781186547, -0.707106781186548, -4.04744070546275E-016 ) );
#473 = DIRECTION( '', ( -0.707106781186548, 0.707106781186547, -1.17821281083071E-016 ) );
#474 = CARTESIAN_POINT( '', ( 6.93889390390723E-014, -0.999999999999987, -1.15767588333673E-015 ) );
#475 = DIRECTION( '', ( 4.44089209850063E-016, -1.00000000000000, -5.40373448828379E-017 ) );
#476 = DIRECTION( '', ( -1.57009245868377E-016, -5.40373448828380E-017, 1.00000000000000 ) );
#477 = CARTESIAN_POINT( '', ( 6.93889390390723E-014, 1.38777878078145E-014, -1.10363853845389E-015 ) );
#478 = DIRECTION( '', ( 2.88159009762259E-016, -1.00000000000000, -5.40373448828381E-017 ) );
#479 = DIRECTION( '', ( 1.00000000000000, 2.88159009762259E-016, 1.57009245868377E-016 ) );
#480 = CARTESIAN_POINT( '', ( 8.32667268468867E-014, -10.5000000000000, -1.67103065972369E-015 ) );
#481 = DIRECTION( '', ( 4.44089209850063E-016, -1.00000000000000, -5.40373448828380E-017 ) );
#482 = DIRECTION( '', ( -1.00000000000000, -4.44089209850063E-016, -3.04645286377042E-016 ) );
#483 = CARTESIAN_POINT( '', ( 6.93889390390723E-014, -8.50000000000000, -1.56295596995802E-015 ) );
#484 = DIRECTION( '', ( 4.44089209850063E-016, -1.00000000000000, -5.40373448828380E-017 ) );
#485 = DIRECTION( '', ( -1.57009245868377E-016, -5.40373448828381E-017, 1.00000000000000 ) );
#486 = CARTESIAN_POINT( '', ( 34.0969337259202, 81.3172798364531, 2.01177872438140E-014 ) );
#487 = DIRECTION( '', ( -0.707106781186547, -0.707106781186548, -4.04744070546275E-016 ) );
#488 = DIRECTION( '', ( -2.62845613894009E-016, -3.09548939962627E-016, 1.00000000000000 ) );
#489 = CARTESIAN_POINT( '', ( 33.3898269447336, 80.6101730552665, 1.97130431732678E-014 ) );
#490 = DIRECTION( '', ( -0.707106781186547, -0.707106781186548, -4.04744070546275E-016 ) );
#491 = DIRECTION( '', ( 0.707106781186548, -0.707106781186547, -3.30242385670865E-017 ) );
#492 = CARTESIAN_POINT( '', ( 8.32667268468867E-014, -9.50000000000000, -1.61699331484086E-015 ) );
#493 = DIRECTION( '', ( 4.44089209850063E-016, -1.00000000000000, -5.40373448828379E-017 ) );
#494 = DIRECTION( '', ( -1.57009245868377E-016, -5.40373448828380E-017, 1.00000000000000 ) );
#495 = CARTESIAN_POINT( '', ( 40.8144481471924, 88.0347942577253, 2.39628559140037E-014 ) );
#496 = DIRECTION( '', ( -0.707106781186547, -0.707106781186548, -4.04744070546276E-016 ) );
#497 = DIRECTION( '', ( -0.707106781186548, 0.707106781186547, -1.14611801941578E-016 ) );
#498 = CARTESIAN_POINT( '', ( 33.3898269447336, 80.6101730552664, 6.20370103650384E-015 ) );
#499 = DIRECTION( '', ( 0.707106781186548, 0.707106781186548, 7.28121294585445E-017 ) );
#500 = DIRECTION( '', ( 1.02971900985539E-016, 2.61472919763158E-032, -1.00000000000000 ) );
#501 = CARTESIAN_POINT( '', ( 0.000000000000000, -3.28501271128976E-014, 2.13899109546297E-015 ) );
#502 = DIRECTION( '', ( -2.88159009762259E-016, 1.00000000000000, 5.40373448828381E-017 ) );
#503 = DIRECTION( '', ( -1.00000000000000, -2.88159009762259E-016, 0.000000000000000 ) );
#504 = CARTESIAN_POINT( '', ( 39.4002345848193, 86.6205806953522, 2.31533677729111E-014 ) );
#505 = DIRECTION( '', ( -0.707106781186547, -0.707106781186548, -4.04744070546275E-016 ) );
#506 = DIRECTION( '', ( -2.62845613894009E-016, -3.09548939962627E-016, 1.00000000000000 ) );
#507 = CARTESIAN_POINT( '', ( 80.7659812842324, 127.986327394765, 4.68308958998682E-014 ) );
#508 = DIRECTION( '', ( -0.707106781186547, -0.707106781186548, -4.04744070546276E-016 ) );
#509 = DIRECTION( '', ( -0.707106781186548, 0.707106781186547, -1.14611801941578E-016 ) );
ENDSEC;
END-ISO-10303-21;
