ISO-10303-21;
HEADER;
/* Generated by software containing ST-Developer
 * from STEP Tools, Inc. (www.steptools.com) 
 */
/* OPTION: strings as raw bytes, not using required /X/ escapes */

FILE_DESCRIPTION(
/* description */ ('Unknown'),
/* implementation_level */ '2;1');

FILE_NAME(
/* name */ 'F5DN108',
/* time_stamp */ '2019-10-28T10:43:11+01:00',
/* author */ ('Unknown'),
/* organization */ ('Unknown'),
/* preprocessor_version */ 'ST-DEVELOPER v16.7',
/* originating_system */ 'DEX',
/* authorisation */ $);

FILE_SCHEMA (('AUTOMOTIVE_DESIGN {1 0 10303 214 3 1 1}'));
ENDSEC;

DATA;
#10=PROPERTY_DEFINITION_REPRESENTATION(#14,#12);
#11=PROPERTY_DEFINITION_REPRESENTATION(#15,#13);
#12=REPRESENTATION('',(#16),#323);
#13=REPRESENTATION('',(#17),#323);
#14=PROPERTY_DEFINITION('pmi validation property','',#328);
#15=PROPERTY_DEFINITION('pmi validation property','',#328);
#16=VALUE_REPRESENTATION_ITEM('number of annotations',COUNT_MEASURE(0.));
#17=VALUE_REPRESENTATION_ITEM('number of views',COUNT_MEASURE(0.));
#18=SHAPE_REPRESENTATION_RELATIONSHIP('','',#187,#19);
#19=ADVANCED_BREP_SHAPE_REPRESENTATION('',(#185),#323);
#20=TOROIDAL_SURFACE('',#203,130.,55.);
#21=CONICAL_SURFACE('',#197,55.5,0.785398163397448);
#22=CONICAL_SURFACE('',#209,55.5,0.785398163397448);
#23=CYLINDRICAL_SURFACE('',#191,54.);
#24=CYLINDRICAL_SURFACE('',#195,57.);
#25=CYLINDRICAL_SURFACE('',#201,55.);
#26=CYLINDRICAL_SURFACE('',#205,54.);
#27=CYLINDRICAL_SURFACE('',#212,57.);
#28=CYLINDRICAL_SURFACE('',#216,55.);
#29=ORIENTED_EDGE('',*,*,#57,.T.);
#30=ORIENTED_EDGE('',*,*,#57,.F.);
#31=ORIENTED_EDGE('',*,*,#58,.T.);
#32=ORIENTED_EDGE('',*,*,#59,.T.);
#33=ORIENTED_EDGE('',*,*,#58,.F.);
#34=ORIENTED_EDGE('',*,*,#60,.F.);
#35=ORIENTED_EDGE('',*,*,#59,.F.);
#36=ORIENTED_EDGE('',*,*,#60,.T.);
#37=ORIENTED_EDGE('',*,*,#61,.T.);
#38=ORIENTED_EDGE('',*,*,#61,.F.);
#39=ORIENTED_EDGE('',*,*,#62,.F.);
#40=ORIENTED_EDGE('',*,*,#63,.T.);
#41=ORIENTED_EDGE('',*,*,#62,.T.);
#42=ORIENTED_EDGE('',*,*,#64,.T.);
#43=ORIENTED_EDGE('',*,*,#63,.F.);
#44=ORIENTED_EDGE('',*,*,#65,.T.);
#45=ORIENTED_EDGE('',*,*,#66,.F.);
#46=ORIENTED_EDGE('',*,*,#65,.F.);
#47=ORIENTED_EDGE('',*,*,#67,.F.);
#48=ORIENTED_EDGE('',*,*,#68,.F.);
#49=ORIENTED_EDGE('',*,*,#67,.T.);
#50=ORIENTED_EDGE('',*,*,#69,.T.);
#51=ORIENTED_EDGE('',*,*,#68,.T.);
#52=ORIENTED_EDGE('',*,*,#70,.T.);
#53=ORIENTED_EDGE('',*,*,#64,.F.);
#54=ORIENTED_EDGE('',*,*,#70,.F.);
#55=ORIENTED_EDGE('',*,*,#69,.F.);
#56=ORIENTED_EDGE('',*,*,#66,.T.);
#57=EDGE_CURVE('',#71,#71,#85,.T.);
#58=EDGE_CURVE('',#72,#72,#86,.T.);
#59=EDGE_CURVE('',#73,#73,#87,.T.);
#60=EDGE_CURVE('',#74,#74,#88,.F.);
#61=EDGE_CURVE('',#75,#75,#89,.T.);
#62=EDGE_CURVE('',#76,#76,#90,.F.);
#63=EDGE_CURVE('',#77,#77,#91,.T.);
#64=EDGE_CURVE('',#78,#78,#92,.T.);
#65=EDGE_CURVE('',#79,#79,#93,.T.);
#66=EDGE_CURVE('',#80,#80,#94,.T.);
#67=EDGE_CURVE('',#81,#81,#95,.F.);
#68=EDGE_CURVE('',#82,#82,#96,.T.);
#69=EDGE_CURVE('',#83,#83,#97,.T.);
#70=EDGE_CURVE('',#84,#84,#98,.F.);
#71=VERTEX_POINT('',#281);
#72=VERTEX_POINT('',#284);
#73=VERTEX_POINT('',#287);
#74=VERTEX_POINT('',#290);
#75=VERTEX_POINT('',#293);
#76=VERTEX_POINT('',#296);
#77=VERTEX_POINT('',#299);
#78=VERTEX_POINT('',#302);
#79=VERTEX_POINT('',#305);
#80=VERTEX_POINT('',#307);
#81=VERTEX_POINT('',#311);
#82=VERTEX_POINT('',#313);
#83=VERTEX_POINT('',#316);
#84=VERTEX_POINT('',#319);
#85=CIRCLE('',#190,54.);
#86=CIRCLE('',#192,54.);
#87=CIRCLE('',#194,57.);
#88=CIRCLE('',#196,57.);
#89=CIRCLE('',#198,55.5);
#90=CIRCLE('',#200,55.);
#91=CIRCLE('',#202,55.);
#92=CIRCLE('',#204,55.);
#93=CIRCLE('',#206,54.);
#94=CIRCLE('',#207,54.);
#95=CIRCLE('',#210,57.);
#96=CIRCLE('',#211,55.5);
#97=CIRCLE('',#213,57.);
#98=CIRCLE('',#215,55.);
#99=EDGE_LOOP('',(#29));
#100=EDGE_LOOP('',(#30));
#101=EDGE_LOOP('',(#31));
#102=EDGE_LOOP('',(#32));
#103=EDGE_LOOP('',(#33));
#104=EDGE_LOOP('',(#34));
#105=EDGE_LOOP('',(#35));
#106=EDGE_LOOP('',(#36));
#107=EDGE_LOOP('',(#37));
#108=EDGE_LOOP('',(#38));
#109=EDGE_LOOP('',(#39));
#110=EDGE_LOOP('',(#40));
#111=EDGE_LOOP('',(#41));
#112=EDGE_LOOP('',(#42));
#113=EDGE_LOOP('',(#43));
#114=EDGE_LOOP('',(#44));
#115=EDGE_LOOP('',(#45));
#116=EDGE_LOOP('',(#46));
#117=EDGE_LOOP('',(#47));
#118=EDGE_LOOP('',(#48));
#119=EDGE_LOOP('',(#49));
#120=EDGE_LOOP('',(#50));
#121=EDGE_LOOP('',(#51));
#122=EDGE_LOOP('',(#52));
#123=EDGE_LOOP('',(#53));
#124=EDGE_LOOP('',(#54));
#125=EDGE_LOOP('',(#55));
#126=EDGE_LOOP('',(#56));
#127=FACE_BOUND('',#99,.T.);
#128=FACE_BOUND('',#100,.T.);
#129=FACE_BOUND('',#101,.T.);
#130=FACE_BOUND('',#102,.T.);
#131=FACE_BOUND('',#103,.T.);
#132=FACE_BOUND('',#104,.T.);
#133=FACE_BOUND('',#105,.T.);
#134=FACE_BOUND('',#106,.T.);
#135=FACE_BOUND('',#107,.T.);
#136=FACE_BOUND('',#108,.T.);
#137=FACE_BOUND('',#109,.T.);
#138=FACE_BOUND('',#110,.T.);
#139=FACE_BOUND('',#111,.T.);
#140=FACE_BOUND('',#112,.T.);
#141=FACE_BOUND('',#113,.T.);
#142=FACE_BOUND('',#114,.T.);
#143=FACE_BOUND('',#115,.T.);
#144=FACE_BOUND('',#116,.T.);
#145=FACE_BOUND('',#117,.T.);
#146=FACE_BOUND('',#118,.T.);
#147=FACE_BOUND('',#119,.T.);
#148=FACE_BOUND('',#120,.T.);
#149=FACE_BOUND('',#121,.T.);
#150=FACE_BOUND('',#122,.T.);
#151=FACE_BOUND('',#123,.T.);
#152=FACE_BOUND('',#124,.T.);
#153=FACE_BOUND('',#125,.T.);
#154=FACE_BOUND('',#126,.T.);
#155=PLANE('',#189);
#156=PLANE('',#193);
#157=PLANE('',#199);
#158=PLANE('',#208);
#159=PLANE('',#214);
#160=PLANE('',#217);
#161=ADVANCED_FACE('',(#127),#155,.F.);
#162=ADVANCED_FACE('',(#128,#129),#23,.F.);
#163=ADVANCED_FACE('',(#130,#131),#156,.F.);
#164=ADVANCED_FACE('',(#132,#133),#24,.T.);
#165=ADVANCED_FACE('',(#134,#135),#21,.T.);
#166=ADVANCED_FACE('',(#136,#137),#157,.T.);
#167=ADVANCED_FACE('',(#138,#139),#25,.T.);
#168=ADVANCED_FACE('',(#140,#141),#20,.T.);
#169=ADVANCED_FACE('',(#142,#143),#26,.F.);
#170=ADVANCED_FACE('',(#144),#158,.F.);
#171=ADVANCED_FACE('',(#145,#146),#22,.T.);
#172=ADVANCED_FACE('',(#147,#148),#27,.T.);
#173=ADVANCED_FACE('',(#149,#150),#159,.T.);
#174=ADVANCED_FACE('',(#151,#152),#28,.T.);
#175=ADVANCED_FACE('',(#153,#154),#160,.F.);
#176=CLOSED_SHELL('',(#161,#162,#163,#164,#165,#166,#167,#168,#169,#170,
#171,#172,#173,#174,#175));
#177=STYLED_ITEM('',(#178),#185);
#178=PRESENTATION_STYLE_ASSIGNMENT((#179));
#179=SURFACE_STYLE_USAGE(.BOTH.,#180);
#180=SURFACE_SIDE_STYLE('',(#181));
#181=SURFACE_STYLE_FILL_AREA(#182);
#182=FILL_AREA_STYLE('',(#183));
#183=FILL_AREA_STYLE_COLOUR('',#184);
#184=COLOUR_RGB('',0.699999988079071,0.670680642127991,0.670680642127991);
#185=MANIFOLD_SOLID_BREP('',#176);
#186=SHAPE_DEFINITION_REPRESENTATION(#328,#187);
#187=SHAPE_REPRESENTATION('F5DN108',(#188),#323);
#188=AXIS2_PLACEMENT_3D('',#278,#218,#219);
#189=AXIS2_PLACEMENT_3D('',#279,#220,#221);
#190=AXIS2_PLACEMENT_3D('',#280,#222,#223);
#191=AXIS2_PLACEMENT_3D('',#282,#224,#225);
#192=AXIS2_PLACEMENT_3D('',#283,#226,#227);
#193=AXIS2_PLACEMENT_3D('',#285,#228,#229);
#194=AXIS2_PLACEMENT_3D('',#286,#230,#231);
#195=AXIS2_PLACEMENT_3D('',#288,#232,#233);
#196=AXIS2_PLACEMENT_3D('',#289,#234,#235);
#197=AXIS2_PLACEMENT_3D('',#291,#236,#237);
#198=AXIS2_PLACEMENT_3D('',#292,#238,#239);
#199=AXIS2_PLACEMENT_3D('',#294,#240,#241);
#200=AXIS2_PLACEMENT_3D('',#295,#242,#243);
#201=AXIS2_PLACEMENT_3D('',#297,#244,#245);
#202=AXIS2_PLACEMENT_3D('',#298,#246,#247);
#203=AXIS2_PLACEMENT_3D('',#300,#248,#249);
#204=AXIS2_PLACEMENT_3D('',#301,#250,#251);
#205=AXIS2_PLACEMENT_3D('',#303,#252,#253);
#206=AXIS2_PLACEMENT_3D('',#304,#254,#255);
#207=AXIS2_PLACEMENT_3D('',#306,#256,#257);
#208=AXIS2_PLACEMENT_3D('',#308,#258,#259);
#209=AXIS2_PLACEMENT_3D('',#309,#260,#261);
#210=AXIS2_PLACEMENT_3D('',#310,#262,#263);
#211=AXIS2_PLACEMENT_3D('',#312,#264,#265);
#212=AXIS2_PLACEMENT_3D('',#314,#266,#267);
#213=AXIS2_PLACEMENT_3D('',#315,#268,#269);
#214=AXIS2_PLACEMENT_3D('',#317,#270,#271);
#215=AXIS2_PLACEMENT_3D('',#318,#272,#273);
#216=AXIS2_PLACEMENT_3D('',#320,#274,#275);
#217=AXIS2_PLACEMENT_3D('',#321,#276,#277);
#218=DIRECTION('',(0.,0.,1.));
#219=DIRECTION('',(1.,0.,0.));
#220=DIRECTION('',(-4.44089209850063E-16,1.,1.21768522846838E-31));
#221=DIRECTION('',(-1.21768522846838E-31,-1.21768522846838E-31,1.));
#222=DIRECTION('',(4.44089209850063E-16,-1.,-1.21768522846838E-31));
#223=DIRECTION('',(-1.,-6.66133814775094E-16,-1.21768522846838E-31));
#224=DIRECTION('',(1.8709313933498E-16,-1.,-1.21768522846838E-31));
#225=DIRECTION('',(-1.,-4.09137744260011E-16,-1.21768522846838E-31));
#226=DIRECTION('',(4.44089209850063E-16,-1.,-1.21768522846838E-31));
#227=DIRECTION('',(-1.,-6.66133814775094E-16,-1.21768522846838E-31));
#228=DIRECTION('',(-1.8709313933498E-16,1.,1.21768522846838E-31));
#229=DIRECTION('',(1.,4.09137744260011E-16,1.21768522846838E-31));
#230=DIRECTION('',(4.44089209850063E-16,-1.,-1.21768522846838E-31));
#231=DIRECTION('',(-1.,-6.66133814775094E-16,-1.21768522846838E-31));
#232=DIRECTION('',(1.8709313933498E-16,-1.,-1.21768522846838E-31));
#233=DIRECTION('',(-1.,-4.09137744260011E-16,-1.21768522846838E-31));
#234=DIRECTION('',(4.44089209850063E-16,-1.,-1.21768522846838E-31));
#235=DIRECTION('',(-1.21768522846838E-31,-1.21768522846838E-31,1.));
#236=DIRECTION('',(4.44089209850063E-16,-1.,-1.21768522846838E-31));
#237=DIRECTION('',(1.21768522846838E-31,1.21768522846838E-31,-1.));
#238=DIRECTION('',(4.44089209850063E-16,-1.,-1.21768522846838E-31));
#239=DIRECTION('',(-1.21768522846838E-31,-1.21768522846838E-31,1.));
#240=DIRECTION('',(-4.44089209850063E-16,1.,1.21768522846838E-31));
#241=DIRECTION('',(-1.21768522846838E-31,-1.21768522846838E-31,1.));
#242=DIRECTION('',(4.44089209850063E-16,-1.,-1.21768522846838E-31));
#243=DIRECTION('',(-1.21768522846838E-31,-1.21768522846838E-31,1.));
#244=DIRECTION('',(-3.82856869892695E-16,1.,1.21768522846838E-31));
#245=DIRECTION('',(1.,6.04901474817726E-16,1.21768522846838E-31));
#246=DIRECTION('',(3.82856869892701E-16,-1.,-1.21768522846841E-31));
#247=DIRECTION('',(-1.,-3.82856869892701E-16,0.));
#248=DIRECTION('',(0.,0.,1.));
#249=DIRECTION('',(1.,0.,0.));
#250=DIRECTION('',(-0.707106781186547,-0.707106781186548,-1.21768522846841E-31));
#251=DIRECTION('',(-0.707106781186548,0.707106781186547,0.));
#252=DIRECTION('',(0.707106781186548,0.707106781186547,-1.21768522846838E-31));
#253=DIRECTION('',(-0.707106781186546,0.707106781186549,-1.21768522846838E-31));
#254=DIRECTION('',(-0.707106781186549,-0.707106781186547,1.21768522846838E-31));
#255=DIRECTION('',(-0.707106781186546,0.707106781186549,-1.21768522846838E-31));
#256=DIRECTION('',(-0.707106781186549,-0.707106781186547,1.21768522846838E-31));
#257=DIRECTION('',(-0.707106781186546,0.707106781186549,-1.21768522846838E-31));
#258=DIRECTION('',(-0.707106781186549,-0.707106781186547,1.21768522846838E-31));
#259=DIRECTION('',(2.51795817808366E-46,1.72206696480136E-31,1.));
#260=DIRECTION('',(0.707106781186549,0.707106781186547,-1.21768522846838E-31));
#261=DIRECTION('',(-2.51795817808366E-46,-1.72206696480136E-31,-1.));
#262=DIRECTION('',(-0.707106781186549,-0.707106781186547,1.21768522846838E-31));
#263=DIRECTION('',(2.51795817808366E-46,1.72206696480136E-31,1.));
#264=DIRECTION('',(-0.707106781186549,-0.707106781186547,1.21768522846838E-31));
#265=DIRECTION('',(2.51795817808366E-46,1.72206696480136E-31,1.));
#266=DIRECTION('',(0.707106781186548,0.707106781186547,-1.21768522846838E-31));
#267=DIRECTION('',(-0.707106781186546,0.707106781186549,-1.21768522846838E-31));
#268=DIRECTION('',(-0.707106781186549,-0.707106781186547,1.21768522846838E-31));
#269=DIRECTION('',(-0.707106781186546,0.707106781186549,-1.21768522846838E-31));
#270=DIRECTION('',(-0.707106781186549,-0.707106781186547,1.21768522846838E-31));
#271=DIRECTION('',(2.51795817808366E-46,1.72206696480136E-31,1.));
#272=DIRECTION('',(-0.707106781186549,-0.707106781186547,1.21768522846838E-31));
#273=DIRECTION('',(2.51795817808366E-46,1.72206696480136E-31,1.));
#274=DIRECTION('',(-0.707106781186548,-0.707106781186547,1.21768522846838E-31));
#275=DIRECTION('',(0.707106781186546,-0.707106781186549,1.21768522846838E-31));
#276=DIRECTION('',(-0.707106781186548,-0.707106781186547,1.21768522846838E-31));
#277=DIRECTION('',(0.707106781186546,-0.707106781186549,1.21768522846838E-31));
#278=CARTESIAN_POINT('',(0.,0.,0.));
#279=CARTESIAN_POINT('',(-4.16333634234434E-14,-9.00000000000008,-2.73979176405386E-29));
#280=CARTESIAN_POINT('',(-4.16333634234434E-14,-9.00000000000008,-2.73979176405386E-29));
#281=CARTESIAN_POINT('',(-54.,-9.00000000000011,-3.39734178742678E-29));
#282=CARTESIAN_POINT('',(-4.16333634234434E-14,-9.00000000000008,-2.73979176405386E-29));
#283=CARTESIAN_POINT('',(-2.77555756156289E-14,-78.0000000000001,-3.57999457169704E-29));
#284=CARTESIAN_POINT('',(-54.,-78.0000000000001,-4.23754459506996E-29));
#285=CARTESIAN_POINT('',(-2.77555756156289E-14,-78.0000000000001,-3.57999457169704E-29));
#286=CARTESIAN_POINT('',(-2.77555756156289E-14,-78.0000000000001,-3.57999457169704E-29));
#287=CARTESIAN_POINT('',(-57.,-78.0000000000001,-4.27407515192402E-29));
#288=CARTESIAN_POINT('',(-4.16333634234434E-14,-7.00000000000008,-2.71543805948449E-29));
#289=CARTESIAN_POINT('',(-4.16333634234434E-14,-8.50000000000008,-2.73370333791151E-29));
#290=CARTESIAN_POINT('',(-4.16333634234434E-14,-8.50000000000008,57.));
#291=CARTESIAN_POINT('',(-4.16333634234434E-14,-7.00000000000008,-2.71543805948449E-29));
#292=CARTESIAN_POINT('',(-4.16333634234434E-14,-7.00000000000008,-2.71543805948449E-29));
#293=CARTESIAN_POINT('',(-4.16333634234434E-14,-7.00000000000008,55.5));
#294=CARTESIAN_POINT('',(-4.16333634234434E-14,-7.00000000000008,-2.71543805948449E-29));
#295=CARTESIAN_POINT('',(-5.55111512312578E-14,-7.00000000000008,-2.71543805948449E-29));
#296=CARTESIAN_POINT('',(-5.55111512312578E-14,-7.00000000000008,55.));
#297=CARTESIAN_POINT('',(-2.77555756156289E-14,-78.0000000000001,-3.57999457169704E-29));
#298=CARTESIAN_POINT('',(-5.72355545973664E-14,-1.00000000000008,-2.64237694577639E-29));
#299=CARTESIAN_POINT('',(-55.,-1.00000000000011,-2.64237694577639E-29));
#300=CARTESIAN_POINT('',(130.,-1.00000000000007,-2.64237694577639E-29));
#301=CARTESIAN_POINT('',(38.0761184457487,90.9238815542511,-2.64237694577639E-29));
#302=CARTESIAN_POINT('',(-0.814754519511379,129.814754519511,-2.64237694577639E-29));
#303=CARTESIAN_POINT('',(43.7329726952412,96.5807358037435,-2.73979176405386E-29));
#304=CARTESIAN_POINT('',(43.7329726952412,96.5807358037435,-2.73979176405386E-29));
#305=CARTESIAN_POINT('',(5.54920651116775,134.764501987817,-3.39734178742678E-29));
#306=CARTESIAN_POINT('',(92.5233405971131,145.371103705615,-3.57999457169704E-29));
#307=CARTESIAN_POINT('',(54.3395744130396,183.554869889689,-4.23754459506996E-29));
#308=CARTESIAN_POINT('',(43.7329726952412,96.5807358037435,-2.73979176405386E-29));
#309=CARTESIAN_POINT('',(42.3187591328681,95.1665222413704,-2.71543805948449E-29));
#310=CARTESIAN_POINT('',(43.379419304648,96.2271824131502,-2.73370333791151E-29));
#311=CARTESIAN_POINT('',(43.379419304648,96.2271824131502,57.));
#312=CARTESIAN_POINT('',(42.3187591328681,95.1665222413704,-2.71543805948449E-29));
#313=CARTESIAN_POINT('',(42.3187591328681,95.1665222413704,55.5));
#314=CARTESIAN_POINT('',(42.3187591328681,95.1665222413704,-2.71543805948449E-29));
#315=CARTESIAN_POINT('',(92.5233405971131,145.371103705615,-3.57999457169704E-29));
#316=CARTESIAN_POINT('',(52.21825406948,185.676190233249,-4.27407515192401E-29));
#317=CARTESIAN_POINT('',(42.3187591328681,95.1665222413704,-2.71543805948449E-29));
#318=CARTESIAN_POINT('',(42.3187591328681,95.1665222413704,-2.71543805948449E-29));
#319=CARTESIAN_POINT('',(42.3187591328681,95.1665222413704,55.));
#320=CARTESIAN_POINT('',(92.5233405971131,145.371103705615,-3.57999457169704E-29));
#321=CARTESIAN_POINT('',(92.5233405971131,145.371103705615,-3.57999457169704E-29));
#322=MECHANICAL_DESIGN_GEOMETRIC_PRESENTATION_REPRESENTATION('',(#177),
#323);
#323=(
GEOMETRIC_REPRESENTATION_CONTEXT(3)
GLOBAL_UNCERTAINTY_ASSIGNED_CONTEXT((#324))
GLOBAL_UNIT_ASSIGNED_CONTEXT((#327,#326,#325))
REPRESENTATION_CONTEXT('F5DN108','TOP_LEVEL_ASSEMBLY_PART')
);
#324=UNCERTAINTY_MEASURE_WITH_UNIT(LENGTH_MEASURE(0.005),#327,
'DISTANCE_ACCURACY_VALUE','Maximum Tolerance applied to model');
#325=(
NAMED_UNIT(*)
SI_UNIT($,.STERADIAN.)
SOLID_ANGLE_UNIT()
);
#326=(
NAMED_UNIT(*)
PLANE_ANGLE_UNIT()
SI_UNIT($,.RADIAN.)
);
#327=(
LENGTH_UNIT()
NAMED_UNIT(*)
SI_UNIT(.MILLI.,.METRE.)
);
#328=PRODUCT_DEFINITION_SHAPE('','',#329);
#329=PRODUCT_DEFINITION('','',#331,#330);
#330=PRODUCT_DEFINITION_CONTEXT('',#337,'design');
#331=PRODUCT_DEFINITION_FORMATION_WITH_SPECIFIED_SOURCE('','',#333,
 .NOT_KNOWN.);
#332=PRODUCT_RELATED_PRODUCT_CATEGORY('','',(#333));
#333=PRODUCT('F5DN108','F5DN108','F5DN108',(#335));
#334=PRODUCT_CATEGORY('','');
#335=PRODUCT_CONTEXT('',#337,'mechanical');
#336=APPLICATION_PROTOCOL_DEFINITION('international standard',
'automotive_design',2010,#337);
#337=APPLICATION_CONTEXT(
'core data for automotive mechanical design processes');
ENDSEC;
END-ISO-10303-21;
