ISO-10303-21;
HEADER;
FILE_DESCRIPTION( ( 'Unknown' ), '1' );
FILE_NAME( '//Server/ofimatica/alfredo/Alfredo2/ISOTUBI/PZAS3D/FICHATECNICA/NUMEPRESS/generico 3D/F5DN168,3.stp', 'Unknown', ( 'Unknown' ), ( 'Unknown' ), 'PSStep 14.0', 'Unknown', '  ' );
FILE_SCHEMA( ( 'AUTOMOTIVE_DESIGN { 1 0 10303 214 1 1 1 1 }' ) );
ENDSEC;
DATA;
#1 = MECHANICAL_DESIGN_GEOMETRIC_PRESENTATION_REPRESENTATION( ' ', ( #10, #11, #12, #13, #14, #15, #16, #17, #18, #19, #20, #21, #22, #23, #24, #25, #26 ), #6 );
#2 = PRODUCT_DEFINITION_CONTEXT( '', #27, 'design' );
#3 = APPLICATION_PROTOCOL_DEFINITION( 'international standard', 'automotive_design', 2001, #27 );
#4 = PRODUCT_CATEGORY_RELATIONSHIP( 'NONE', 'NONE', #28, #29 );
#5 = SHAPE_DEFINITION_REPRESENTATION( #30, #31 );
#6 =  ( GEOMETRIC_REPRESENTATION_CONTEXT( 3 )GLOBAL_UNCERTAINTY_ASSIGNED_CONTEXT( ( #34 ) )GLOBAL_UNIT_ASSIGNED_CONTEXT( ( #36, #37, #38 ) )REPRESENTATION_CONTEXT( 'NONE', 'WORKSPACE' ) );
#10 = STYLED_ITEM( '', ( #40 ), #41 );
#11 = STYLED_ITEM( '', ( #42 ), #43 );
#12 = STYLED_ITEM( '', ( #44 ), #45 );
#13 = STYLED_ITEM( '', ( #46 ), #47 );
#14 = STYLED_ITEM( '', ( #48 ), #49 );
#15 = STYLED_ITEM( '', ( #50 ), #51 );
#16 = STYLED_ITEM( '', ( #52 ), #53 );
#17 = STYLED_ITEM( '', ( #54 ), #55 );
#18 = STYLED_ITEM( '', ( #56 ), #57 );
#19 = STYLED_ITEM( '', ( #58 ), #59 );
#20 = STYLED_ITEM( '', ( #60 ), #61 );
#21 = STYLED_ITEM( '', ( #62 ), #63 );
#22 = STYLED_ITEM( '', ( #64 ), #65 );
#23 = STYLED_ITEM( '', ( #66 ), #67 );
#24 = STYLED_ITEM( '', ( #68 ), #69 );
#25 = STYLED_ITEM( '', ( #70 ), #71 );
#26 = STYLED_ITEM( '', ( #72 ), #73 );
#27 = APPLICATION_CONTEXT( 'core data for automotive mechanical design processes' );
#28 = PRODUCT_CATEGORY( 'part', 'NONE' );
#29 = PRODUCT_RELATED_PRODUCT_CATEGORY( 'detail', ' ', ( #74 ) );
#30 = PRODUCT_DEFINITION_SHAPE( 'NONE', 'NONE', #75 );
#31 = ADVANCED_BREP_SHAPE_REPRESENTATION( '1', ( #76, #77 ), #6 );
#34 = UNCERTAINTY_MEASURE_WITH_UNIT( LENGTH_MEASURE( 0.00100000000000000 ), #36, '', '' );
#36 =  ( CONVERSION_BASED_UNIT( 'MILLIMETRE', #80 )LENGTH_UNIT(  )NAMED_UNIT( #83 ) );
#37 =  ( NAMED_UNIT( #85 )PLANE_ANGLE_UNIT(  )SI_UNIT( $, .RADIAN. ) );
#38 =  ( NAMED_UNIT( #85 )SI_UNIT( $, .STERADIAN. )SOLID_ANGLE_UNIT(  ) );
#40 = PRESENTATION_STYLE_ASSIGNMENT( ( #91 ) );
#41 = ADVANCED_FACE( '', ( #92, #93 ), #94, .T. );
#42 = PRESENTATION_STYLE_ASSIGNMENT( ( #95 ) );
#43 = ADVANCED_FACE( '', ( #96, #97 ), #98, .T. );
#44 = PRESENTATION_STYLE_ASSIGNMENT( ( #99 ) );
#45 = ADVANCED_FACE( '', ( #100, #101 ), #102, .T. );
#46 = PRESENTATION_STYLE_ASSIGNMENT( ( #103 ) );
#47 = ADVANCED_FACE( '', ( #104, #105 ), #106, .F. );
#48 = PRESENTATION_STYLE_ASSIGNMENT( ( #107 ) );
#49 = ADVANCED_FACE( '', ( #108, #109 ), #110, .T. );
#50 = PRESENTATION_STYLE_ASSIGNMENT( ( #111 ) );
#51 = ADVANCED_FACE( '', ( #112 ), #113, .F. );
#52 = PRESENTATION_STYLE_ASSIGNMENT( ( #114 ) );
#53 = ADVANCED_FACE( '', ( #115, #116 ), #117, .T. );
#54 = PRESENTATION_STYLE_ASSIGNMENT( ( #118 ) );
#55 = ADVANCED_FACE( '', ( #119, #120 ), #121, .T. );
#56 = PRESENTATION_STYLE_ASSIGNMENT( ( #122 ) );
#57 = ADVANCED_FACE( '', ( #123, #124 ), #125, .T. );
#58 = PRESENTATION_STYLE_ASSIGNMENT( ( #126 ) );
#59 = ADVANCED_FACE( '', ( #127, #128 ), #129, .F. );
#60 = PRESENTATION_STYLE_ASSIGNMENT( ( #130 ) );
#61 = ADVANCED_FACE( '', ( #131, #132 ), #133, .T. );
#62 = PRESENTATION_STYLE_ASSIGNMENT( ( #134 ) );
#63 = ADVANCED_FACE( '', ( #135, #136 ), #137, .F. );
#64 = PRESENTATION_STYLE_ASSIGNMENT( ( #138 ) );
#65 = ADVANCED_FACE( '', ( #139 ), #140, .F. );
#66 = PRESENTATION_STYLE_ASSIGNMENT( ( #141 ) );
#67 = ADVANCED_FACE( '', ( #142, #143 ), #144, .T. );
#68 = PRESENTATION_STYLE_ASSIGNMENT( ( #145 ) );
#69 = ADVANCED_FACE( '', ( #146, #147 ), #148, .T. );
#70 = PRESENTATION_STYLE_ASSIGNMENT( ( #149 ) );
#71 = ADVANCED_FACE( '', ( #150, #151 ), #152, .T. );
#72 = PRESENTATION_STYLE_ASSIGNMENT( ( #153 ) );
#73 = ADVANCED_FACE( '', ( #154, #155 ), #156, .F. );
#74 = PRODUCT( '1', '1', 'PART-1-DESC', ( #157 ) );
#75 = PRODUCT_DEFINITION( 'NONE', 'NONE', #158, #2 );
#76 = MANIFOLD_SOLID_BREP( '1', #159 );
#77 = AXIS2_PLACEMENT_3D( '', #160, #161, #162 );
#80 = LENGTH_MEASURE_WITH_UNIT( LENGTH_MEASURE( 1.00000000000000 ), #163 );
#83 = DIMENSIONAL_EXPONENTS( 1.00000000000000, 0.000000000000000, 0.000000000000000, 0.000000000000000, 0.000000000000000, 0.000000000000000, 0.000000000000000 );
#85 = DIMENSIONAL_EXPONENTS( 0.000000000000000, 0.000000000000000, 0.000000000000000, 0.000000000000000, 0.000000000000000, 0.000000000000000, 0.000000000000000 );
#91 = SURFACE_STYLE_USAGE( .BOTH., #164 );
#92 = FACE_OUTER_BOUND( '', #165, .T. );
#93 = FACE_OUTER_BOUND( '', #166, .T. );
#94 = CYLINDRICAL_SURFACE( '', #167, 87.5000000000000 );
#95 = SURFACE_STYLE_USAGE( .BOTH., #168 );
#96 = FACE_OUTER_BOUND( '', #169, .T. );
#97 = FACE_OUTER_BOUND( '', #170, .T. );
#98 = CYLINDRICAL_SURFACE( '', #171, 85.0000000000000 );
#99 = SURFACE_STYLE_USAGE( .BOTH., #172 );
#100 = FACE_OUTER_BOUND( '', #173, .T. );
#101 = FACE_OUTER_BOUND( '', #174, .T. );
#102 = CYLINDRICAL_SURFACE( '', #175, 87.5000000000000 );
#103 = SURFACE_STYLE_USAGE( .BOTH., #176 );
#104 = FACE_OUTER_BOUND( '', #177, .T. );
#105 = FACE_OUTER_BOUND( '', #178, .T. );
#106 = CYLINDRICAL_SURFACE( '', #179, 84.1500000000000 );
#107 = SURFACE_STYLE_USAGE( .BOTH., #180 );
#108 = FACE_OUTER_BOUND( '', #181, .T. );
#109 = FACE_BOUND( '', #182, .T. );
#110 = CONICAL_SURFACE( '', #183, 85.5000000000000, 0.785398163397448 );
#111 = SURFACE_STYLE_USAGE( .BOTH., #184 );
#112 = FACE_OUTER_BOUND( '', #185, .T. );
#113 = PLANE( '', #186 );
#114 = SURFACE_STYLE_USAGE( .BOTH., #187 );
#115 = FACE_OUTER_BOUND( '', #188, .T. );
#116 = FACE_OUTER_BOUND( '', #189, .T. );
#117 = CYLINDRICAL_SURFACE( '', #190, 85.0000000000000 );
#118 = SURFACE_STYLE_USAGE( .BOTH., #191 );
#119 = FACE_OUTER_BOUND( '', #192, .T. );
#120 = FACE_OUTER_BOUND( '', #193, .T. );
#121 = TOROIDAL_SURFACE( '', #194, 229.000000000000, 84.1500000000000 );
#122 = SURFACE_STYLE_USAGE( .BOTH., #195 );
#123 = FACE_OUTER_BOUND( '', #196, .T. );
#124 = FACE_BOUND( '', #197, .T. );
#125 = PLANE( '', #198 );
#126 = SURFACE_STYLE_USAGE( .BOTH., #199 );
#127 = FACE_BOUND( '', #200, .T. );
#128 = FACE_OUTER_BOUND( '', #201, .T. );
#129 = PLANE( '', #202 );
#130 = SURFACE_STYLE_USAGE( .BOTH., #203 );
#131 = FACE_OUTER_BOUND( '', #204, .T. );
#132 = FACE_BOUND( '', #205, .T. );
#133 = PLANE( '', #206 );
#134 = SURFACE_STYLE_USAGE( .BOTH., #207 );
#135 = FACE_OUTER_BOUND( '', #208, .T. );
#136 = FACE_OUTER_BOUND( '', #209, .T. );
#137 = CYLINDRICAL_SURFACE( '', #210, 84.1500000000000 );
#138 = SURFACE_STYLE_USAGE( .BOTH., #211 );
#139 = FACE_OUTER_BOUND( '', #212, .T. );
#140 = PLANE( '', #213 );
#141 = SURFACE_STYLE_USAGE( .BOTH., #214 );
#142 = FACE_OUTER_BOUND( '', #215, .T. );
#143 = FACE_BOUND( '', #216, .T. );
#144 = PLANE( '', #217 );
#145 = SURFACE_STYLE_USAGE( .BOTH., #218 );
#146 = FACE_OUTER_BOUND( '', #219, .T. );
#147 = FACE_BOUND( '', #220, .T. );
#148 = CONICAL_SURFACE( '', #221, 85.5000000000000, 0.785398163397448 );
#149 = SURFACE_STYLE_USAGE( .BOTH., #222 );
#150 = FACE_OUTER_BOUND( '', #223, .T. );
#151 = FACE_BOUND( '', #224, .T. );
#152 = PLANE( '', #225 );
#153 = SURFACE_STYLE_USAGE( .BOTH., #226 );
#154 = FACE_BOUND( '', #227, .T. );
#155 = FACE_OUTER_BOUND( '', #228, .T. );
#156 = PLANE( '', #229 );
#157 = PRODUCT_CONTEXT( '', #27, 'mechanical' );
#158 = PRODUCT_DEFINITION_FORMATION_WITH_SPECIFIED_SOURCE( ' ', 'NONE', #74, .NOT_KNOWN. );
#159 = CLOSED_SHELL( '', ( #67, #49, #57, #41, #43, #71, #59, #69, #55, #53, #45, #73, #61, #63, #65, #47, #51 ) );
#160 = CARTESIAN_POINT( '', ( 0.000000000000000, 0.000000000000000, 0.000000000000000 ) );
#161 = DIRECTION( '', ( 0.000000000000000, 0.000000000000000, 1.00000000000000 ) );
#162 = DIRECTION( '', ( 1.00000000000000, 0.000000000000000, 0.000000000000000 ) );
#163 =  ( LENGTH_UNIT(  )NAMED_UNIT( #83 )SI_UNIT( .MILLI., .METRE. ) );
#164 = SURFACE_SIDE_STYLE( '', ( #231 ) );
#165 = EDGE_LOOP( '', ( #232 ) );
#166 = EDGE_LOOP( '', ( #233 ) );
#167 = AXIS2_PLACEMENT_3D( '', #234, #235, #236 );
#168 = SURFACE_SIDE_STYLE( '', ( #237 ) );
#169 = EDGE_LOOP( '', ( #238 ) );
#170 = EDGE_LOOP( '', ( #239 ) );
#171 = AXIS2_PLACEMENT_3D( '', #240, #241, #242 );
#172 = SURFACE_SIDE_STYLE( '', ( #243 ) );
#173 = EDGE_LOOP( '', ( #244 ) );
#174 = EDGE_LOOP( '', ( #245 ) );
#175 = AXIS2_PLACEMENT_3D( '', #246, #247, #248 );
#176 = SURFACE_SIDE_STYLE( '', ( #249 ) );
#177 = EDGE_LOOP( '', ( #250 ) );
#178 = EDGE_LOOP( '', ( #251 ) );
#179 = AXIS2_PLACEMENT_3D( '', #252, #253, #254 );
#180 = SURFACE_SIDE_STYLE( '', ( #255 ) );
#181 = EDGE_LOOP( '', ( #256 ) );
#182 = EDGE_LOOP( '', ( #257 ) );
#183 = AXIS2_PLACEMENT_3D( '', #258, #259, #260 );
#184 = SURFACE_SIDE_STYLE( '', ( #261 ) );
#185 = EDGE_LOOP( '', ( #262 ) );
#186 = AXIS2_PLACEMENT_3D( '', #263, #264, #265 );
#187 = SURFACE_SIDE_STYLE( '', ( #266 ) );
#188 = EDGE_LOOP( '', ( #267 ) );
#189 = EDGE_LOOP( '', ( #268 ) );
#190 = AXIS2_PLACEMENT_3D( '', #269, #270, #271 );
#191 = SURFACE_SIDE_STYLE( '', ( #272 ) );
#192 = EDGE_LOOP( '', ( #273 ) );
#193 = EDGE_LOOP( '', ( #274 ) );
#194 = AXIS2_PLACEMENT_3D( '', #275, #276, #277 );
#195 = SURFACE_SIDE_STYLE( '', ( #278 ) );
#196 = EDGE_LOOP( '', ( #279 ) );
#197 = EDGE_LOOP( '', ( #280 ) );
#198 = AXIS2_PLACEMENT_3D( '', #281, #282, #283 );
#199 = SURFACE_SIDE_STYLE( '', ( #284 ) );
#200 = EDGE_LOOP( '', ( #285 ) );
#201 = EDGE_LOOP( '', ( #286 ) );
#202 = AXIS2_PLACEMENT_3D( '', #287, #288, #289 );
#203 = SURFACE_SIDE_STYLE( '', ( #290 ) );
#204 = EDGE_LOOP( '', ( #291 ) );
#205 = EDGE_LOOP( '', ( #292 ) );
#206 = AXIS2_PLACEMENT_3D( '', #293, #294, #295 );
#207 = SURFACE_SIDE_STYLE( '', ( #296 ) );
#208 = EDGE_LOOP( '', ( #297 ) );
#209 = EDGE_LOOP( '', ( #298 ) );
#210 = AXIS2_PLACEMENT_3D( '', #299, #300, #301 );
#211 = SURFACE_SIDE_STYLE( '', ( #302 ) );
#212 = EDGE_LOOP( '', ( #303 ) );
#213 = AXIS2_PLACEMENT_3D( '', #304, #305, #306 );
#214 = SURFACE_SIDE_STYLE( '', ( #307 ) );
#215 = EDGE_LOOP( '', ( #308 ) );
#216 = EDGE_LOOP( '', ( #309 ) );
#217 = AXIS2_PLACEMENT_3D( '', #310, #311, #312 );
#218 = SURFACE_SIDE_STYLE( '', ( #313 ) );
#219 = EDGE_LOOP( '', ( #314 ) );
#220 = EDGE_LOOP( '', ( #315 ) );
#221 = AXIS2_PLACEMENT_3D( '', #316, #317, #318 );
#222 = SURFACE_SIDE_STYLE( '', ( #319 ) );
#223 = EDGE_LOOP( '', ( #320 ) );
#224 = EDGE_LOOP( '', ( #321 ) );
#225 = AXIS2_PLACEMENT_3D( '', #322, #323, #324 );
#226 = SURFACE_SIDE_STYLE( '', ( #325 ) );
#227 = EDGE_LOOP( '', ( #326 ) );
#228 = EDGE_LOOP( '', ( #327 ) );
#229 = AXIS2_PLACEMENT_3D( '', #328, #329, #330 );
#231 = SURFACE_STYLE_FILL_AREA( #331 );
#232 = ORIENTED_EDGE( '', *, *, #332, .F. );
#233 = ORIENTED_EDGE( '', *, *, #333, .F. );
#234 = CARTESIAN_POINT( '', ( 86.1644302003178, 181.019335983757, -1.60378933141220E-014 ) );
#235 = DIRECTION( '', ( -0.707106781186548, -0.707106781186548, 8.00039076410195E-017 ) );
#236 = DIRECTION( '', ( -3.31387035877548E-017, -8.00039076410195E-017, -1.00000000000000 ) );
#237 = SURFACE_STYLE_FILL_AREA( #334 );
#238 = ORIENTED_EDGE( '', *, *, #335, .F. );
#239 = ORIENTED_EDGE( '', *, *, #336, .F. );
#240 = CARTESIAN_POINT( '', ( 173.138564286263, 267.993470069702, -2.58783739539674E-014 ) );
#241 = DIRECTION( '', ( 0.707106781186548, 0.707106781186548, -8.00039076410196E-017 ) );
#242 = DIRECTION( '', ( 3.31387035877548E-017, 8.00039076410196E-017, 1.00000000000000 ) );
#243 = SURFACE_STYLE_FILL_AREA( #337 );
#244 = ORIENTED_EDGE( '', *, *, #338, .T. );
#245 = ORIENTED_EDGE( '', *, *, #339, .T. );
#246 = CARTESIAN_POINT( '', ( 0.000000000000000, -27.0000000000000, 0.000000000000000 ) );
#247 = DIRECTION( '', ( -0.000000000000000, 1.00000000000000, -0.000000000000000 ) );
#248 = DIRECTION( '', ( 0.000000000000000, 0.000000000000000, -1.00000000000000 ) );
#249 = SURFACE_STYLE_FILL_AREA( #340 );
#250 = ORIENTED_EDGE( '', *, *, #341, .F. );
#251 = ORIENTED_EDGE( '', *, *, #342, .T. );
#252 = CARTESIAN_POINT( '', ( 89.6999641062505, 184.554869889689, -1.64379128523271E-014 ) );
#253 = DIRECTION( '', ( -0.707106781186548, -0.707106781186547, 8.00039076410196E-017 ) );
#254 = DIRECTION( '', ( -3.31387035877548E-017, -8.00039076410196E-017, -1.00000000000000 ) );
#255 = SURFACE_STYLE_FILL_AREA( #343 );
#256 = ORIENTED_EDGE( '', *, *, #338, .F. );
#257 = ORIENTED_EDGE( '', *, *, #344, .F. );
#258 = CARTESIAN_POINT( '', ( 0.000000000000000, -27.0000000000000, 0.000000000000000 ) );
#259 = DIRECTION( '', ( 0.000000000000000, -1.00000000000000, -0.000000000000000 ) );
#260 = DIRECTION( '', ( 0.000000000000000, 0.000000000000000, -1.00000000000000 ) );
#261 = SURFACE_STYLE_FILL_AREA( #345 );
#262 = ORIENTED_EDGE( '', *, *, #341, .T. );
#263 = CARTESIAN_POINT( '', ( 89.6999641062505, 184.554869889689, -1.64379128523271E-014 ) );
#264 = DIRECTION( '', ( -0.707106781186548, -0.707106781186548, 8.00039076410196E-017 ) );
#265 = DIRECTION( '', ( 3.31387035877548E-017, 8.00039076410195E-017, 1.00000000000000 ) );
#266 = SURFACE_STYLE_FILL_AREA( #346 );
#267 = ORIENTED_EDGE( '', *, *, #347, .T. );
#268 = ORIENTED_EDGE( '', *, *, #348, .T. );
#269 = CARTESIAN_POINT( '', ( 0.000000000000000, -150.000000000000, 0.000000000000000 ) );
#270 = DIRECTION( '', ( -0.000000000000000, -1.00000000000000, -0.000000000000000 ) );
#271 = DIRECTION( '', ( 0.000000000000000, 0.000000000000000, 1.00000000000000 ) );
#272 = SURFACE_STYLE_FILL_AREA( #349 );
#273 = ORIENTED_EDGE( '', *, *, #350, .T. );
#274 = ORIENTED_EDGE( '', *, *, #351, .F. );
#275 = CARTESIAN_POINT( '', ( 229.000000000000, 0.000000000000000, 0.000000000000000 ) );
#276 = DIRECTION( '', ( 0.000000000000000, 0.000000000000000, 1.00000000000000 ) );
#277 = DIRECTION( '', ( 1.00000000000000, 0.000000000000000, 0.000000000000000 ) );
#278 = SURFACE_STYLE_FILL_AREA( #352 );
#279 = ORIENTED_EDGE( '', *, *, #333, .T. );
#280 = ORIENTED_EDGE( '', *, *, #342, .F. );
#281 = CARTESIAN_POINT( '', ( 173.138564286263, 267.993470069702, -2.58783739539674E-014 ) );
#282 = DIRECTION( '', ( 0.707106781186548, 0.707106781186548, -8.00039076410196E-017 ) );
#283 = DIRECTION( '', ( -3.31387035877548E-017, -8.00039076410195E-017, -1.00000000000000 ) );
#284 = SURFACE_STYLE_FILL_AREA( #353 );
#285 = ORIENTED_EDGE( '', *, *, #350, .F. );
#286 = ORIENTED_EDGE( '', *, *, #336, .T. );
#287 = CARTESIAN_POINT( '', ( 67.0725471082810, 161.927452891720, -1.38777878078145E-014 ) );
#288 = DIRECTION( '', ( 0.707106781186548, 0.707106781186548, -8.00039076410196E-017 ) );
#289 = DIRECTION( '', ( -3.31387035877548E-017, -8.00039076410195E-017, -1.00000000000000 ) );
#290 = SURFACE_STYLE_FILL_AREA( #354 );
#291 = ORIENTED_EDGE( '', *, *, #344, .T. );
#292 = ORIENTED_EDGE( '', *, *, #347, .F. );
#293 = CARTESIAN_POINT( '', ( 0.000000000000000, -27.0000000000000, 0.000000000000000 ) );
#294 = DIRECTION( '', ( 0.000000000000000, 1.00000000000000, 0.000000000000000 ) );
#295 = DIRECTION( '', ( 0.000000000000000, 0.000000000000000, 1.00000000000000 ) );
#296 = SURFACE_STYLE_FILL_AREA( #355 );
#297 = ORIENTED_EDGE( '', *, *, #356, .T. );
#298 = ORIENTED_EDGE( '', *, *, #357, .F. );
#299 = CARTESIAN_POINT( '', ( 0.000000000000000, -32.0000000000000, 0.000000000000000 ) );
#300 = DIRECTION( '', ( -0.000000000000000, 1.00000000000000, -0.000000000000000 ) );
#301 = DIRECTION( '', ( 0.000000000000000, 0.000000000000000, -1.00000000000000 ) );
#302 = SURFACE_STYLE_FILL_AREA( #358 );
#303 = ORIENTED_EDGE( '', *, *, #356, .F. );
#304 = CARTESIAN_POINT( '', ( 0.000000000000000, -32.0000000000000, 0.000000000000000 ) );
#305 = DIRECTION( '', ( 0.000000000000000, 1.00000000000000, 0.000000000000000 ) );
#306 = DIRECTION( '', ( 0.000000000000000, 0.000000000000000, 1.00000000000000 ) );
#307 = SURFACE_STYLE_FILL_AREA( #359 );
#308 = ORIENTED_EDGE( '', *, *, #339, .F. );
#309 = ORIENTED_EDGE( '', *, *, #357, .T. );
#310 = CARTESIAN_POINT( '', ( 0.000000000000000, -150.000000000000, 0.000000000000000 ) );
#311 = DIRECTION( '', ( 0.000000000000000, -1.00000000000000, 0.000000000000000 ) );
#312 = DIRECTION( '', ( 0.000000000000000, 0.000000000000000, -1.00000000000000 ) );
#313 = SURFACE_STYLE_FILL_AREA( #360 );
#314 = ORIENTED_EDGE( '', *, *, #332, .T. );
#315 = ORIENTED_EDGE( '', *, *, #361, .T. );
#316 = CARTESIAN_POINT( '', ( 86.1644302003178, 181.019335983757, -1.60378933141220E-014 ) );
#317 = DIRECTION( '', ( 0.707106781186548, 0.707106781186548, -8.00039076410196E-017 ) );
#318 = DIRECTION( '', ( -3.31387035877548E-017, -8.00039076410195E-017, -1.00000000000000 ) );
#319 = SURFACE_STYLE_FILL_AREA( #362 );
#320 = ORIENTED_EDGE( '', *, *, #361, .F. );
#321 = ORIENTED_EDGE( '', *, *, #335, .T. );
#322 = CARTESIAN_POINT( '', ( 86.1644302003178, 181.019335983757, -1.60378933141220E-014 ) );
#323 = DIRECTION( '', ( -0.707106781186548, -0.707106781186548, 8.00039076410196E-017 ) );
#324 = DIRECTION( '', ( 3.31387035877548E-017, 8.00039076410195E-017, 1.00000000000000 ) );
#325 = SURFACE_STYLE_FILL_AREA( #363 );
#326 = ORIENTED_EDGE( '', *, *, #351, .T. );
#327 = ORIENTED_EDGE( '', *, *, #348, .F. );
#328 = CARTESIAN_POINT( '', ( 0.000000000000000, 0.000000000000000, 0.000000000000000 ) );
#329 = DIRECTION( '', ( 0.000000000000000, -1.00000000000000, 0.000000000000000 ) );
#330 = DIRECTION( '', ( 0.000000000000000, 0.000000000000000, -1.00000000000000 ) );
#331 = FILL_AREA_STYLE( '', ( #364 ) );
#332 = EDGE_CURVE( '', #365, #365, #366, .F. );
#333 = EDGE_CURVE( '', #367, #367, #368, .T. );
#334 = FILL_AREA_STYLE( '', ( #369 ) );
#335 = EDGE_CURVE( '', #370, #370, #371, .T. );
#336 = EDGE_CURVE( '', #372, #372, #373, .T. );
#337 = FILL_AREA_STYLE( '', ( #374 ) );
#338 = EDGE_CURVE( '', #375, #375, #376, .F. );
#339 = EDGE_CURVE( '', #377, #377, #378, .T. );
#340 = FILL_AREA_STYLE( '', ( #379 ) );
#341 = EDGE_CURVE( '', #380, #380, #381, .T. );
#342 = EDGE_CURVE( '', #382, #382, #383, .T. );
#343 = FILL_AREA_STYLE( '', ( #384 ) );
#344 = EDGE_CURVE( '', #385, #385, #386, .T. );
#345 = FILL_AREA_STYLE( '', ( #387 ) );
#346 = FILL_AREA_STYLE( '', ( #388 ) );
#347 = EDGE_CURVE( '', #389, #389, #390, .T. );
#348 = EDGE_CURVE( '', #391, #391, #392, .T. );
#349 = FILL_AREA_STYLE( '', ( #393 ) );
#350 = EDGE_CURVE( '', #394, #394, #395, .F. );
#351 = EDGE_CURVE( '', #396, #396, #397, .T. );
#352 = FILL_AREA_STYLE( '', ( #398 ) );
#353 = FILL_AREA_STYLE( '', ( #399 ) );
#354 = FILL_AREA_STYLE( '', ( #400 ) );
#355 = FILL_AREA_STYLE( '', ( #401 ) );
#356 = EDGE_CURVE( '', #402, #402, #403, .T. );
#357 = EDGE_CURVE( '', #404, #404, #405, .T. );
#358 = FILL_AREA_STYLE( '', ( #406 ) );
#359 = FILL_AREA_STYLE( '', ( #407 ) );
#360 = FILL_AREA_STYLE( '', ( #408 ) );
#361 = EDGE_CURVE( '', #409, #409, #410, .T. );
#362 = FILL_AREA_STYLE( '', ( #411 ) );
#363 = FILL_AREA_STYLE( '', ( #412 ) );
#364 = FILL_AREA_STYLE_COLOUR( '', #413 );
#365 = VERTEX_POINT( '', #414 );
#366 = CIRCLE( '', #415, 87.5000000000000 );
#367 = VERTEX_POINT( '', #416 );
#368 = CIRCLE( '', #417, 87.5000000000000 );
#369 = FILL_AREA_STYLE_COLOUR( '', #418 );
#370 = VERTEX_POINT( '', #419 );
#371 = CIRCLE( '', #420, 85.0000000000000 );
#372 = VERTEX_POINT( '', #421 );
#373 = CIRCLE( '', #422, 85.0000000000000 );
#374 = FILL_AREA_STYLE_COLOUR( '', #423 );
#375 = VERTEX_POINT( '', #424 );
#376 = CIRCLE( '', #425, 87.5000000000000 );
#377 = VERTEX_POINT( '', #426 );
#378 = CIRCLE( '', #427, 87.5000000000000 );
#379 = FILL_AREA_STYLE_COLOUR( '', #428 );
#380 = VERTEX_POINT( '', #429 );
#381 = CIRCLE( '', #430, 84.1500000000000 );
#382 = VERTEX_POINT( '', #431 );
#383 = CIRCLE( '', #432, 84.1500000000000 );
#384 = FILL_AREA_STYLE_COLOUR( '', #433 );
#385 = VERTEX_POINT( '', #434 );
#386 = CIRCLE( '', #435, 85.5000000000000 );
#387 = FILL_AREA_STYLE_COLOUR( '', #436 );
#388 = FILL_AREA_STYLE_COLOUR( '', #437 );
#389 = VERTEX_POINT( '', #438 );
#390 = CIRCLE( '', #439, 85.0000000000000 );
#391 = VERTEX_POINT( '', #440 );
#392 = CIRCLE( '', #441, 85.0000000000000 );
#393 = FILL_AREA_STYLE_COLOUR( '', #442 );
#394 = VERTEX_POINT( '', #443 );
#395 = CIRCLE( '', #444, 84.1500000000000 );
#396 = VERTEX_POINT( '', #445 );
#397 = CIRCLE( '', #446, 84.1500000000000 );
#398 = FILL_AREA_STYLE_COLOUR( '', #447 );
#399 = FILL_AREA_STYLE_COLOUR( '', #448 );
#400 = FILL_AREA_STYLE_COLOUR( '', #449 );
#401 = FILL_AREA_STYLE_COLOUR( '', #450 );
#402 = VERTEX_POINT( '', #451 );
#403 = CIRCLE( '', #452, 84.1500000000000 );
#404 = VERTEX_POINT( '', #453 );
#405 = CIRCLE( '', #454, 84.1500000000000 );
#406 = FILL_AREA_STYLE_COLOUR( '', #455 );
#407 = FILL_AREA_STYLE_COLOUR( '', #456 );
#408 = FILL_AREA_STYLE_COLOUR( '', #457 );
#409 = VERTEX_POINT( '', #458 );
#410 = CIRCLE( '', #459, 85.5000000000000 );
#411 = FILL_AREA_STYLE_COLOUR( '', #460 );
#412 = FILL_AREA_STYLE_COLOUR( '', #461 );
#413 = COLOUR_RGB( '', 0.858823537826538, 0.858823537826538, 0.858823537826538 );
#414 = CARTESIAN_POINT( '', ( 87.5786437626909, 182.433549546130, 87.5000000000000 ) );
#415 = AXIS2_PLACEMENT_3D( '', #462, #463, #464 );
#416 = CARTESIAN_POINT( '', ( 235.010407640086, 206.121626715879, -2.29787373900388E-014 ) );
#417 = AXIS2_PLACEMENT_3D( '', #465, #466, #467 );
#418 = COLOUR_RGB( '', 0.858823537826538, 0.858823537826538, 0.858823537826538 );
#419 = CARTESIAN_POINT( '', ( 86.1644302003178, 181.019335983757, 85.0000000000000 ) );
#420 = AXIS2_PLACEMENT_3D( '', #468, #469, #470 );
#421 = CARTESIAN_POINT( '', ( 127.176623509138, 101.823376490863, -1.10609980028553E-014 ) );
#422 = AXIS2_PLACEMENT_3D( '', #471, #472, #473 );
#423 = COLOUR_RGB( '', 0.858823537826538, 0.858823537826538, 0.858823537826538 );
#424 = CARTESIAN_POINT( '', ( 0.000000000000000, -29.0000000000000, 87.5000000000000 ) );
#425 = AXIS2_PLACEMENT_3D( '', #474, #475, #476 );
#426 = CARTESIAN_POINT( '', ( 87.5000000000000, -150.000000000000, 0.000000000000000 ) );
#427 = AXIS2_PLACEMENT_3D( '', #477, #478, #479 );
#428 = COLOUR_RGB( '', 0.858823537826538, 0.858823537826538, 0.858823537826538 );
#429 = CARTESIAN_POINT( '', ( 149.202999743098, 125.051834252842, -1.36492909454175E-014 ) );
#430 = AXIS2_PLACEMENT_3D( '', #480, #481, #482 );
#431 = CARTESIAN_POINT( '', ( 232.641599923111, 208.490434432854, -2.30897520470578E-014 ) );
#432 = AXIS2_PLACEMENT_3D( '', #483, #484, #485 );
#433 = COLOUR_RGB( '', 0.858823537826538, 0.858823537826538, 0.858823537826538 );
#434 = CARTESIAN_POINT( '', ( 0.000000000000000, -27.0000000000000, 85.5000000000000 ) );
#435 = AXIS2_PLACEMENT_3D( '', #486, #487, #488 );
#436 = COLOUR_RGB( '', 0.858823537826538, 0.858823537826538, 0.858823537826538 );
#437 = COLOUR_RGB( '', 0.858823537826538, 0.858823537826538, 0.858823537826538 );
#438 = CARTESIAN_POINT( '', ( 0.000000000000000, -27.0000000000000, 85.0000000000000 ) );
#439 = AXIS2_PLACEMENT_3D( '', #489, #490, #491 );
#440 = CARTESIAN_POINT( '', ( 85.0000000000000, 0.000000000000000, 0.000000000000000 ) );
#441 = AXIS2_PLACEMENT_3D( '', #492, #493, #494 );
#442 = COLOUR_RGB( '', 0.858823537826538, 0.858823537826538, 0.858823537826538 );
#443 = CARTESIAN_POINT( '', ( 7.56951147143277, 221.430488528568, 0.000000000000000 ) );
#444 = AXIS2_PLACEMENT_3D( '', #495, #496, #497 );
#445 = CARTESIAN_POINT( '', ( 84.1500000000000, 0.000000000000000, 0.000000000000000 ) );
#446 = AXIS2_PLACEMENT_3D( '', #498, #499, #500 );
#447 = COLOUR_RGB( '', 0.858823537826538, 0.858823537826538, 0.858823537826538 );
#448 = COLOUR_RGB( '', 0.858823537826538, 0.858823537826538, 0.858823537826538 );
#449 = COLOUR_RGB( '', 0.858823537826538, 0.858823537826538, 0.858823537826538 );
#450 = COLOUR_RGB( '', 0.858823537826538, 0.858823537826538, 0.858823537826538 );
#451 = CARTESIAN_POINT( '', ( 84.1500000000000, -32.0000000000000, 0.000000000000000 ) );
#452 = AXIS2_PLACEMENT_3D( '', #501, #502, #503 );
#453 = CARTESIAN_POINT( '', ( 84.1500000000000, -150.000000000000, 0.000000000000000 ) );
#454 = AXIS2_PLACEMENT_3D( '', #504, #505, #506 );
#455 = COLOUR_RGB( '', 0.858823537826538, 0.858823537826538, 0.858823537826538 );
#456 = COLOUR_RGB( '', 0.858823537826538, 0.858823537826538, 0.858823537826538 );
#457 = COLOUR_RGB( '', 0.858823537826538, 0.858823537826538, 0.858823537826538 );
#458 = CARTESIAN_POINT( '', ( 86.1644302003178, 181.019335983757, 85.5000000000000 ) );
#459 = AXIS2_PLACEMENT_3D( '', #507, #508, #509 );
#460 = COLOUR_RGB( '', 0.858823537826538, 0.858823537826538, 0.858823537826538 );
#461 = COLOUR_RGB( '', 0.858823537826538, 0.858823537826538, 0.858823537826538 );
#462 = CARTESIAN_POINT( '', ( 87.5786437626909, 182.433549546130, -1.61979011294041E-014 ) );
#463 = DIRECTION( '', ( 0.707106781186548, 0.707106781186548, -8.00039076410195E-017 ) );
#464 = DIRECTION( '', ( 3.31387035877548E-017, 8.00039076410195E-017, 1.00000000000000 ) );
#465 = CARTESIAN_POINT( '', ( 173.138564286263, 267.993470069702, -2.58783739539674E-014 ) );
#466 = DIRECTION( '', ( 0.707106781186548, 0.707106781186547, -8.00039076410195E-017 ) );
#467 = DIRECTION( '', ( 0.707106781186547, -0.707106781186548, 3.31387035877548E-017 ) );
#468 = CARTESIAN_POINT( '', ( 86.1644302003178, 181.019335983757, -1.60378933141220E-014 ) );
#469 = DIRECTION( '', ( 0.707106781186548, 0.707106781186548, -8.00039076410196E-017 ) );
#470 = DIRECTION( '', ( 3.31387035877548E-017, 8.00039076410196E-017, 1.00000000000000 ) );
#471 = CARTESIAN_POINT( '', ( 67.0725471082810, 161.927452891720, -1.38777878078145E-014 ) );
#472 = DIRECTION( '', ( -0.707106781186548, -0.707106781186547, 8.00039076410196E-017 ) );
#473 = DIRECTION( '', ( 0.707106781186547, -0.707106781186547, 3.31387035877548E-017 ) );
#474 = CARTESIAN_POINT( '', ( 0.000000000000000, -29.0000000000000, 0.000000000000000 ) );
#475 = DIRECTION( '', ( 0.000000000000000, 1.00000000000000, 0.000000000000000 ) );
#476 = DIRECTION( '', ( 0.000000000000000, 0.000000000000000, 1.00000000000000 ) );
#477 = CARTESIAN_POINT( '', ( 0.000000000000000, -150.000000000000, 0.000000000000000 ) );
#478 = DIRECTION( '', ( -0.000000000000000, 1.00000000000000, 0.000000000000000 ) );
#479 = DIRECTION( '', ( 1.00000000000000, 0.000000000000000, 0.000000000000000 ) );
#480 = CARTESIAN_POINT( '', ( 89.6999641062505, 184.554869889689, -1.64379128523271E-014 ) );
#481 = DIRECTION( '', ( 0.707106781186548, 0.707106781186547, -8.00039076410196E-017 ) );
#482 = DIRECTION( '', ( 0.707106781186547, -0.707106781186548, 3.31387035877548E-017 ) );
#483 = CARTESIAN_POINT( '', ( 173.138564286263, 267.993470069702, -2.58783739539674E-014 ) );
#484 = DIRECTION( '', ( 0.707106781186548, 0.707106781186547, -8.00039076410196E-017 ) );
#485 = DIRECTION( '', ( 0.707106781186547, -0.707106781186548, 3.31387035877548E-017 ) );
#486 = CARTESIAN_POINT( '', ( 0.000000000000000, -27.0000000000000, 0.000000000000000 ) );
#487 = DIRECTION( '', ( 0.000000000000000, 1.00000000000000, 0.000000000000000 ) );
#488 = DIRECTION( '', ( 0.000000000000000, 0.000000000000000, 1.00000000000000 ) );
#489 = CARTESIAN_POINT( '', ( 0.000000000000000, -27.0000000000000, 0.000000000000000 ) );
#490 = DIRECTION( '', ( 0.000000000000000, 1.00000000000000, 0.000000000000000 ) );
#491 = DIRECTION( '', ( 0.000000000000000, 0.000000000000000, 1.00000000000000 ) );
#492 = CARTESIAN_POINT( '', ( 0.000000000000000, 0.000000000000000, 0.000000000000000 ) );
#493 = DIRECTION( '', ( 0.000000000000000, -1.00000000000000, 0.000000000000000 ) );
#494 = DIRECTION( '', ( 1.00000000000000, 0.000000000000000, 0.000000000000000 ) );
#495 = CARTESIAN_POINT( '', ( 67.0725471082807, 161.927452891720, 0.000000000000000 ) );
#496 = DIRECTION( '', ( 0.707106781186548, 0.707106781186547, -8.00039076410195E-017 ) );
#497 = DIRECTION( '', ( -0.707106781186547, 0.707106781186548, 5.32933081938267E-032 ) );
#498 = CARTESIAN_POINT( '', ( 0.000000000000000, 0.000000000000000, 0.000000000000000 ) );
#499 = DIRECTION( '', ( 0.000000000000000, -1.00000000000000, 0.000000000000000 ) );
#500 = DIRECTION( '', ( 1.00000000000000, 0.000000000000000, 0.000000000000000 ) );
#501 = CARTESIAN_POINT( '', ( 0.000000000000000, -32.0000000000000, 0.000000000000000 ) );
#502 = DIRECTION( '', ( -0.000000000000000, 1.00000000000000, 0.000000000000000 ) );
#503 = DIRECTION( '', ( 1.00000000000000, 0.000000000000000, 0.000000000000000 ) );
#504 = CARTESIAN_POINT( '', ( 0.000000000000000, -150.000000000000, 0.000000000000000 ) );
#505 = DIRECTION( '', ( -0.000000000000000, 1.00000000000000, 0.000000000000000 ) );
#506 = DIRECTION( '', ( 1.00000000000000, 0.000000000000000, 0.000000000000000 ) );
#507 = CARTESIAN_POINT( '', ( 86.1644302003178, 181.019335983757, -1.60378933141220E-014 ) );
#508 = DIRECTION( '', ( 0.707106781186548, 0.707106781186548, -8.00039076410196E-017 ) );
#509 = DIRECTION( '', ( 3.31387035877548E-017, 8.00039076410195E-017, 1.00000000000000 ) );
ENDSEC;
END-ISO-10303-21;
