ISO-10303-21;
HEADER;
/* Generated by software containing ST-Developer
 * from STEP Tools, Inc. (www.steptools.com) 
 */
/* OPTION: strings as raw bytes, not using required /X/ escapes */

FILE_DESCRIPTION(
/* description */ ('Unknown'),
/* implementation_level */ '2;1');

FILE_NAME(
/* name */ 'F4DN108',
/* time_stamp */ '2019-10-28T10:36:05+01:00',
/* author */ ('Unknown'),
/* organization */ ('Unknown'),
/* preprocessor_version */ 'ST-DEVELOPER v16.7',
/* originating_system */ 'DEX',
/* authorisation */ $);

FILE_SCHEMA (('AUTOMOTIVE_DESIGN {1 0 10303 214 3 1 1}'));
ENDSEC;

DATA;
#10=PROPERTY_DEFINITION_REPRESENTATION(#14,#12);
#11=PROPERTY_DEFINITION_REPRESENTATION(#15,#13);
#12=REPRESENTATION('',(#16),#223);
#13=REPRESENTATION('',(#17),#223);
#14=PROPERTY_DEFINITION('pmi validation property','',#228);
#15=PROPERTY_DEFINITION('pmi validation property','',#228);
#16=VALUE_REPRESENTATION_ITEM('number of annotations',COUNT_MEASURE(0.));
#17=VALUE_REPRESENTATION_ITEM('number of views',COUNT_MEASURE(0.));
#18=SHAPE_REPRESENTATION_RELATIONSHIP('','',#132,#19);
#19=ADVANCED_BREP_SHAPE_REPRESENTATION('',(#130),#223);
#20=TOROIDAL_SURFACE('',#148,130.,55.);
#21=CONICAL_SURFACE('',#142,55.5,0.785398163397448);
#22=CYLINDRICAL_SURFACE('',#136,54.);
#23=CYLINDRICAL_SURFACE('',#140,57.);
#24=CYLINDRICAL_SURFACE('',#146,55.);
#25=CYLINDRICAL_SURFACE('',#150,55.);
#26=ORIENTED_EDGE('',*,*,#44,.T.);
#27=ORIENTED_EDGE('',*,*,#44,.F.);
#28=ORIENTED_EDGE('',*,*,#45,.T.);
#29=ORIENTED_EDGE('',*,*,#46,.T.);
#30=ORIENTED_EDGE('',*,*,#45,.F.);
#31=ORIENTED_EDGE('',*,*,#47,.F.);
#32=ORIENTED_EDGE('',*,*,#46,.F.);
#33=ORIENTED_EDGE('',*,*,#47,.T.);
#34=ORIENTED_EDGE('',*,*,#48,.T.);
#35=ORIENTED_EDGE('',*,*,#48,.F.);
#36=ORIENTED_EDGE('',*,*,#49,.F.);
#37=ORIENTED_EDGE('',*,*,#49,.T.);
#38=ORIENTED_EDGE('',*,*,#50,.T.);
#39=ORIENTED_EDGE('',*,*,#51,.T.);
#40=ORIENTED_EDGE('',*,*,#50,.F.);
#41=ORIENTED_EDGE('',*,*,#52,.T.);
#42=ORIENTED_EDGE('',*,*,#51,.F.);
#43=ORIENTED_EDGE('',*,*,#52,.F.);
#44=EDGE_CURVE('',#53,#53,#62,.T.);
#45=EDGE_CURVE('',#54,#54,#63,.T.);
#46=EDGE_CURVE('',#55,#55,#64,.T.);
#47=EDGE_CURVE('',#56,#56,#65,.F.);
#48=EDGE_CURVE('',#57,#57,#66,.T.);
#49=EDGE_CURVE('',#58,#58,#67,.F.);
#50=EDGE_CURVE('',#59,#59,#68,.T.);
#51=EDGE_CURVE('',#60,#60,#69,.T.);
#52=EDGE_CURVE('',#61,#61,#70,.T.);
#53=VERTEX_POINT('',#196);
#54=VERTEX_POINT('',#199);
#55=VERTEX_POINT('',#202);
#56=VERTEX_POINT('',#205);
#57=VERTEX_POINT('',#208);
#58=VERTEX_POINT('',#211);
#59=VERTEX_POINT('',#214);
#60=VERTEX_POINT('',#217);
#61=VERTEX_POINT('',#220);
#62=CIRCLE('',#135,54.);
#63=CIRCLE('',#137,54.);
#64=CIRCLE('',#139,57.);
#65=CIRCLE('',#141,57.);
#66=CIRCLE('',#143,55.5);
#67=CIRCLE('',#145,55.);
#68=CIRCLE('',#147,55.);
#69=CIRCLE('',#149,55.);
#70=CIRCLE('',#151,55.);
#71=EDGE_LOOP('',(#26));
#72=EDGE_LOOP('',(#27));
#73=EDGE_LOOP('',(#28));
#74=EDGE_LOOP('',(#29));
#75=EDGE_LOOP('',(#30));
#76=EDGE_LOOP('',(#31));
#77=EDGE_LOOP('',(#32));
#78=EDGE_LOOP('',(#33));
#79=EDGE_LOOP('',(#34));
#80=EDGE_LOOP('',(#35));
#81=EDGE_LOOP('',(#36));
#82=EDGE_LOOP('',(#37));
#83=EDGE_LOOP('',(#38));
#84=EDGE_LOOP('',(#39));
#85=EDGE_LOOP('',(#40));
#86=EDGE_LOOP('',(#41));
#87=EDGE_LOOP('',(#42));
#88=EDGE_LOOP('',(#43));
#89=FACE_BOUND('',#71,.T.);
#90=FACE_BOUND('',#72,.T.);
#91=FACE_BOUND('',#73,.T.);
#92=FACE_BOUND('',#74,.T.);
#93=FACE_BOUND('',#75,.T.);
#94=FACE_BOUND('',#76,.T.);
#95=FACE_BOUND('',#77,.T.);
#96=FACE_BOUND('',#78,.T.);
#97=FACE_BOUND('',#79,.T.);
#98=FACE_BOUND('',#80,.T.);
#99=FACE_BOUND('',#81,.T.);
#100=FACE_BOUND('',#82,.T.);
#101=FACE_BOUND('',#83,.T.);
#102=FACE_BOUND('',#84,.T.);
#103=FACE_BOUND('',#85,.T.);
#104=FACE_BOUND('',#86,.T.);
#105=FACE_BOUND('',#87,.T.);
#106=FACE_BOUND('',#88,.T.);
#107=PLANE('',#134);
#108=PLANE('',#138);
#109=PLANE('',#144);
#110=PLANE('',#152);
#111=ADVANCED_FACE('',(#89),#107,.F.);
#112=ADVANCED_FACE('',(#90,#91),#22,.F.);
#113=ADVANCED_FACE('',(#92,#93),#108,.F.);
#114=ADVANCED_FACE('',(#94,#95),#23,.T.);
#115=ADVANCED_FACE('',(#96,#97),#21,.T.);
#116=ADVANCED_FACE('',(#98,#99),#109,.T.);
#117=ADVANCED_FACE('',(#100,#101),#24,.T.);
#118=ADVANCED_FACE('',(#102,#103),#20,.T.);
#119=ADVANCED_FACE('',(#104,#105),#25,.T.);
#120=ADVANCED_FACE('',(#106),#110,.F.);
#121=CLOSED_SHELL('',(#111,#112,#113,#114,#115,#116,#117,#118,#119,#120));
#122=STYLED_ITEM('',(#123),#130);
#123=PRESENTATION_STYLE_ASSIGNMENT((#124));
#124=SURFACE_STYLE_USAGE(.BOTH.,#125);
#125=SURFACE_SIDE_STYLE('',(#126));
#126=SURFACE_STYLE_FILL_AREA(#127);
#127=FILL_AREA_STYLE('',(#128));
#128=FILL_AREA_STYLE_COLOUR('',#129);
#129=COLOUR_RGB('',0.699999988079071,0.670680642127991,0.670680642127991);
#130=MANIFOLD_SOLID_BREP('',#121);
#131=SHAPE_DEFINITION_REPRESENTATION(#228,#132);
#132=SHAPE_REPRESENTATION('F4DN108',(#133),#223);
#133=AXIS2_PLACEMENT_3D('',#193,#153,#154);
#134=AXIS2_PLACEMENT_3D('',#194,#155,#156);
#135=AXIS2_PLACEMENT_3D('',#195,#157,#158);
#136=AXIS2_PLACEMENT_3D('',#197,#159,#160);
#137=AXIS2_PLACEMENT_3D('',#198,#161,#162);
#138=AXIS2_PLACEMENT_3D('',#200,#163,#164);
#139=AXIS2_PLACEMENT_3D('',#201,#165,#166);
#140=AXIS2_PLACEMENT_3D('',#203,#167,#168);
#141=AXIS2_PLACEMENT_3D('',#204,#169,#170);
#142=AXIS2_PLACEMENT_3D('',#206,#171,#172);
#143=AXIS2_PLACEMENT_3D('',#207,#173,#174);
#144=AXIS2_PLACEMENT_3D('',#209,#175,#176);
#145=AXIS2_PLACEMENT_3D('',#210,#177,#178);
#146=AXIS2_PLACEMENT_3D('',#212,#179,#180);
#147=AXIS2_PLACEMENT_3D('',#213,#181,#182);
#148=AXIS2_PLACEMENT_3D('',#215,#183,#184);
#149=AXIS2_PLACEMENT_3D('',#216,#185,#186);
#150=AXIS2_PLACEMENT_3D('',#218,#187,#188);
#151=AXIS2_PLACEMENT_3D('',#219,#189,#190);
#152=AXIS2_PLACEMENT_3D('',#221,#191,#192);
#153=DIRECTION('',(0.,0.,1.));
#154=DIRECTION('',(1.,0.,0.));
#155=DIRECTION('',(-4.44089209850063E-16,1.,1.21768522846838E-31));
#156=DIRECTION('',(-1.21768522846838E-31,-1.21768522846838E-31,1.));
#157=DIRECTION('',(4.44089209850063E-16,-1.,-1.21768522846838E-31));
#158=DIRECTION('',(-1.,-6.66133814775094E-16,-1.21768522846838E-31));
#159=DIRECTION('',(1.8709313933498E-16,-1.,-1.21768522846838E-31));
#160=DIRECTION('',(-1.,-4.09137744260011E-16,-1.21768522846838E-31));
#161=DIRECTION('',(4.44089209850063E-16,-1.,-1.21768522846838E-31));
#162=DIRECTION('',(-1.,-6.66133814775094E-16,-1.21768522846838E-31));
#163=DIRECTION('',(-1.8709313933498E-16,1.,1.21768522846838E-31));
#164=DIRECTION('',(1.,4.09137744260011E-16,1.21768522846838E-31));
#165=DIRECTION('',(4.44089209850063E-16,-1.,-1.21768522846838E-31));
#166=DIRECTION('',(-1.,-6.66133814775094E-16,-1.21768522846838E-31));
#167=DIRECTION('',(1.8709313933498E-16,-1.,-1.21768522846838E-31));
#168=DIRECTION('',(-1.,-4.09137744260011E-16,-1.21768522846838E-31));
#169=DIRECTION('',(4.44089209850063E-16,-1.,-1.21768522846838E-31));
#170=DIRECTION('',(-1.21768522846838E-31,-1.21768522846838E-31,1.));
#171=DIRECTION('',(4.44089209850063E-16,-1.,-1.21768522846838E-31));
#172=DIRECTION('',(1.21768522846838E-31,1.21768522846838E-31,-1.));
#173=DIRECTION('',(4.44089209850063E-16,-1.,-1.21768522846838E-31));
#174=DIRECTION('',(-1.21768522846838E-31,-1.21768522846838E-31,1.));
#175=DIRECTION('',(-4.44089209850063E-16,1.,1.21768522846838E-31));
#176=DIRECTION('',(-1.21768522846838E-31,-1.21768522846838E-31,1.));
#177=DIRECTION('',(4.44089209850063E-16,-1.,-1.21768522846838E-31));
#178=DIRECTION('',(-1.21768522846838E-31,-1.21768522846838E-31,1.));
#179=DIRECTION('',(-3.82856869892695E-16,1.,1.21768522846838E-31));
#180=DIRECTION('',(1.,6.04901474817726E-16,1.21768522846838E-31));
#181=DIRECTION('',(1.8709313933498E-16,-1.,-1.21768522846838E-31));
#182=DIRECTION('',(1.,1.8709313933498E-16,0.));
#183=DIRECTION('',(0.,0.,1.));
#184=DIRECTION('',(1.,0.,0.));
#185=DIRECTION('',(-1.,-2.48325479292348E-16,-1.21768522846838E-31));
#186=DIRECTION('',(2.48325479292348E-16,-1.,0.));
#187=DIRECTION('',(-1.,-2.48325479292348E-16,-1.21768522846838E-31));
#188=DIRECTION('',(2.48325479292348E-16,-1.,0.));
#189=DIRECTION('',(-1.,-2.48325479292348E-16,-1.21768522846838E-31));
#190=DIRECTION('',(2.48325479292348E-16,-1.,0.));
#191=DIRECTION('',(-1.,-2.48325479292348E-16,-1.21768522846838E-31));
#192=DIRECTION('',(2.48325479292348E-16,-1.,0.));
#193=CARTESIAN_POINT('',(0.,0.,0.));
#194=CARTESIAN_POINT('',(-4.16333634234434E-14,-9.00000000000008,-2.73979176405386E-29));
#195=CARTESIAN_POINT('',(-4.16333634234434E-14,-9.00000000000008,-2.73979176405386E-29));
#196=CARTESIAN_POINT('',(-54.,-9.00000000000011,-3.39734178742678E-29));
#197=CARTESIAN_POINT('',(-4.16333634234434E-14,-9.00000000000008,-2.73979176405386E-29));
#198=CARTESIAN_POINT('',(-2.77555756156289E-14,-78.0000000000001,-3.57999457169704E-29));
#199=CARTESIAN_POINT('',(-54.,-78.0000000000001,-4.23754459506996E-29));
#200=CARTESIAN_POINT('',(-2.77555756156289E-14,-78.0000000000001,-3.57999457169704E-29));
#201=CARTESIAN_POINT('',(-2.77555756156289E-14,-78.0000000000001,-3.57999457169704E-29));
#202=CARTESIAN_POINT('',(-57.,-78.0000000000001,-4.27407515192402E-29));
#203=CARTESIAN_POINT('',(-4.16333634234434E-14,-7.00000000000008,-2.71543805948449E-29));
#204=CARTESIAN_POINT('',(-4.16333634234434E-14,-8.50000000000008,-2.73370333791151E-29));
#205=CARTESIAN_POINT('',(-4.16333634234434E-14,-8.50000000000008,57.));
#206=CARTESIAN_POINT('',(-4.16333634234434E-14,-7.00000000000008,-2.71543805948449E-29));
#207=CARTESIAN_POINT('',(-4.16333634234434E-14,-7.00000000000008,-2.71543805948449E-29));
#208=CARTESIAN_POINT('',(-4.16333634234434E-14,-7.00000000000008,55.5));
#209=CARTESIAN_POINT('',(-4.16333634234434E-14,-7.00000000000008,-2.71543805948449E-29));
#210=CARTESIAN_POINT('',(-5.55111512312578E-14,-7.00000000000008,-2.71543805948449E-29));
#211=CARTESIAN_POINT('',(-5.55111512312578E-14,-7.00000000000008,55.));
#212=CARTESIAN_POINT('',(-2.77555756156289E-14,-78.0000000000001,-3.57999457169704E-29));
#213=CARTESIAN_POINT('',(-6.93889390390723E-14,-8.32667268468867E-14,-2.6302000934917E-29));
#214=CARTESIAN_POINT('',(54.9999999999999,-7.29766041834628E-14,-2.6302000934917E-29));
#215=CARTESIAN_POINT('',(130.,0.,-2.6302000934917E-29));
#216=CARTESIAN_POINT('',(130.,130.,-2.6302000934917E-29));
#217=CARTESIAN_POINT('',(130.,75.0000000000001,-2.6302000934917E-29));
#218=CARTESIAN_POINT('',(240.,130.,-1.29074634217648E-29));
#219=CARTESIAN_POINT('',(236.,130.,-1.29074634217648E-29));
#220=CARTESIAN_POINT('',(236.,75.0000000000001,-1.29074634217648E-29));
#221=CARTESIAN_POINT('',(236.,130.,-1.29074634217648E-29));
#222=MECHANICAL_DESIGN_GEOMETRIC_PRESENTATION_REPRESENTATION('',(#122),
#223);
#223=(
GEOMETRIC_REPRESENTATION_CONTEXT(3)
GLOBAL_UNCERTAINTY_ASSIGNED_CONTEXT((#224))
GLOBAL_UNIT_ASSIGNED_CONTEXT((#227,#226,#225))
REPRESENTATION_CONTEXT('F4DN108','TOP_LEVEL_ASSEMBLY_PART')
);
#224=UNCERTAINTY_MEASURE_WITH_UNIT(LENGTH_MEASURE(0.005),#227,
'DISTANCE_ACCURACY_VALUE','Maximum Tolerance applied to model');
#225=(
NAMED_UNIT(*)
SI_UNIT($,.STERADIAN.)
SOLID_ANGLE_UNIT()
);
#226=(
NAMED_UNIT(*)
PLANE_ANGLE_UNIT()
SI_UNIT($,.RADIAN.)
);
#227=(
LENGTH_UNIT()
NAMED_UNIT(*)
SI_UNIT(.MILLI.,.METRE.)
);
#228=PRODUCT_DEFINITION_SHAPE('','',#229);
#229=PRODUCT_DEFINITION('','',#231,#230);
#230=PRODUCT_DEFINITION_CONTEXT('',#237,'design');
#231=PRODUCT_DEFINITION_FORMATION_WITH_SPECIFIED_SOURCE('','',#233,
 .NOT_KNOWN.);
#232=PRODUCT_RELATED_PRODUCT_CATEGORY('','',(#233));
#233=PRODUCT('F4DN108','F4DN108','F4DN108',(#235));
#234=PRODUCT_CATEGORY('','');
#235=PRODUCT_CONTEXT('',#237,'mechanical');
#236=APPLICATION_PROTOCOL_DEFINITION('international standard',
'automotive_design',2010,#237);
#237=APPLICATION_CONTEXT(
'core data for automotive mechanical design processes');
ENDSEC;
END-ISO-10303-21;
