ISO-10303-21;
HEADER;
FILE_DESCRIPTION( ( 'Unknown' ), '1' );
FILE_NAME( '//Server/ofimatica/alfredo/Alfredo2/ISOTUBI/PZAS3D/FICHATECNICA/NUMEPRESS/generico 3D/F4DN114,3.stp', 'Unknown', ( 'Unknown' ), ( 'Unknown' ), 'PSStep 14.0', 'Unknown', '  ' );
FILE_SCHEMA( ( 'AUTOMOTIVE_DESIGN { 1 0 10303 214 1 1 1 1 }' ) );
ENDSEC;
DATA;
#1 = MECHANICAL_DESIGN_GEOMETRIC_PRESENTATION_REPRESENTATION( ' ', ( #10, #11, #12, #13, #14, #15, #16, #17, #18, #19, #20 ), #6 );
#2 = PRODUCT_DEFINITION_CONTEXT( '', #21, 'design' );
#3 = APPLICATION_PROTOCOL_DEFINITION( 'international standard', 'automotive_design', 2001, #21 );
#4 = PRODUCT_CATEGORY_RELATIONSHIP( 'NONE', 'NONE', #22, #23 );
#5 = SHAPE_DEFINITION_REPRESENTATION( #24, #25 );
#6 =  ( GEOMETRIC_REPRESENTATION_CONTEXT( 3 )GLOBAL_UNCERTAINTY_ASSIGNED_CONTEXT( ( #28 ) )GLOBAL_UNIT_ASSIGNED_CONTEXT( ( #30, #31, #32 ) )REPRESENTATION_CONTEXT( 'NONE', 'WORKSPACE' ) );
#10 = STYLED_ITEM( '', ( #34 ), #35 );
#11 = STYLED_ITEM( '', ( #36 ), #37 );
#12 = STYLED_ITEM( '', ( #38 ), #39 );
#13 = STYLED_ITEM( '', ( #40 ), #41 );
#14 = STYLED_ITEM( '', ( #42 ), #43 );
#15 = STYLED_ITEM( '', ( #44 ), #45 );
#16 = STYLED_ITEM( '', ( #46 ), #47 );
#17 = STYLED_ITEM( '', ( #48 ), #49 );
#18 = STYLED_ITEM( '', ( #50 ), #51 );
#19 = STYLED_ITEM( '', ( #52 ), #53 );
#20 = STYLED_ITEM( '', ( #54 ), #55 );
#21 = APPLICATION_CONTEXT( 'core data for automotive mechanical design processes' );
#22 = PRODUCT_CATEGORY( 'part', 'NONE' );
#23 = PRODUCT_RELATED_PRODUCT_CATEGORY( 'detail', ' ', ( #56 ) );
#24 = PRODUCT_DEFINITION_SHAPE( 'NONE', 'NONE', #57 );
#25 = ADVANCED_BREP_SHAPE_REPRESENTATION( '1', ( #58, #59 ), #6 );
#28 = UNCERTAINTY_MEASURE_WITH_UNIT( LENGTH_MEASURE( 0.00100000000000000 ), #30, '', '' );
#30 =  ( CONVERSION_BASED_UNIT( 'MILLIMETRE', #62 )LENGTH_UNIT(  )NAMED_UNIT( #65 ) );
#31 =  ( NAMED_UNIT( #67 )PLANE_ANGLE_UNIT(  )SI_UNIT( $, .RADIAN. ) );
#32 =  ( NAMED_UNIT( #67 )SI_UNIT( $, .STERADIAN. )SOLID_ANGLE_UNIT(  ) );
#34 = PRESENTATION_STYLE_ASSIGNMENT( ( #73 ) );
#35 = ADVANCED_FACE( '', ( #74, #75 ), #76, .T. );
#36 = PRESENTATION_STYLE_ASSIGNMENT( ( #77 ) );
#37 = ADVANCED_FACE( '', ( #78 ), #79, .F. );
#38 = PRESENTATION_STYLE_ASSIGNMENT( ( #80 ) );
#39 = ADVANCED_FACE( '', ( #81, #82 ), #83, .T. );
#40 = PRESENTATION_STYLE_ASSIGNMENT( ( #84 ) );
#41 = ADVANCED_FACE( '', ( #85 ), #86, .T. );
#42 = PRESENTATION_STYLE_ASSIGNMENT( ( #87 ) );
#43 = ADVANCED_FACE( '', ( #88, #89 ), #90, .T. );
#44 = PRESENTATION_STYLE_ASSIGNMENT( ( #91 ) );
#45 = ADVANCED_FACE( '', ( #92, #93 ), #94, .T. );
#46 = PRESENTATION_STYLE_ASSIGNMENT( ( #95 ) );
#47 = ADVANCED_FACE( '', ( #96, #97 ), #98, .F. );
#48 = PRESENTATION_STYLE_ASSIGNMENT( ( #99 ) );
#49 = ADVANCED_FACE( '', ( #100, #101 ), #102, .T. );
#50 = PRESENTATION_STYLE_ASSIGNMENT( ( #103 ) );
#51 = ADVANCED_FACE( '', ( #104, #105 ), #106, .T. );
#52 = PRESENTATION_STYLE_ASSIGNMENT( ( #107 ) );
#53 = ADVANCED_FACE( '', ( #108, #109 ), #110, .T. );
#54 = PRESENTATION_STYLE_ASSIGNMENT( ( #111 ) );
#55 = ADVANCED_FACE( '', ( #112, #113 ), #114, .F. );
#56 = PRODUCT( '1', '1', 'PART-1-DESC', ( #115 ) );
#57 = PRODUCT_DEFINITION( 'NONE', 'NONE', #116, #2 );
#58 = MANIFOLD_SOLID_BREP( '1', #117 );
#59 = AXIS2_PLACEMENT_3D( '', #118, #119, #120 );
#62 = LENGTH_MEASURE_WITH_UNIT( LENGTH_MEASURE( 1.00000000000000 ), #121 );
#65 = DIMENSIONAL_EXPONENTS( 1.00000000000000, 0.000000000000000, 0.000000000000000, 0.000000000000000, 0.000000000000000, 0.000000000000000, 0.000000000000000 );
#67 = DIMENSIONAL_EXPONENTS( 0.000000000000000, 0.000000000000000, 0.000000000000000, 0.000000000000000, 0.000000000000000, 0.000000000000000, 0.000000000000000 );
#73 = SURFACE_STYLE_USAGE( .BOTH., #122 );
#74 = FACE_OUTER_BOUND( '', #123, .T. );
#75 = FACE_OUTER_BOUND( '', #124, .T. );
#76 = CYLINDRICAL_SURFACE( '', #125, 57.5000000000000 );
#77 = SURFACE_STYLE_USAGE( .BOTH., #126 );
#78 = FACE_OUTER_BOUND( '', #127, .T. );
#79 = PLANE( '', #128 );
#80 = SURFACE_STYLE_USAGE( .BOTH., #129 );
#81 = FACE_OUTER_BOUND( '', #130, .T. );
#82 = FACE_BOUND( '', #131, .T. );
#83 = PLANE( '', #132 );
#84 = SURFACE_STYLE_USAGE( .BOTH., #133 );
#85 = FACE_OUTER_BOUND( '', #134, .T. );
#86 = PLANE( '', #135 );
#87 = SURFACE_STYLE_USAGE( .BOTH., #136 );
#88 = FACE_OUTER_BOUND( '', #137, .T. );
#89 = FACE_OUTER_BOUND( '', #138, .T. );
#90 = TOROIDAL_SURFACE( '', #139, 153.000000000000, 57.1500000000000 );
#91 = SURFACE_STYLE_USAGE( .BOTH., #140 );
#92 = FACE_OUTER_BOUND( '', #141, .T. );
#93 = FACE_BOUND( '', #142, .T. );
#94 = PLANE( '', #143 );
#95 = SURFACE_STYLE_USAGE( .BOTH., #144 );
#96 = FACE_OUTER_BOUND( '', #145, .T. );
#97 = FACE_BOUND( '', #146, .T. );
#98 = PLANE( '', #147 );
#99 = SURFACE_STYLE_USAGE( .BOTH., #148 );
#100 = FACE_OUTER_BOUND( '', #149, .T. );
#101 = FACE_OUTER_BOUND( '', #150, .T. );
#102 = CYLINDRICAL_SURFACE( '', #151, 60.0000000000000 );
#103 = SURFACE_STYLE_USAGE( .BOTH., #152 );
#104 = FACE_OUTER_BOUND( '', #153, .T. );
#105 = FACE_BOUND( '', #154, .T. );
#106 = CONICAL_SURFACE( '', #155, 58.0000000000000, 0.785398163397448 );
#107 = SURFACE_STYLE_USAGE( .BOTH., #156 );
#108 = FACE_OUTER_BOUND( '', #157, .T. );
#109 = FACE_OUTER_BOUND( '', #158, .T. );
#110 = CYLINDRICAL_SURFACE( '', #159, 57.1500000000000 );
#111 = SURFACE_STYLE_USAGE( .BOTH., #160 );
#112 = FACE_OUTER_BOUND( '', #161, .T. );
#113 = FACE_OUTER_BOUND( '', #162, .T. );
#114 = CYLINDRICAL_SURFACE( '', #163, 57.1500000000000 );
#115 = PRODUCT_CONTEXT( '', #21, 'mechanical' );
#116 = PRODUCT_DEFINITION_FORMATION_WITH_SPECIFIED_SOURCE( ' ', 'NONE', #56, .NOT_KNOWN. );
#117 = CLOSED_SHELL( '', ( #47, #51, #41, #53, #37, #43, #45, #35, #49, #39, #55 ) );
#118 = CARTESIAN_POINT( '', ( 0.000000000000000, 0.000000000000000, 0.000000000000000 ) );
#119 = DIRECTION( '', ( 0.000000000000000, 0.000000000000000, 1.00000000000000 ) );
#120 = DIRECTION( '', ( 1.00000000000000, 0.000000000000000, 0.000000000000000 ) );
#121 =  ( LENGTH_UNIT(  )NAMED_UNIT( #65 )SI_UNIT( .MILLI., .METRE. ) );
#122 = SURFACE_SIDE_STYLE( '', ( #165 ) );
#123 = EDGE_LOOP( '', ( #166 ) );
#124 = EDGE_LOOP( '', ( #167 ) );
#125 = AXIS2_PLACEMENT_3D( '', #168, #169, #170 );
#126 = SURFACE_SIDE_STYLE( '', ( #171 ) );
#127 = EDGE_LOOP( '', ( #172 ) );
#128 = AXIS2_PLACEMENT_3D( '', #173, #174, #175 );
#129 = SURFACE_SIDE_STYLE( '', ( #176 ) );
#130 = EDGE_LOOP( '', ( #177 ) );
#131 = EDGE_LOOP( '', ( #178 ) );
#132 = AXIS2_PLACEMENT_3D( '', #179, #180, #181 );
#133 = SURFACE_SIDE_STYLE( '', ( #182 ) );
#134 = EDGE_LOOP( '', ( #183 ) );
#135 = AXIS2_PLACEMENT_3D( '', #184, #185, #186 );
#136 = SURFACE_SIDE_STYLE( '', ( #187 ) );
#137 = EDGE_LOOP( '', ( #188 ) );
#138 = EDGE_LOOP( '', ( #189 ) );
#139 = AXIS2_PLACEMENT_3D( '', #190, #191, #192 );
#140 = SURFACE_SIDE_STYLE( '', ( #193 ) );
#141 = EDGE_LOOP( '', ( #194 ) );
#142 = EDGE_LOOP( '', ( #195 ) );
#143 = AXIS2_PLACEMENT_3D( '', #196, #197, #198 );
#144 = SURFACE_SIDE_STYLE( '', ( #199 ) );
#145 = EDGE_LOOP( '', ( #200 ) );
#146 = EDGE_LOOP( '', ( #201 ) );
#147 = AXIS2_PLACEMENT_3D( '', #202, #203, #204 );
#148 = SURFACE_SIDE_STYLE( '', ( #205 ) );
#149 = EDGE_LOOP( '', ( #206 ) );
#150 = EDGE_LOOP( '', ( #207 ) );
#151 = AXIS2_PLACEMENT_3D( '', #208, #209, #210 );
#152 = SURFACE_SIDE_STYLE( '', ( #211 ) );
#153 = EDGE_LOOP( '', ( #212 ) );
#154 = EDGE_LOOP( '', ( #213 ) );
#155 = AXIS2_PLACEMENT_3D( '', #214, #215, #216 );
#156 = SURFACE_SIDE_STYLE( '', ( #217 ) );
#157 = EDGE_LOOP( '', ( #218 ) );
#158 = EDGE_LOOP( '', ( #219 ) );
#159 = AXIS2_PLACEMENT_3D( '', #220, #221, #222 );
#160 = SURFACE_SIDE_STYLE( '', ( #223 ) );
#161 = EDGE_LOOP( '', ( #224 ) );
#162 = EDGE_LOOP( '', ( #225 ) );
#163 = AXIS2_PLACEMENT_3D( '', #226, #227, #228 );
#165 = SURFACE_STYLE_FILL_AREA( #229 );
#166 = ORIENTED_EDGE( '', *, *, #230, .F. );
#167 = ORIENTED_EDGE( '', *, *, #231, .F. );
#168 = CARTESIAN_POINT( '', ( 0.000000000000000, -95.0000000000000, 0.000000000000000 ) );
#169 = DIRECTION( '', ( -0.000000000000000, -1.00000000000000, -0.000000000000000 ) );
#170 = DIRECTION( '', ( 0.000000000000000, 0.000000000000000, 1.00000000000000 ) );
#171 = SURFACE_STYLE_FILL_AREA( #232 );
#172 = ORIENTED_EDGE( '', *, *, #233, .F. );
#173 = CARTESIAN_POINT( '', ( 0.000000000000000, -24.0000000000000, 0.000000000000000 ) );
#174 = DIRECTION( '', ( 0.000000000000000, 1.00000000000000, 0.000000000000000 ) );
#175 = DIRECTION( '', ( 0.000000000000000, 0.000000000000000, 1.00000000000000 ) );
#176 = SURFACE_STYLE_FILL_AREA( #234 );
#177 = ORIENTED_EDGE( '', *, *, #235, .T. );
#178 = ORIENTED_EDGE( '', *, *, #230, .T. );
#179 = CARTESIAN_POINT( '', ( 0.000000000000000, -20.0000000000000, 0.000000000000000 ) );
#180 = DIRECTION( '', ( 0.000000000000000, 1.00000000000000, 0.000000000000000 ) );
#181 = DIRECTION( '', ( 0.000000000000000, 0.000000000000000, 1.00000000000000 ) );
#182 = SURFACE_STYLE_FILL_AREA( #236 );
#183 = ORIENTED_EDGE( '', *, *, #237, .T. );
#184 = CARTESIAN_POINT( '', ( 253.000000000000, 153.000000000000, 4.76943924099421E-014 ) );
#185 = DIRECTION( '', ( 1.00000000000000, 6.12323399573677E-017, 1.99388167943131E-016 ) );
#186 = DIRECTION( '', ( 1.99388167943131E-016, 0.000000000000000, -1.00000000000000 ) );
#187 = SURFACE_STYLE_FILL_AREA( #238 );
#188 = ORIENTED_EDGE( '', *, *, #239, .F. );
#189 = ORIENTED_EDGE( '', *, *, #240, .T. );
#190 = CARTESIAN_POINT( '', ( 153.000000000000, 0.000000000000000, 2.77555756156289E-014 ) );
#191 = DIRECTION( '', ( -1.99388167943131E-016, 0.000000000000000, 1.00000000000000 ) );
#192 = DIRECTION( '', ( 1.00000000000000, 0.000000000000000, 1.99388167943131E-016 ) );
#193 = SURFACE_STYLE_FILL_AREA( #241 );
#194 = ORIENTED_EDGE( '', *, *, #231, .T. );
#195 = ORIENTED_EDGE( '', *, *, #240, .F. );
#196 = CARTESIAN_POINT( '', ( 0.000000000000000, 0.000000000000000, 0.000000000000000 ) );
#197 = DIRECTION( '', ( 0.000000000000000, 1.00000000000000, 0.000000000000000 ) );
#198 = DIRECTION( '', ( 0.000000000000000, 0.000000000000000, 1.00000000000000 ) );
#199 = SURFACE_STYLE_FILL_AREA( #242 );
#200 = ORIENTED_EDGE( '', *, *, #243, .F. );
#201 = ORIENTED_EDGE( '', *, *, #244, .T. );
#202 = CARTESIAN_POINT( '', ( 0.000000000000000, -95.0000000000000, 0.000000000000000 ) );
#203 = DIRECTION( '', ( 0.000000000000000, 1.00000000000000, 0.000000000000000 ) );
#204 = DIRECTION( '', ( 0.000000000000000, 0.000000000000000, 1.00000000000000 ) );
#205 = SURFACE_STYLE_FILL_AREA( #245 );
#206 = ORIENTED_EDGE( '', *, *, #246, .T. );
#207 = ORIENTED_EDGE( '', *, *, #243, .T. );
#208 = CARTESIAN_POINT( '', ( 0.000000000000000, -20.0000000000000, 0.000000000000000 ) );
#209 = DIRECTION( '', ( -0.000000000000000, 1.00000000000000, -0.000000000000000 ) );
#210 = DIRECTION( '', ( 0.000000000000000, 0.000000000000000, -1.00000000000000 ) );
#211 = SURFACE_STYLE_FILL_AREA( #247 );
#212 = ORIENTED_EDGE( '', *, *, #246, .F. );
#213 = ORIENTED_EDGE( '', *, *, #235, .F. );
#214 = CARTESIAN_POINT( '', ( 0.000000000000000, -20.0000000000000, 0.000000000000000 ) );
#215 = DIRECTION( '', ( 0.000000000000000, -1.00000000000000, -0.000000000000000 ) );
#216 = DIRECTION( '', ( 0.000000000000000, 0.000000000000000, -1.00000000000000 ) );
#217 = SURFACE_STYLE_FILL_AREA( #248 );
#218 = ORIENTED_EDGE( '', *, *, #237, .F. );
#219 = ORIENTED_EDGE( '', *, *, #239, .T. );
#220 = CARTESIAN_POINT( '', ( 253.000000000000, 153.000000000000, 4.76943924099421E-014 ) );
#221 = DIRECTION( '', ( 1.00000000000000, 6.12323399573677E-017, 1.99388167943131E-016 ) );
#222 = DIRECTION( '', ( -1.99388167943131E-016, 0.000000000000000, 1.00000000000000 ) );
#223 = SURFACE_STYLE_FILL_AREA( #249 );
#224 = ORIENTED_EDGE( '', *, *, #233, .T. );
#225 = ORIENTED_EDGE( '', *, *, #244, .F. );
#226 = CARTESIAN_POINT( '', ( 0.000000000000000, -24.0000000000000, 0.000000000000000 ) );
#227 = DIRECTION( '', ( -0.000000000000000, 1.00000000000000, -0.000000000000000 ) );
#228 = DIRECTION( '', ( 0.000000000000000, 0.000000000000000, -1.00000000000000 ) );
#229 = FILL_AREA_STYLE( '', ( #250 ) );
#230 = EDGE_CURVE( '', #251, #251, #252, .F. );
#231 = EDGE_CURVE( '', #253, #253, #254, .T. );
#232 = FILL_AREA_STYLE( '', ( #255 ) );
#233 = EDGE_CURVE( '', #256, #256, #257, .T. );
#234 = FILL_AREA_STYLE( '', ( #258 ) );
#235 = EDGE_CURVE( '', #259, #259, #260, .T. );
#236 = FILL_AREA_STYLE( '', ( #261 ) );
#237 = EDGE_CURVE( '', #262, #262, #263, .T. );
#238 = FILL_AREA_STYLE( '', ( #264 ) );
#239 = EDGE_CURVE( '', #265, #265, #266, .T. );
#240 = EDGE_CURVE( '', #267, #267, #268, .T. );
#241 = FILL_AREA_STYLE( '', ( #269 ) );
#242 = FILL_AREA_STYLE( '', ( #270 ) );
#243 = EDGE_CURVE( '', #271, #271, #272, .T. );
#244 = EDGE_CURVE( '', #273, #273, #274, .T. );
#245 = FILL_AREA_STYLE( '', ( #275 ) );
#246 = EDGE_CURVE( '', #276, #276, #277, .F. );
#247 = FILL_AREA_STYLE( '', ( #278 ) );
#248 = FILL_AREA_STYLE( '', ( #279 ) );
#249 = FILL_AREA_STYLE( '', ( #280 ) );
#250 = FILL_AREA_STYLE_COLOUR( '', #281 );
#251 = VERTEX_POINT( '', #282 );
#252 = CIRCLE( '', #283, 57.5000000000000 );
#253 = VERTEX_POINT( '', #284 );
#254 = CIRCLE( '', #285, 57.5000000000000 );
#255 = FILL_AREA_STYLE_COLOUR( '', #286 );
#256 = VERTEX_POINT( '', #287 );
#257 = CIRCLE( '', #288, 57.1500000000000 );
#258 = FILL_AREA_STYLE_COLOUR( '', #289 );
#259 = VERTEX_POINT( '', #290 );
#260 = CIRCLE( '', #291, 58.0000000000000 );
#261 = FILL_AREA_STYLE_COLOUR( '', #292 );
#262 = VERTEX_POINT( '', #293 );
#263 = CIRCLE( '', #294, 57.1500000000000 );
#264 = FILL_AREA_STYLE_COLOUR( '', #295 );
#265 = VERTEX_POINT( '', #296 );
#266 = CIRCLE( '', #297, 57.1500000000000 );
#267 = VERTEX_POINT( '', #298 );
#268 = CIRCLE( '', #299, 57.1500000000000 );
#269 = FILL_AREA_STYLE_COLOUR( '', #300 );
#270 = FILL_AREA_STYLE_COLOUR( '', #301 );
#271 = VERTEX_POINT( '', #302 );
#272 = CIRCLE( '', #303, 60.0000000000000 );
#273 = VERTEX_POINT( '', #304 );
#274 = CIRCLE( '', #305, 57.1500000000000 );
#275 = FILL_AREA_STYLE_COLOUR( '', #306 );
#276 = VERTEX_POINT( '', #307 );
#277 = CIRCLE( '', #308, 60.0000000000000 );
#278 = FILL_AREA_STYLE_COLOUR( '', #309 );
#279 = FILL_AREA_STYLE_COLOUR( '', #310 );
#280 = FILL_AREA_STYLE_COLOUR( '', #311 );
#281 = COLOUR_RGB( '', 0.898039221763611, 0.898039221763611, 0.000000000000000 );
#282 = CARTESIAN_POINT( '', ( 0.000000000000000, -20.0000000000000, 57.5000000000000 ) );
#283 = AXIS2_PLACEMENT_3D( '', #312, #313, #314 );
#284 = CARTESIAN_POINT( '', ( 0.000000000000000, 0.000000000000000, 57.5000000000000 ) );
#285 = AXIS2_PLACEMENT_3D( '', #315, #316, #317 );
#286 = COLOUR_RGB( '', 0.898039221763611, 0.898039221763611, 0.000000000000000 );
#287 = CARTESIAN_POINT( '', ( 57.1500000000000, -24.0000000000000, 0.000000000000000 ) );
#288 = AXIS2_PLACEMENT_3D( '', #318, #319, #320 );
#289 = COLOUR_RGB( '', 0.898039221763611, 0.898039221763611, 0.000000000000000 );
#290 = CARTESIAN_POINT( '', ( 0.000000000000000, -20.0000000000000, 58.0000000000000 ) );
#291 = AXIS2_PLACEMENT_3D( '', #321, #322, #323 );
#292 = COLOUR_RGB( '', 0.898039221763611, 0.898039221763611, 0.000000000000000 );
#293 = CARTESIAN_POINT( '', ( 253.000000000000, 153.000000000000, -57.1499999999999 ) );
#294 = AXIS2_PLACEMENT_3D( '', #324, #325, #326 );
#295 = COLOUR_RGB( '', 0.898039221763611, 0.898039221763611, 0.000000000000000 );
#296 = CARTESIAN_POINT( '', ( 153.000000000000, 95.8500000000000, 1.63605418176789E-014 ) );
#297 = AXIS2_PLACEMENT_3D( '', #327, #328, #329 );
#298 = CARTESIAN_POINT( '', ( 0.000000000000000, 0.000000000000000, 57.1500000000000 ) );
#299 = AXIS2_PLACEMENT_3D( '', #330, #331, #332 );
#300 = COLOUR_RGB( '', 0.898039221763611, 0.898039221763611, 0.000000000000000 );
#301 = COLOUR_RGB( '', 0.898039221763611, 0.898039221763611, 0.000000000000000 );
#302 = CARTESIAN_POINT( '', ( 60.0000000000000, -95.0000000000000, 0.000000000000000 ) );
#303 = AXIS2_PLACEMENT_3D( '', #333, #334, #335 );
#304 = CARTESIAN_POINT( '', ( 57.1500000000000, -95.0000000000000, 0.000000000000000 ) );
#305 = AXIS2_PLACEMENT_3D( '', #336, #337, #338 );
#306 = COLOUR_RGB( '', 0.898039221763611, 0.898039221763611, 0.000000000000000 );
#307 = CARTESIAN_POINT( '', ( 0.000000000000000, -22.0000000000000, 60.0000000000000 ) );
#308 = AXIS2_PLACEMENT_3D( '', #339, #340, #341 );
#309 = COLOUR_RGB( '', 0.898039221763611, 0.898039221763611, 0.000000000000000 );
#310 = COLOUR_RGB( '', 0.898039221763611, 0.898039221763611, 0.000000000000000 );
#311 = COLOUR_RGB( '', 0.898039221763611, 0.898039221763611, 0.000000000000000 );
#312 = CARTESIAN_POINT( '', ( 0.000000000000000, -20.0000000000000, 0.000000000000000 ) );
#313 = DIRECTION( '', ( 0.000000000000000, 1.00000000000000, 0.000000000000000 ) );
#314 = DIRECTION( '', ( 0.000000000000000, 0.000000000000000, 1.00000000000000 ) );
#315 = CARTESIAN_POINT( '', ( 0.000000000000000, 0.000000000000000, 0.000000000000000 ) );
#316 = DIRECTION( '', ( 0.000000000000000, 1.00000000000000, 0.000000000000000 ) );
#317 = DIRECTION( '', ( 0.000000000000000, 0.000000000000000, 1.00000000000000 ) );
#318 = CARTESIAN_POINT( '', ( 0.000000000000000, -24.0000000000000, 0.000000000000000 ) );
#319 = DIRECTION( '', ( -0.000000000000000, 1.00000000000000, 0.000000000000000 ) );
#320 = DIRECTION( '', ( 1.00000000000000, 0.000000000000000, 0.000000000000000 ) );
#321 = CARTESIAN_POINT( '', ( 0.000000000000000, -20.0000000000000, 0.000000000000000 ) );
#322 = DIRECTION( '', ( 0.000000000000000, 1.00000000000000, 0.000000000000000 ) );
#323 = DIRECTION( '', ( 0.000000000000000, 0.000000000000000, 1.00000000000000 ) );
#324 = CARTESIAN_POINT( '', ( 253.000000000000, 153.000000000000, 4.76943924099421E-014 ) );
#325 = DIRECTION( '', ( 1.00000000000000, 6.12323399573677E-017, 1.99388167943131E-016 ) );
#326 = DIRECTION( '', ( 1.99388167943131E-016, 0.000000000000000, -1.00000000000000 ) );
#327 = CARTESIAN_POINT( '', ( 153.000000000000, 153.000000000000, 2.77555756156289E-014 ) );
#328 = DIRECTION( '', ( 1.00000000000000, 6.12323399573677E-017, 1.99388167943131E-016 ) );
#329 = DIRECTION( '', ( 6.12323399573677E-017, -1.00000000000000, -1.99388167943131E-016 ) );
#330 = CARTESIAN_POINT( '', ( 0.000000000000000, 0.000000000000000, -2.75081407967021E-015 ) );
#331 = DIRECTION( '', ( 0.000000000000000, 1.00000000000000, 0.000000000000000 ) );
#332 = DIRECTION( '', ( 0.000000000000000, 0.000000000000000, 1.00000000000000 ) );
#333 = CARTESIAN_POINT( '', ( 0.000000000000000, -95.0000000000000, 0.000000000000000 ) );
#334 = DIRECTION( '', ( -0.000000000000000, 1.00000000000000, 0.000000000000000 ) );
#335 = DIRECTION( '', ( 1.00000000000000, 0.000000000000000, 0.000000000000000 ) );
#336 = CARTESIAN_POINT( '', ( 0.000000000000000, -95.0000000000000, 0.000000000000000 ) );
#337 = DIRECTION( '', ( -0.000000000000000, 1.00000000000000, 0.000000000000000 ) );
#338 = DIRECTION( '', ( 1.00000000000000, 0.000000000000000, 0.000000000000000 ) );
#339 = CARTESIAN_POINT( '', ( 0.000000000000000, -22.0000000000000, 0.000000000000000 ) );
#340 = DIRECTION( '', ( 0.000000000000000, 1.00000000000000, 0.000000000000000 ) );
#341 = DIRECTION( '', ( 0.000000000000000, 0.000000000000000, 1.00000000000000 ) );
ENDSEC;
END-ISO-10303-21;
