ISO-10303-21;
HEADER;
FILE_DESCRIPTION( ( 'Unknown' ), '1' );
FILE_NAME( '//Server/ofimatica/alfredo/Alfredo2/ISOTUBI/PZAS3D/FICHATECNICA/NUMEPRESS/generico 3D/F6DN88,9.stp', 'Unknown', ( 'Unknown' ), ( 'Unknown' ), 'PSStep 14.0', 'Unknown', '  ' );
FILE_SCHEMA( ( 'AUTOMOTIVE_DESIGN { 1 0 10303 214 1 1 1 1 }' ) );
ENDSEC;
DATA;
#1 = MECHANICAL_DESIGN_GEOMETRIC_PRESENTATION_REPRESENTATION( ' ', ( #10, #11, #12, #13, #14, #15, #16, #17, #18, #19, #20 ), #6 );
#2 = PRODUCT_DEFINITION_CONTEXT( '', #21, 'design' );
#3 = APPLICATION_PROTOCOL_DEFINITION( 'international standard', 'automotive_design', 2001, #21 );
#4 = PRODUCT_CATEGORY_RELATIONSHIP( 'NONE', 'NONE', #22, #23 );
#5 = SHAPE_DEFINITION_REPRESENTATION( #24, #25 );
#6 =  ( GEOMETRIC_REPRESENTATION_CONTEXT( 3 )GLOBAL_UNCERTAINTY_ASSIGNED_CONTEXT( ( #28 ) )GLOBAL_UNIT_ASSIGNED_CONTEXT( ( #30, #31, #32 ) )REPRESENTATION_CONTEXT( 'NONE', 'WORKSPACE' ) );
#10 = STYLED_ITEM( '', ( #34 ), #35 );
#11 = STYLED_ITEM( '', ( #36 ), #37 );
#12 = STYLED_ITEM( '', ( #38 ), #39 );
#13 = STYLED_ITEM( '', ( #40 ), #41 );
#14 = STYLED_ITEM( '', ( #42 ), #43 );
#15 = STYLED_ITEM( '', ( #44 ), #45 );
#16 = STYLED_ITEM( '', ( #46 ), #47 );
#17 = STYLED_ITEM( '', ( #48 ), #49 );
#18 = STYLED_ITEM( '', ( #50 ), #51 );
#19 = STYLED_ITEM( '', ( #52 ), #53 );
#20 = STYLED_ITEM( '', ( #54 ), #55 );
#21 = APPLICATION_CONTEXT( 'core data for automotive mechanical design processes' );
#22 = PRODUCT_CATEGORY( 'part', 'NONE' );
#23 = PRODUCT_RELATED_PRODUCT_CATEGORY( 'detail', ' ', ( #56 ) );
#24 = PRODUCT_DEFINITION_SHAPE( 'NONE', 'NONE', #57 );
#25 = ADVANCED_BREP_SHAPE_REPRESENTATION( '1', ( #58, #59 ), #6 );
#28 = UNCERTAINTY_MEASURE_WITH_UNIT( LENGTH_MEASURE( 0.00100000000000000 ), #30, '', '' );
#30 =  ( CONVERSION_BASED_UNIT( 'MILLIMETRE', #62 )LENGTH_UNIT(  )NAMED_UNIT( #65 ) );
#31 =  ( NAMED_UNIT( #67 )PLANE_ANGLE_UNIT(  )SI_UNIT( $, .RADIAN. ) );
#32 =  ( NAMED_UNIT( #67 )SI_UNIT( $, .STERADIAN. )SOLID_ANGLE_UNIT(  ) );
#34 = PRESENTATION_STYLE_ASSIGNMENT( ( #73 ) );
#35 = ADVANCED_FACE( '', ( #74, #75 ), #76, .T. );
#36 = PRESENTATION_STYLE_ASSIGNMENT( ( #77 ) );
#37 = ADVANCED_FACE( '', ( #78, #79 ), #80, .T. );
#38 = PRESENTATION_STYLE_ASSIGNMENT( ( #81 ) );
#39 = ADVANCED_FACE( '', ( #82, #83 ), #84, .F. );
#40 = PRESENTATION_STYLE_ASSIGNMENT( ( #85 ) );
#41 = ADVANCED_FACE( '', ( #86, #87 ), #88, .F. );
#42 = PRESENTATION_STYLE_ASSIGNMENT( ( #89 ) );
#43 = ADVANCED_FACE( '', ( #90, #91 ), #92, .T. );
#44 = PRESENTATION_STYLE_ASSIGNMENT( ( #93 ) );
#45 = ADVANCED_FACE( '', ( #94, #95 ), #96, .T. );
#46 = PRESENTATION_STYLE_ASSIGNMENT( ( #97 ) );
#47 = ADVANCED_FACE( '', ( #98, #99 ), #100, .T. );
#48 = PRESENTATION_STYLE_ASSIGNMENT( ( #101 ) );
#49 = ADVANCED_FACE( '', ( #102 ), #103, .T. );
#50 = PRESENTATION_STYLE_ASSIGNMENT( ( #104 ) );
#51 = ADVANCED_FACE( '', ( #105 ), #106, .F. );
#52 = PRESENTATION_STYLE_ASSIGNMENT( ( #107 ) );
#53 = ADVANCED_FACE( '', ( #108, #109 ), #110, .T. );
#54 = PRESENTATION_STYLE_ASSIGNMENT( ( #111 ) );
#55 = ADVANCED_FACE( '', ( #112, #113 ), #114, .T. );
#56 = PRODUCT( '1', '1', 'PART-1-DESC', ( #115 ) );
#57 = PRODUCT_DEFINITION( 'NONE', 'NONE', #116, #2 );
#58 = MANIFOLD_SOLID_BREP( '1', #117 );
#59 = AXIS2_PLACEMENT_3D( '', #118, #119, #120 );
#62 = LENGTH_MEASURE_WITH_UNIT( LENGTH_MEASURE( 1.00000000000000 ), #121 );
#65 = DIMENSIONAL_EXPONENTS( 1.00000000000000, 0.000000000000000, 0.000000000000000, 0.000000000000000, 0.000000000000000, 0.000000000000000, 0.000000000000000 );
#67 = DIMENSIONAL_EXPONENTS( 0.000000000000000, 0.000000000000000, 0.000000000000000, 0.000000000000000, 0.000000000000000, 0.000000000000000, 0.000000000000000 );
#73 = SURFACE_STYLE_USAGE( .BOTH., #122 );
#74 = FACE_OUTER_BOUND( '', #123, .T. );
#75 = FACE_BOUND( '', #124, .T. );
#76 = PLANE( '', #125 );
#77 = SURFACE_STYLE_USAGE( .BOTH., #126 );
#78 = FACE_OUTER_BOUND( '', #127, .T. );
#79 = FACE_BOUND( '', #128, .T. );
#80 = CONICAL_SURFACE( '', #129, 46.0000000000000, 0.785398163397448 );
#81 = SURFACE_STYLE_USAGE( .BOTH., #130 );
#82 = FACE_OUTER_BOUND( '', #131, .T. );
#83 = FACE_OUTER_BOUND( '', #132, .T. );
#84 = CYLINDRICAL_SURFACE( '', #133, 44.5000000000000 );
#85 = SURFACE_STYLE_USAGE( .BOTH., #134 );
#86 = FACE_OUTER_BOUND( '', #135, .T. );
#87 = FACE_BOUND( '', #136, .T. );
#88 = PLANE( '', #137 );
#89 = SURFACE_STYLE_USAGE( .BOTH., #138 );
#90 = FACE_OUTER_BOUND( '', #139, .T. );
#91 = FACE_OUTER_BOUND( '', #140, .T. );
#92 = TOROIDAL_SURFACE( '', #141, 114.000000000000, 44.5000000000000 );
#93 = SURFACE_STYLE_USAGE( .BOTH., #142 );
#94 = FACE_OUTER_BOUND( '', #143, .T. );
#95 = FACE_OUTER_BOUND( '', #144, .T. );
#96 = CYLINDRICAL_SURFACE( '', #145, 47.0000000000000 );
#97 = SURFACE_STYLE_USAGE( .BOTH., #146 );
#98 = FACE_OUTER_BOUND( '', #147, .T. );
#99 = FACE_OUTER_BOUND( '', #148, .T. );
#100 = CYLINDRICAL_SURFACE( '', #149, 46.0000000000000 );
#101 = SURFACE_STYLE_USAGE( .BOTH., #150 );
#102 = FACE_OUTER_BOUND( '', #151, .T. );
#103 = PLANE( '', #152 );
#104 = SURFACE_STYLE_USAGE( .BOTH., #153 );
#105 = FACE_OUTER_BOUND( '', #154, .T. );
#106 = PLANE( '', #155 );
#107 = SURFACE_STYLE_USAGE( .BOTH., #156 );
#108 = FACE_OUTER_BOUND( '', #157, .T. );
#109 = FACE_BOUND( '', #158, .T. );
#110 = CONICAL_SURFACE( '', #159, 45.0000000000000, 0.785398163397452 );
#111 = SURFACE_STYLE_USAGE( .BOTH., #160 );
#112 = FACE_OUTER_BOUND( '', #161, .T. );
#113 = FACE_OUTER_BOUND( '', #162, .T. );
#114 = CYLINDRICAL_SURFACE( '', #163, 44.5000000000000 );
#115 = PRODUCT_CONTEXT( '', #21, 'mechanical' );
#116 = PRODUCT_DEFINITION_FORMATION_WITH_SPECIFIED_SOURCE( ' ', 'NONE', #56, .NOT_KNOWN. );
#117 = CLOSED_SHELL( '', ( #43, #49, #55, #41, #35, #39, #51, #47, #45, #37, #53 ) );
#118 = CARTESIAN_POINT( '', ( 0.000000000000000, 0.000000000000000, 0.000000000000000 ) );
#119 = DIRECTION( '', ( 0.000000000000000, 0.000000000000000, 1.00000000000000 ) );
#120 = DIRECTION( '', ( 1.00000000000000, 0.000000000000000, 0.000000000000000 ) );
#121 =  ( LENGTH_UNIT(  )NAMED_UNIT( #65 )SI_UNIT( .MILLI., .METRE. ) );
#122 = SURFACE_SIDE_STYLE( '', ( #165 ) );
#123 = EDGE_LOOP( '', ( #166 ) );
#124 = EDGE_LOOP( '', ( #167 ) );
#125 = AXIS2_PLACEMENT_3D( '', #168, #169, #170 );
#126 = SURFACE_SIDE_STYLE( '', ( #171 ) );
#127 = EDGE_LOOP( '', ( #172 ) );
#128 = EDGE_LOOP( '', ( #173 ) );
#129 = AXIS2_PLACEMENT_3D( '', #174, #175, #176 );
#130 = SURFACE_SIDE_STYLE( '', ( #177 ) );
#131 = EDGE_LOOP( '', ( #178 ) );
#132 = EDGE_LOOP( '', ( #179 ) );
#133 = AXIS2_PLACEMENT_3D( '', #180, #181, #182 );
#134 = SURFACE_SIDE_STYLE( '', ( #183 ) );
#135 = EDGE_LOOP( '', ( #184 ) );
#136 = EDGE_LOOP( '', ( #185 ) );
#137 = AXIS2_PLACEMENT_3D( '', #186, #187, #188 );
#138 = SURFACE_SIDE_STYLE( '', ( #189 ) );
#139 = EDGE_LOOP( '', ( #190 ) );
#140 = EDGE_LOOP( '', ( #191 ) );
#141 = AXIS2_PLACEMENT_3D( '', #192, #193, #194 );
#142 = SURFACE_SIDE_STYLE( '', ( #195 ) );
#143 = EDGE_LOOP( '', ( #196 ) );
#144 = EDGE_LOOP( '', ( #197 ) );
#145 = AXIS2_PLACEMENT_3D( '', #198, #199, #200 );
#146 = SURFACE_SIDE_STYLE( '', ( #201 ) );
#147 = EDGE_LOOP( '', ( #202 ) );
#148 = EDGE_LOOP( '', ( #203 ) );
#149 = AXIS2_PLACEMENT_3D( '', #204, #205, #206 );
#150 = SURFACE_SIDE_STYLE( '', ( #207 ) );
#151 = EDGE_LOOP( '', ( #208 ) );
#152 = AXIS2_PLACEMENT_3D( '', #209, #210, #211 );
#153 = SURFACE_SIDE_STYLE( '', ( #212 ) );
#154 = EDGE_LOOP( '', ( #213 ) );
#155 = AXIS2_PLACEMENT_3D( '', #214, #215, #216 );
#156 = SURFACE_SIDE_STYLE( '', ( #217 ) );
#157 = EDGE_LOOP( '', ( #218 ) );
#158 = EDGE_LOOP( '', ( #219 ) );
#159 = AXIS2_PLACEMENT_3D( '', #220, #221, #222 );
#160 = SURFACE_SIDE_STYLE( '', ( #223 ) );
#161 = EDGE_LOOP( '', ( #224 ) );
#162 = EDGE_LOOP( '', ( #225 ) );
#163 = AXIS2_PLACEMENT_3D( '', #226, #227, #228 );
#165 = SURFACE_STYLE_FILL_AREA( #229 );
#166 = ORIENTED_EDGE( '', *, *, #230, .F. );
#167 = ORIENTED_EDGE( '', *, *, #231, .F. );
#168 = CARTESIAN_POINT( '', ( 6.93889390390723E-014, 1.38777878078145E-014, -1.10363853845389E-015 ) );
#169 = DIRECTION( '', ( -2.88159009762259E-016, 1.00000000000000, 5.40373448828381E-017 ) );
#170 = DIRECTION( '', ( 1.00000000000000, 2.88159009762259E-016, 1.57009245868377E-016 ) );
#171 = SURFACE_STYLE_FILL_AREA( #232 );
#172 = ORIENTED_EDGE( '', *, *, #233, .T. );
#173 = ORIENTED_EDGE( '', *, *, #234, .F. );
#174 = CARTESIAN_POINT( '', ( 8.32667268468867E-014, -8.50000000000000, -1.56295596995801E-015 ) );
#175 = DIRECTION( '', ( 4.44089209850063E-016, -1.00000000000000, -5.40373448828379E-017 ) );
#176 = DIRECTION( '', ( 1.57009245868377E-016, 5.40373448828380E-017, -1.00000000000000 ) );
#177 = SURFACE_STYLE_FILL_AREA( #235 );
#178 = ORIENTED_EDGE( '', *, *, #236, .F. );
#179 = ORIENTED_EDGE( '', *, *, #237, .T. );
#180 = CARTESIAN_POINT( '', ( 8.32667268468867E-014, -10.5000000000000, -1.67103065972369E-015 ) );
#181 = DIRECTION( '', ( -2.88159009762259E-016, 1.00000000000000, 5.40373448828381E-017 ) );
#182 = DIRECTION( '', ( -1.00000000000000, -2.88159009762259E-016, -1.57009245868377E-016 ) );
#183 = SURFACE_STYLE_FILL_AREA( #238 );
#184 = ORIENTED_EDGE( '', *, *, #239, .T. );
#185 = ORIENTED_EDGE( '', *, *, #237, .F. );
#186 = CARTESIAN_POINT( '', ( 9.71445146547012E-014, -67.0000000000000, -4.72414064560404E-015 ) );
#187 = DIRECTION( '', ( -2.88159009762259E-016, 1.00000000000000, 5.40373448828381E-017 ) );
#188 = DIRECTION( '', ( 1.00000000000000, 2.88159009762259E-016, 1.57009245868377E-016 ) );
#189 = SURFACE_STYLE_FILL_AREA( #240 );
#190 = ORIENTED_EDGE( '', *, *, #231, .T. );
#191 = ORIENTED_EDGE( '', *, *, #241, .F. );
#192 = CARTESIAN_POINT( '', ( 114.000000000000, 0.000000000000000, 1.38777878078145E-014 ) );
#193 = DIRECTION( '', ( -1.02971900985539E-016, 0.000000000000000, 1.00000000000000 ) );
#194 = DIRECTION( '', ( 1.00000000000000, 0.000000000000000, 1.02971900985539E-016 ) );
#195 = SURFACE_STYLE_FILL_AREA( #242 );
#196 = ORIENTED_EDGE( '', *, *, #233, .F. );
#197 = ORIENTED_EDGE( '', *, *, #239, .F. );
#198 = CARTESIAN_POINT( '', ( 8.32667268468867E-014, -8.50000000000000, -1.56295596995801E-015 ) );
#199 = DIRECTION( '', ( -2.88159009762259E-016, 1.00000000000000, 5.40373448828381E-017 ) );
#200 = DIRECTION( '', ( -1.00000000000000, -2.88159009762259E-016, -1.57009245868377E-016 ) );
#201 = SURFACE_STYLE_FILL_AREA( #243 );
#202 = ORIENTED_EDGE( '', *, *, #244, .F. );
#203 = ORIENTED_EDGE( '', *, *, #234, .T. );
#204 = CARTESIAN_POINT( '', ( 9.71445146547012E-014, -67.0000000000000, -4.72414064560404E-015 ) );
#205 = DIRECTION( '', ( 3.82856869892695E-016, -1.00000000000000, -5.40373448828380E-017 ) );
#206 = DIRECTION( '', ( -1.57009245868377E-016, -5.40373448828381E-017, 1.00000000000000 ) );
#207 = SURFACE_STYLE_FILL_AREA( #245 );
#208 = ORIENTED_EDGE( '', *, *, #246, .T. );
#209 = CARTESIAN_POINT( '', ( 96.3223304703363, 143.542676580869, 1.26839805583143E-014 ) );
#210 = DIRECTION( '', ( 0.707106781186548, 0.707106781186548, 7.28121294585446E-017 ) );
#211 = DIRECTION( '', ( -0.707106781186548, 0.707106781186548, 0.000000000000000 ) );
#212 = SURFACE_STYLE_FILL_AREA( #247 );
#213 = ORIENTED_EDGE( '', *, *, #236, .T. );
#214 = CARTESIAN_POINT( '', ( 8.32667268468867E-014, -10.5000000000000, -1.67103065972369E-015 ) );
#215 = DIRECTION( '', ( -4.44089209850063E-016, 1.00000000000000, 5.40373448828380E-017 ) );
#216 = DIRECTION( '', ( -1.57009245868377E-016, -5.40373448828381E-017, 1.00000000000000 ) );
#217 = SURFACE_STYLE_FILL_AREA( #248 );
#218 = ORIENTED_EDGE( '', *, *, #244, .T. );
#219 = ORIENTED_EDGE( '', *, *, #230, .T. );
#220 = CARTESIAN_POINT( '', ( 6.93889390390723E-014, 1.38777878078145E-014, -1.10363853845389E-015 ) );
#221 = DIRECTION( '', ( 4.44089209850063E-016, -1.00000000000000, -5.40373448828379E-017 ) );
#222 = DIRECTION( '', ( 1.57009245868377E-016, 5.40373448828380E-017, -1.00000000000000 ) );
#223 = SURFACE_STYLE_FILL_AREA( #249 );
#224 = ORIENTED_EDGE( '', *, *, #246, .F. );
#225 = ORIENTED_EDGE( '', *, *, #241, .T. );
#226 = CARTESIAN_POINT( '', ( 96.3223304703363, 143.542676580869, 1.26839805583143E-014 ) );
#227 = DIRECTION( '', ( 0.707106781186548, 0.707106781186548, 7.28121294585445E-017 ) );
#228 = DIRECTION( '', ( 0.707106781186547, -0.707106781186547, 0.000000000000000 ) );
#229 = FILL_AREA_STYLE( '', ( #250 ) );
#230 = EDGE_CURVE( '', #251, #251, #252, .T. );
#231 = EDGE_CURVE( '', #253, #253, #254, .T. );
#232 = FILL_AREA_STYLE( '', ( #255 ) );
#233 = EDGE_CURVE( '', #256, #256, #257, .F. );
#234 = EDGE_CURVE( '', #258, #258, #259, .F. );
#235 = FILL_AREA_STYLE( '', ( #260 ) );
#236 = EDGE_CURVE( '', #261, #261, #262, .T. );
#237 = EDGE_CURVE( '', #263, #263, #264, .T. );
#238 = FILL_AREA_STYLE( '', ( #265 ) );
#239 = EDGE_CURVE( '', #266, #266, #267, .T. );
#240 = FILL_AREA_STYLE( '', ( #268 ) );
#241 = EDGE_CURVE( '', #269, #269, #270, .T. );
#242 = FILL_AREA_STYLE( '', ( #271 ) );
#243 = FILL_AREA_STYLE( '', ( #272 ) );
#244 = EDGE_CURVE( '', #273, #273, #274, .F. );
#245 = FILL_AREA_STYLE( '', ( #275 ) );
#246 = EDGE_CURVE( '', #276, #276, #277, .T. );
#247 = FILL_AREA_STYLE( '', ( #278 ) );
#248 = FILL_AREA_STYLE( '', ( #279 ) );
#249 = FILL_AREA_STYLE( '', ( #280 ) );
#250 = FILL_AREA_STYLE_COLOUR( '', #281 );
#251 = VERTEX_POINT( '', #282 );
#252 = CIRCLE( '', #283, 45.0000000000000 );
#253 = VERTEX_POINT( '', #284 );
#254 = CIRCLE( '', #285, 44.5000000000000 );
#255 = FILL_AREA_STYLE_COLOUR( '', #286 );
#256 = VERTEX_POINT( '', #287 );
#257 = CIRCLE( '', #288, 47.0000000000000 );
#258 = VERTEX_POINT( '', #289 );
#259 = CIRCLE( '', #290, 46.0000000000000 );
#260 = FILL_AREA_STYLE_COLOUR( '', #291 );
#261 = VERTEX_POINT( '', #292 );
#262 = CIRCLE( '', #293, 44.5000000000000 );
#263 = VERTEX_POINT( '', #294 );
#264 = CIRCLE( '', #295, 44.5000000000000 );
#265 = FILL_AREA_STYLE_COLOUR( '', #296 );
#266 = VERTEX_POINT( '', #297 );
#267 = CIRCLE( '', #298, 47.0000000000000 );
#268 = FILL_AREA_STYLE_COLOUR( '', #299 );
#269 = VERTEX_POINT( '', #300 );
#270 = CIRCLE( '', #301, 44.5000000000000 );
#271 = FILL_AREA_STYLE_COLOUR( '', #302 );
#272 = FILL_AREA_STYLE_COLOUR( '', #303 );
#273 = VERTEX_POINT( '', #304 );
#274 = CIRCLE( '', #305, 46.0000000000000 );
#275 = FILL_AREA_STYLE_COLOUR( '', #306 );
#276 = VERTEX_POINT( '', #307 );
#277 = CIRCLE( '', #308, 44.5000000000000 );
#278 = FILL_AREA_STYLE_COLOUR( '', #309 );
#279 = FILL_AREA_STYLE_COLOUR( '', #310 );
#280 = FILL_AREA_STYLE_COLOUR( '', #311 );
#281 = COLOUR_RGB( '', 0.698039233684540, 0.682352960109711, 0.521568655967712 );
#282 = CARTESIAN_POINT( '', ( 45.0000000000001, 3.68369504687426E-014, 5.96177752562309E-015 ) );
#283 = AXIS2_PLACEMENT_3D( '', #312, #313, #314 );
#284 = CARTESIAN_POINT( '', ( -44.5000000000000, -4.56732030473181E-014, 2.13899109546297E-015 ) );
#285 = AXIS2_PLACEMENT_3D( '', #315, #316, #317 );
#286 = COLOUR_RGB( '', 0.698039233684540, 0.682352960109711, 0.521568655967712 );
#287 = CARTESIAN_POINT( '', ( 7.58872922910729E-014, -9.50000000000000, 47.0000000000000 ) );
#288 = AXIS2_PLACEMENT_3D( '', #318, #319, #320 );
#289 = CARTESIAN_POINT( '', ( 6.21665137291269E-014, -8.50000000000000, 46.0000000000000 ) );
#290 = AXIS2_PLACEMENT_3D( '', #321, #322, #323 );
#291 = COLOUR_RGB( '', 0.698039233684540, 0.682352960109711, 0.521568655967712 );
#292 = CARTESIAN_POINT( '', ( -44.4999999999999, -10.5000000000000, -1.52277459035021E-014 ) );
#293 = AXIS2_PLACEMENT_3D( '', #324, #325, #326 );
#294 = CARTESIAN_POINT( '', ( -44.4999999999999, -67.0000000000000, -1.82808558893824E-014 ) );
#295 = AXIS2_PLACEMENT_3D( '', #327, #328, #329 );
#296 = COLOUR_RGB( '', 0.698039233684540, 0.682352960109711, 0.521568655967712 );
#297 = CARTESIAN_POINT( '', ( -46.9999999999999, -67.0000000000000, -1.91933146249752E-014 ) );
#298 = AXIS2_PLACEMENT_3D( '', #330, #331, #332 );
#299 = COLOUR_RGB( '', 0.698039233684540, 0.682352960109711, 0.521568655967712 );
#300 = CARTESIAN_POINT( '', ( 33.3898269447336, 80.6101730552664, -44.5000000000000 ) );
#301 = AXIS2_PLACEMENT_3D( '', #333, #334, #335 );
#302 = COLOUR_RGB( '', 0.698039233684540, 0.682352960109711, 0.521568655967712 );
#303 = COLOUR_RGB( '', 0.698039233684540, 0.682352960109711, 0.521568655967712 );
#304 = CARTESIAN_POINT( '', ( 6.21665137291269E-014, -0.999999999999989, 46.0000000000000 ) );
#305 = AXIS2_PLACEMENT_3D( '', #336, #337, #338 );
#306 = COLOUR_RGB( '', 0.698039233684540, 0.682352960109711, 0.521568655967712 );
#307 = CARTESIAN_POINT( '', ( 64.8560787075349, 175.008928343670, 1.26839805583143E-014 ) );
#308 = AXIS2_PLACEMENT_3D( '', #339, #340, #341 );
#309 = COLOUR_RGB( '', 0.698039233684540, 0.682352960109711, 0.521568655967712 );
#310 = COLOUR_RGB( '', 0.698039233684540, 0.682352960109711, 0.521568655967712 );
#311 = COLOUR_RGB( '', 0.698039233684540, 0.682352960109711, 0.521568655967712 );
#312 = CARTESIAN_POINT( '', ( 6.93889390390723E-014, 1.38777878078145E-014, -1.10363853845389E-015 ) );
#313 = DIRECTION( '', ( 2.88159009762259E-016, -1.00000000000000, -5.40373448828381E-017 ) );
#314 = DIRECTION( '', ( 1.00000000000000, 2.88159009762259E-016, 1.57009245868377E-016 ) );
#315 = CARTESIAN_POINT( '', ( 0.000000000000000, -3.28501271128976E-014, 2.13899109546297E-015 ) );
#316 = DIRECTION( '', ( -2.88159009762259E-016, 1.00000000000000, 5.40373448828381E-017 ) );
#317 = DIRECTION( '', ( -1.00000000000000, -2.88159009762259E-016, 0.000000000000000 ) );
#318 = CARTESIAN_POINT( '', ( 8.32667268468867E-014, -9.50000000000000, -1.61699331484086E-015 ) );
#319 = DIRECTION( '', ( 4.44089209850063E-016, -1.00000000000000, -5.40373448828379E-017 ) );
#320 = DIRECTION( '', ( -1.57009245868377E-016, -5.40373448828380E-017, 1.00000000000000 ) );
#321 = CARTESIAN_POINT( '', ( 6.93889390390723E-014, -8.50000000000000, -1.56295596995802E-015 ) );
#322 = DIRECTION( '', ( 4.44089209850063E-016, -1.00000000000000, -5.40373448828380E-017 ) );
#323 = DIRECTION( '', ( -1.57009245868377E-016, -5.40373448828381E-017, 1.00000000000000 ) );
#324 = CARTESIAN_POINT( '', ( 8.32667268468867E-014, -10.5000000000000, -1.67103065972369E-015 ) );
#325 = DIRECTION( '', ( 4.44089209850063E-016, -1.00000000000000, -5.40373448828380E-017 ) );
#326 = DIRECTION( '', ( -1.00000000000000, -4.44089209850063E-016, -3.04645286377042E-016 ) );
#327 = CARTESIAN_POINT( '', ( 9.71445146547012E-014, -67.0000000000000, -4.72414064560405E-015 ) );
#328 = DIRECTION( '', ( 4.44089209850063E-016, -1.00000000000000, -5.40373448828380E-017 ) );
#329 = DIRECTION( '', ( -1.00000000000000, -4.44089209850063E-016, -3.04645286377042E-016 ) );
#330 = CARTESIAN_POINT( '', ( 9.71445146547012E-014, -67.0000000000000, -4.72414064560405E-015 ) );
#331 = DIRECTION( '', ( 4.44089209850063E-016, -1.00000000000000, -5.40373448828380E-017 ) );
#332 = DIRECTION( '', ( -1.00000000000000, -4.44089209850062E-016, -3.07854765518534E-016 ) );
#333 = CARTESIAN_POINT( '', ( 33.3898269447336, 80.6101730552664, 6.20370103650384E-015 ) );
#334 = DIRECTION( '', ( 0.707106781186548, 0.707106781186548, 7.28121294585445E-017 ) );
#335 = DIRECTION( '', ( 1.02971900985539E-016, 2.61472919763158E-032, -1.00000000000000 ) );
#336 = CARTESIAN_POINT( '', ( 6.93889390390723E-014, -0.999999999999987, -1.15767588333673E-015 ) );
#337 = DIRECTION( '', ( 4.44089209850063E-016, -1.00000000000000, -5.40373448828379E-017 ) );
#338 = DIRECTION( '', ( -1.57009245868377E-016, -5.40373448828380E-017, 1.00000000000000 ) );
#339 = CARTESIAN_POINT( '', ( 96.3223304703363, 143.542676580869, 1.26839805583143E-014 ) );
#340 = DIRECTION( '', ( 0.707106781186548, 0.707106781186548, 7.28121294585445E-017 ) );
#341 = DIRECTION( '', ( -0.707106781186547, 0.707106781186547, 0.000000000000000 ) );
ENDSEC;
END-ISO-10303-21;
