ISO-10303-21;
HEADER;
FILE_DESCRIPTION( ( 'Unknown' ), '1' );
FILE_NAME( '//Server/ofimatica/alfredo/Alfredo2/ISOTUBI/PZAS3D/FICHATECNICA/NUMEPRESS/generico 3D/F6DN114,3.stp', 'Unknown', ( 'Unknown' ), ( 'Unknown' ), 'PSStep 14.0', 'Unknown', '  ' );
FILE_SCHEMA( ( 'AUTOMOTIVE_DESIGN { 1 0 10303 214 1 1 1 1 }' ) );
ENDSEC;
DATA;
#1 = MECHANICAL_DESIGN_GEOMETRIC_PRESENTATION_REPRESENTATION( ' ', ( #10, #11, #12, #13, #14, #15, #16, #17, #18, #19, #20 ), #6 );
#2 = PRODUCT_DEFINITION_CONTEXT( '', #21, 'design' );
#3 = APPLICATION_PROTOCOL_DEFINITION( 'international standard', 'automotive_design', 2001, #21 );
#4 = PRODUCT_CATEGORY_RELATIONSHIP( 'NONE', 'NONE', #22, #23 );
#5 = SHAPE_DEFINITION_REPRESENTATION( #24, #25 );
#6 =  ( GEOMETRIC_REPRESENTATION_CONTEXT( 3 )GLOBAL_UNCERTAINTY_ASSIGNED_CONTEXT( ( #28 ) )GLOBAL_UNIT_ASSIGNED_CONTEXT( ( #30, #31, #32 ) )REPRESENTATION_CONTEXT( 'NONE', 'WORKSPACE' ) );
#10 = STYLED_ITEM( '', ( #34 ), #35 );
#11 = STYLED_ITEM( '', ( #36 ), #37 );
#12 = STYLED_ITEM( '', ( #38 ), #39 );
#13 = STYLED_ITEM( '', ( #40 ), #41 );
#14 = STYLED_ITEM( '', ( #42 ), #43 );
#15 = STYLED_ITEM( '', ( #44 ), #45 );
#16 = STYLED_ITEM( '', ( #46 ), #47 );
#17 = STYLED_ITEM( '', ( #48 ), #49 );
#18 = STYLED_ITEM( '', ( #50 ), #51 );
#19 = STYLED_ITEM( '', ( #52 ), #53 );
#20 = STYLED_ITEM( '', ( #54 ), #55 );
#21 = APPLICATION_CONTEXT( 'core data for automotive mechanical design processes' );
#22 = PRODUCT_CATEGORY( 'part', 'NONE' );
#23 = PRODUCT_RELATED_PRODUCT_CATEGORY( 'detail', ' ', ( #56 ) );
#24 = PRODUCT_DEFINITION_SHAPE( 'NONE', 'NONE', #57 );
#25 = ADVANCED_BREP_SHAPE_REPRESENTATION( '1', ( #58, #59 ), #6 );
#28 = UNCERTAINTY_MEASURE_WITH_UNIT( LENGTH_MEASURE( 0.00100000000000000 ), #30, '', '' );
#30 =  ( CONVERSION_BASED_UNIT( 'MILLIMETRE', #62 )LENGTH_UNIT(  )NAMED_UNIT( #65 ) );
#31 =  ( NAMED_UNIT( #67 )PLANE_ANGLE_UNIT(  )SI_UNIT( $, .RADIAN. ) );
#32 =  ( NAMED_UNIT( #67 )SI_UNIT( $, .STERADIAN. )SOLID_ANGLE_UNIT(  ) );
#34 = PRESENTATION_STYLE_ASSIGNMENT( ( #73 ) );
#35 = ADVANCED_FACE( '', ( #74, #75 ), #76, .T. );
#36 = PRESENTATION_STYLE_ASSIGNMENT( ( #77 ) );
#37 = ADVANCED_FACE( '', ( #78, #79 ), #80, .T. );
#38 = PRESENTATION_STYLE_ASSIGNMENT( ( #81 ) );
#39 = ADVANCED_FACE( '', ( #82, #83 ), #84, .F. );
#40 = PRESENTATION_STYLE_ASSIGNMENT( ( #85 ) );
#41 = ADVANCED_FACE( '', ( #86, #87 ), #88, .T. );
#42 = PRESENTATION_STYLE_ASSIGNMENT( ( #89 ) );
#43 = ADVANCED_FACE( '', ( #90, #91 ), #92, .F. );
#44 = PRESENTATION_STYLE_ASSIGNMENT( ( #93 ) );
#45 = ADVANCED_FACE( '', ( #94 ), #95, .T. );
#46 = PRESENTATION_STYLE_ASSIGNMENT( ( #96 ) );
#47 = ADVANCED_FACE( '', ( #97 ), #98, .F. );
#48 = PRESENTATION_STYLE_ASSIGNMENT( ( #99 ) );
#49 = ADVANCED_FACE( '', ( #100, #101 ), #102, .T. );
#50 = PRESENTATION_STYLE_ASSIGNMENT( ( #103 ) );
#51 = ADVANCED_FACE( '', ( #104, #105 ), #106, .T. );
#52 = PRESENTATION_STYLE_ASSIGNMENT( ( #107 ) );
#53 = ADVANCED_FACE( '', ( #108, #109 ), #110, .T. );
#54 = PRESENTATION_STYLE_ASSIGNMENT( ( #111 ) );
#55 = ADVANCED_FACE( '', ( #112, #113 ), #114, .T. );
#56 = PRODUCT( '1', '1', 'PART-1-DESC', ( #115 ) );
#57 = PRODUCT_DEFINITION( 'NONE', 'NONE', #116, #2 );
#58 = MANIFOLD_SOLID_BREP( '1', #117 );
#59 = AXIS2_PLACEMENT_3D( '', #118, #119, #120 );
#62 = LENGTH_MEASURE_WITH_UNIT( LENGTH_MEASURE( 1.00000000000000 ), #121 );
#65 = DIMENSIONAL_EXPONENTS( 1.00000000000000, 0.000000000000000, 0.000000000000000, 0.000000000000000, 0.000000000000000, 0.000000000000000, 0.000000000000000 );
#67 = DIMENSIONAL_EXPONENTS( 0.000000000000000, 0.000000000000000, 0.000000000000000, 0.000000000000000, 0.000000000000000, 0.000000000000000, 0.000000000000000 );
#73 = SURFACE_STYLE_USAGE( .BOTH., #122 );
#74 = FACE_OUTER_BOUND( '', #123, .T. );
#75 = FACE_OUTER_BOUND( '', #124, .T. );
#76 = CYLINDRICAL_SURFACE( '', #125, 57.1500000000000 );
#77 = SURFACE_STYLE_USAGE( .BOTH., #126 );
#78 = FACE_OUTER_BOUND( '', #127, .T. );
#79 = FACE_OUTER_BOUND( '', #128, .T. );
#80 = CYLINDRICAL_SURFACE( '', #129, 57.5000000000000 );
#81 = SURFACE_STYLE_USAGE( .BOTH., #130 );
#82 = FACE_OUTER_BOUND( '', #131, .T. );
#83 = FACE_OUTER_BOUND( '', #132, .T. );
#84 = CYLINDRICAL_SURFACE( '', #133, 57.1500000000000 );
#85 = SURFACE_STYLE_USAGE( .BOTH., #134 );
#86 = FACE_OUTER_BOUND( '', #135, .T. );
#87 = FACE_BOUND( '', #136, .T. );
#88 = PLANE( '', #137 );
#89 = SURFACE_STYLE_USAGE( .BOTH., #138 );
#90 = FACE_OUTER_BOUND( '', #139, .T. );
#91 = FACE_BOUND( '', #140, .T. );
#92 = PLANE( '', #141 );
#93 = SURFACE_STYLE_USAGE( .BOTH., #142 );
#94 = FACE_OUTER_BOUND( '', #143, .T. );
#95 = PLANE( '', #144 );
#96 = SURFACE_STYLE_USAGE( .BOTH., #145 );
#97 = FACE_OUTER_BOUND( '', #146, .T. );
#98 = PLANE( '', #147 );
#99 = SURFACE_STYLE_USAGE( .BOTH., #148 );
#100 = FACE_OUTER_BOUND( '', #149, .T. );
#101 = FACE_BOUND( '', #150, .T. );
#102 = PLANE( '', #151 );
#103 = SURFACE_STYLE_USAGE( .BOTH., #152 );
#104 = FACE_OUTER_BOUND( '', #153, .T. );
#105 = FACE_OUTER_BOUND( '', #154, .T. );
#106 = TOROIDAL_SURFACE( '', #155, 153.000000000000, 57.1500000000000 );
#107 = SURFACE_STYLE_USAGE( .BOTH., #156 );
#108 = FACE_OUTER_BOUND( '', #157, .T. );
#109 = FACE_OUTER_BOUND( '', #158, .T. );
#110 = CYLINDRICAL_SURFACE( '', #159, 60.0000000000000 );
#111 = SURFACE_STYLE_USAGE( .BOTH., #160 );
#112 = FACE_OUTER_BOUND( '', #161, .T. );
#113 = FACE_BOUND( '', #162, .T. );
#114 = CONICAL_SURFACE( '', #163, 58.0000000000000, 0.785398163397448 );
#115 = PRODUCT_CONTEXT( '', #21, 'mechanical' );
#116 = PRODUCT_DEFINITION_FORMATION_WITH_SPECIFIED_SOURCE( ' ', 'NONE', #56, .NOT_KNOWN. );
#117 = CLOSED_SHELL( '', ( #51, #55, #45, #35, #47, #43, #49, #37, #53, #41, #39 ) );
#118 = CARTESIAN_POINT( '', ( 0.000000000000000, 0.000000000000000, 0.000000000000000 ) );
#119 = DIRECTION( '', ( 0.000000000000000, 0.000000000000000, 1.00000000000000 ) );
#120 = DIRECTION( '', ( 1.00000000000000, 0.000000000000000, 0.000000000000000 ) );
#121 =  ( LENGTH_UNIT(  )NAMED_UNIT( #65 )SI_UNIT( .MILLI., .METRE. ) );
#122 = SURFACE_SIDE_STYLE( '', ( #165 ) );
#123 = EDGE_LOOP( '', ( #166 ) );
#124 = EDGE_LOOP( '', ( #167 ) );
#125 = AXIS2_PLACEMENT_3D( '', #168, #169, #170 );
#126 = SURFACE_SIDE_STYLE( '', ( #171 ) );
#127 = EDGE_LOOP( '', ( #172 ) );
#128 = EDGE_LOOP( '', ( #173 ) );
#129 = AXIS2_PLACEMENT_3D( '', #174, #175, #176 );
#130 = SURFACE_SIDE_STYLE( '', ( #177 ) );
#131 = EDGE_LOOP( '', ( #178 ) );
#132 = EDGE_LOOP( '', ( #179 ) );
#133 = AXIS2_PLACEMENT_3D( '', #180, #181, #182 );
#134 = SURFACE_SIDE_STYLE( '', ( #183 ) );
#135 = EDGE_LOOP( '', ( #184 ) );
#136 = EDGE_LOOP( '', ( #185 ) );
#137 = AXIS2_PLACEMENT_3D( '', #186, #187, #188 );
#138 = SURFACE_SIDE_STYLE( '', ( #189 ) );
#139 = EDGE_LOOP( '', ( #190 ) );
#140 = EDGE_LOOP( '', ( #191 ) );
#141 = AXIS2_PLACEMENT_3D( '', #192, #193, #194 );
#142 = SURFACE_SIDE_STYLE( '', ( #195 ) );
#143 = EDGE_LOOP( '', ( #196 ) );
#144 = AXIS2_PLACEMENT_3D( '', #197, #198, #199 );
#145 = SURFACE_SIDE_STYLE( '', ( #200 ) );
#146 = EDGE_LOOP( '', ( #201 ) );
#147 = AXIS2_PLACEMENT_3D( '', #202, #203, #204 );
#148 = SURFACE_SIDE_STYLE( '', ( #205 ) );
#149 = EDGE_LOOP( '', ( #206 ) );
#150 = EDGE_LOOP( '', ( #207 ) );
#151 = AXIS2_PLACEMENT_3D( '', #208, #209, #210 );
#152 = SURFACE_SIDE_STYLE( '', ( #211 ) );
#153 = EDGE_LOOP( '', ( #212 ) );
#154 = EDGE_LOOP( '', ( #213 ) );
#155 = AXIS2_PLACEMENT_3D( '', #214, #215, #216 );
#156 = SURFACE_SIDE_STYLE( '', ( #217 ) );
#157 = EDGE_LOOP( '', ( #218 ) );
#158 = EDGE_LOOP( '', ( #219 ) );
#159 = AXIS2_PLACEMENT_3D( '', #220, #221, #222 );
#160 = SURFACE_SIDE_STYLE( '', ( #223 ) );
#161 = EDGE_LOOP( '', ( #224 ) );
#162 = EDGE_LOOP( '', ( #225 ) );
#163 = AXIS2_PLACEMENT_3D( '', #226, #227, #228 );
#165 = SURFACE_STYLE_FILL_AREA( #229 );
#166 = ORIENTED_EDGE( '', *, *, #230, .F. );
#167 = ORIENTED_EDGE( '', *, *, #231, .T. );
#168 = CARTESIAN_POINT( '', ( 115.523340597113, 178.898015640196, 1.94774783665065E-014 ) );
#169 = DIRECTION( '', ( 0.707106781186548, 0.707106781186548, 1.40988725640950E-016 ) );
#170 = DIRECTION( '', ( 0.707106781186548, -0.707106781186548, 0.000000000000000 ) );
#171 = SURFACE_STYLE_FILL_AREA( #232 );
#172 = ORIENTED_EDGE( '', *, *, #233, .F. );
#173 = ORIENTED_EDGE( '', *, *, #234, .F. );
#174 = CARTESIAN_POINT( '', ( 0.000000000000000, -95.0000000000000, 0.000000000000000 ) );
#175 = DIRECTION( '', ( -0.000000000000000, -1.00000000000000, -0.000000000000000 ) );
#176 = DIRECTION( '', ( 0.000000000000000, 0.000000000000000, 1.00000000000000 ) );
#177 = SURFACE_STYLE_FILL_AREA( #235 );
#178 = ORIENTED_EDGE( '', *, *, #236, .T. );
#179 = ORIENTED_EDGE( '', *, *, #237, .F. );
#180 = CARTESIAN_POINT( '', ( 0.000000000000000, -24.0000000000000, 0.000000000000000 ) );
#181 = DIRECTION( '', ( -0.000000000000000, 1.00000000000000, -0.000000000000000 ) );
#182 = DIRECTION( '', ( 0.000000000000000, 0.000000000000000, -1.00000000000000 ) );
#183 = SURFACE_STYLE_FILL_AREA( #238 );
#184 = ORIENTED_EDGE( '', *, *, #239, .T. );
#185 = ORIENTED_EDGE( '', *, *, #233, .T. );
#186 = CARTESIAN_POINT( '', ( 0.000000000000000, -20.0000000000000, 0.000000000000000 ) );
#187 = DIRECTION( '', ( 0.000000000000000, 1.00000000000000, 0.000000000000000 ) );
#188 = DIRECTION( '', ( 0.000000000000000, 0.000000000000000, 1.00000000000000 ) );
#189 = SURFACE_STYLE_FILL_AREA( #240 );
#190 = ORIENTED_EDGE( '', *, *, #241, .F. );
#191 = ORIENTED_EDGE( '', *, *, #237, .T. );
#192 = CARTESIAN_POINT( '', ( 0.000000000000000, -95.0000000000000, 0.000000000000000 ) );
#193 = DIRECTION( '', ( 0.000000000000000, 1.00000000000000, 0.000000000000000 ) );
#194 = DIRECTION( '', ( 0.000000000000000, 0.000000000000000, 1.00000000000000 ) );
#195 = SURFACE_STYLE_FILL_AREA( #242 );
#196 = ORIENTED_EDGE( '', *, *, #230, .T. );
#197 = CARTESIAN_POINT( '', ( 115.523340597113, 178.898015640196, 1.94774783665065E-014 ) );
#198 = DIRECTION( '', ( 0.707106781186548, 0.707106781186548, 1.40988725640950E-016 ) );
#199 = DIRECTION( '', ( -0.707106781186548, 0.707106781186548, 0.000000000000000 ) );
#200 = SURFACE_STYLE_FILL_AREA( #243 );
#201 = ORIENTED_EDGE( '', *, *, #236, .F. );
#202 = CARTESIAN_POINT( '', ( 0.000000000000000, -24.0000000000000, 0.000000000000000 ) );
#203 = DIRECTION( '', ( 0.000000000000000, 1.00000000000000, 0.000000000000000 ) );
#204 = DIRECTION( '', ( 0.000000000000000, 0.000000000000000, 1.00000000000000 ) );
#205 = SURFACE_STYLE_FILL_AREA( #244 );
#206 = ORIENTED_EDGE( '', *, *, #234, .T. );
#207 = ORIENTED_EDGE( '', *, *, #245, .F. );
#208 = CARTESIAN_POINT( '', ( 0.000000000000000, 0.000000000000000, 0.000000000000000 ) );
#209 = DIRECTION( '', ( 0.000000000000000, 1.00000000000000, 0.000000000000000 ) );
#210 = DIRECTION( '', ( 0.000000000000000, 0.000000000000000, 1.00000000000000 ) );
#211 = SURFACE_STYLE_FILL_AREA( #246 );
#212 = ORIENTED_EDGE( '', *, *, #245, .T. );
#213 = ORIENTED_EDGE( '', *, *, #231, .F. );
#214 = CARTESIAN_POINT( '', ( 153.000000000000, 0.000000000000000, 2.77555756156289E-014 ) );
#215 = DIRECTION( '', ( -1.99388167943131E-016, 0.000000000000000, 1.00000000000000 ) );
#216 = DIRECTION( '', ( 1.00000000000000, 0.000000000000000, 1.99388167943131E-016 ) );
#217 = SURFACE_STYLE_FILL_AREA( #247 );
#218 = ORIENTED_EDGE( '', *, *, #248, .T. );
#219 = ORIENTED_EDGE( '', *, *, #241, .T. );
#220 = CARTESIAN_POINT( '', ( 0.000000000000000, -20.0000000000000, 0.000000000000000 ) );
#221 = DIRECTION( '', ( -0.000000000000000, 1.00000000000000, -0.000000000000000 ) );
#222 = DIRECTION( '', ( 0.000000000000000, 0.000000000000000, -1.00000000000000 ) );
#223 = SURFACE_STYLE_FILL_AREA( #249 );
#224 = ORIENTED_EDGE( '', *, *, #248, .F. );
#225 = ORIENTED_EDGE( '', *, *, #239, .F. );
#226 = CARTESIAN_POINT( '', ( 0.000000000000000, -20.0000000000000, 0.000000000000000 ) );
#227 = DIRECTION( '', ( 0.000000000000000, -1.00000000000000, -0.000000000000000 ) );
#228 = DIRECTION( '', ( 0.000000000000000, 0.000000000000000, -1.00000000000000 ) );
#229 = FILL_AREA_STYLE( '', ( #250 ) );
#230 = EDGE_CURVE( '', #251, #251, #252, .T. );
#231 = EDGE_CURVE( '', #253, #253, #254, .T. );
#232 = FILL_AREA_STYLE( '', ( #255 ) );
#233 = EDGE_CURVE( '', #256, #256, #257, .F. );
#234 = EDGE_CURVE( '', #258, #258, #259, .T. );
#235 = FILL_AREA_STYLE( '', ( #260 ) );
#236 = EDGE_CURVE( '', #261, #261, #262, .T. );
#237 = EDGE_CURVE( '', #263, #263, #264, .T. );
#238 = FILL_AREA_STYLE( '', ( #265 ) );
#239 = EDGE_CURVE( '', #266, #266, #267, .T. );
#240 = FILL_AREA_STYLE( '', ( #268 ) );
#241 = EDGE_CURVE( '', #269, #269, #270, .T. );
#242 = FILL_AREA_STYLE( '', ( #271 ) );
#243 = FILL_AREA_STYLE( '', ( #272 ) );
#244 = FILL_AREA_STYLE( '', ( #273 ) );
#245 = EDGE_CURVE( '', #274, #274, #275, .T. );
#246 = FILL_AREA_STYLE( '', ( #276 ) );
#247 = FILL_AREA_STYLE( '', ( #277 ) );
#248 = EDGE_CURVE( '', #278, #278, #279, .F. );
#249 = FILL_AREA_STYLE( '', ( #280 ) );
#250 = FILL_AREA_STYLE_COLOUR( '', #281 );
#251 = VERTEX_POINT( '', #282 );
#252 = CIRCLE( '', #283, 57.1500000000000 );
#253 = VERTEX_POINT( '', #284 );
#254 = CIRCLE( '', #285, 57.1500000000000 );
#255 = FILL_AREA_STYLE_COLOUR( '', #286 );
#256 = VERTEX_POINT( '', #287 );
#257 = CIRCLE( '', #288, 57.5000000000000 );
#258 = VERTEX_POINT( '', #289 );
#259 = CIRCLE( '', #290, 57.5000000000000 );
#260 = FILL_AREA_STYLE_COLOUR( '', #291 );
#261 = VERTEX_POINT( '', #292 );
#262 = CIRCLE( '', #293, 57.1500000000000 );
#263 = VERTEX_POINT( '', #294 );
#264 = CIRCLE( '', #295, 57.1500000000000 );
#265 = FILL_AREA_STYLE_COLOUR( '', #296 );
#266 = VERTEX_POINT( '', #297 );
#267 = CIRCLE( '', #298, 58.0000000000000 );
#268 = FILL_AREA_STYLE_COLOUR( '', #299 );
#269 = VERTEX_POINT( '', #300 );
#270 = CIRCLE( '', #301, 60.0000000000000 );
#271 = FILL_AREA_STYLE_COLOUR( '', #302 );
#272 = FILL_AREA_STYLE_COLOUR( '', #303 );
#273 = FILL_AREA_STYLE_COLOUR( '', #304 );
#274 = VERTEX_POINT( '', #305 );
#275 = CIRCLE( '', #306, 57.1500000000000 );
#276 = FILL_AREA_STYLE_COLOUR( '', #307 );
#277 = FILL_AREA_STYLE_COLOUR( '', #308 );
#278 = VERTEX_POINT( '', #309 );
#279 = CIRCLE( '', #310, 60.0000000000000 );
#280 = FILL_AREA_STYLE_COLOUR( '', #311 );
#281 = COLOUR_RGB( '', 0.898039221763611, 0.898039221763611, 0.000000000000000 );
#282 = CARTESIAN_POINT( '', ( 75.1121880523018, 219.309168185008, 1.94774783665065E-014 ) );
#283 = AXIS2_PLACEMENT_3D( '', #312, #313, #314 );
#284 = CARTESIAN_POINT( '', ( 44.8126624784582, 108.187337521542, -57.1500000000000 ) );
#285 = AXIS2_PLACEMENT_3D( '', #315, #316, #317 );
#286 = COLOUR_RGB( '', 0.898039221763611, 0.898039221763611, 0.000000000000000 );
#287 = CARTESIAN_POINT( '', ( 0.000000000000000, -20.0000000000000, 57.5000000000000 ) );
#288 = AXIS2_PLACEMENT_3D( '', #318, #319, #320 );
#289 = CARTESIAN_POINT( '', ( 0.000000000000000, 0.000000000000000, 57.5000000000000 ) );
#290 = AXIS2_PLACEMENT_3D( '', #321, #322, #323 );
#291 = COLOUR_RGB( '', 0.898039221763611, 0.898039221763611, 0.000000000000000 );
#292 = CARTESIAN_POINT( '', ( 57.1500000000000, -24.0000000000000, 0.000000000000000 ) );
#293 = AXIS2_PLACEMENT_3D( '', #324, #325, #326 );
#294 = CARTESIAN_POINT( '', ( 57.1500000000000, -95.0000000000000, 0.000000000000000 ) );
#295 = AXIS2_PLACEMENT_3D( '', #327, #328, #329 );
#296 = COLOUR_RGB( '', 0.898039221763611, 0.898039221763611, 0.000000000000000 );
#297 = CARTESIAN_POINT( '', ( 0.000000000000000, -20.0000000000000, 58.0000000000000 ) );
#298 = AXIS2_PLACEMENT_3D( '', #330, #331, #332 );
#299 = COLOUR_RGB( '', 0.898039221763611, 0.898039221763611, 0.000000000000000 );
#300 = CARTESIAN_POINT( '', ( 60.0000000000000, -95.0000000000000, 0.000000000000000 ) );
#301 = AXIS2_PLACEMENT_3D( '', #333, #334, #335 );
#302 = COLOUR_RGB( '', 0.898039221763611, 0.898039221763611, 0.000000000000000 );
#303 = COLOUR_RGB( '', 0.898039221763611, 0.898039221763611, 0.000000000000000 );
#304 = COLOUR_RGB( '', 0.898039221763611, 0.898039221763611, 0.000000000000000 );
#305 = CARTESIAN_POINT( '', ( 0.000000000000000, 0.000000000000000, 57.1500000000000 ) );
#306 = AXIS2_PLACEMENT_3D( '', #336, #337, #338 );
#307 = COLOUR_RGB( '', 0.898039221763611, 0.898039221763611, 0.000000000000000 );
#308 = COLOUR_RGB( '', 0.898039221763611, 0.898039221763611, 0.000000000000000 );
#309 = CARTESIAN_POINT( '', ( 0.000000000000000, -22.0000000000000, 60.0000000000000 ) );
#310 = AXIS2_PLACEMENT_3D( '', #339, #340, #341 );
#311 = COLOUR_RGB( '', 0.898039221763611, 0.898039221763611, 0.000000000000000 );
#312 = CARTESIAN_POINT( '', ( 115.523340597113, 178.898015640196, 1.94774783665065E-014 ) );
#313 = DIRECTION( '', ( 0.707106781186548, 0.707106781186548, 1.40988725640950E-016 ) );
#314 = DIRECTION( '', ( -0.707106781186548, 0.707106781186548, 0.000000000000000 ) );
#315 = CARTESIAN_POINT( '', ( 44.8126624784582, 108.187337521542, 5.37860580241151E-015 ) );
#316 = DIRECTION( '', ( 0.707106781186548, 0.707106781186548, 1.40988725640950E-016 ) );
#317 = DIRECTION( '', ( 1.99388167943131E-016, -1.04589167905263E-031, -1.00000000000000 ) );
#318 = CARTESIAN_POINT( '', ( 0.000000000000000, -20.0000000000000, 0.000000000000000 ) );
#319 = DIRECTION( '', ( 0.000000000000000, 1.00000000000000, 0.000000000000000 ) );
#320 = DIRECTION( '', ( 0.000000000000000, 0.000000000000000, 1.00000000000000 ) );
#321 = CARTESIAN_POINT( '', ( 0.000000000000000, 0.000000000000000, 0.000000000000000 ) );
#322 = DIRECTION( '', ( 0.000000000000000, 1.00000000000000, 0.000000000000000 ) );
#323 = DIRECTION( '', ( 0.000000000000000, 0.000000000000000, 1.00000000000000 ) );
#324 = CARTESIAN_POINT( '', ( 0.000000000000000, -24.0000000000000, 0.000000000000000 ) );
#325 = DIRECTION( '', ( -0.000000000000000, 1.00000000000000, 0.000000000000000 ) );
#326 = DIRECTION( '', ( 1.00000000000000, 0.000000000000000, 0.000000000000000 ) );
#327 = CARTESIAN_POINT( '', ( 0.000000000000000, -95.0000000000000, 0.000000000000000 ) );
#328 = DIRECTION( '', ( -0.000000000000000, 1.00000000000000, 0.000000000000000 ) );
#329 = DIRECTION( '', ( 1.00000000000000, 0.000000000000000, 0.000000000000000 ) );
#330 = CARTESIAN_POINT( '', ( 0.000000000000000, -20.0000000000000, 0.000000000000000 ) );
#331 = DIRECTION( '', ( 0.000000000000000, 1.00000000000000, 0.000000000000000 ) );
#332 = DIRECTION( '', ( 0.000000000000000, 0.000000000000000, 1.00000000000000 ) );
#333 = CARTESIAN_POINT( '', ( 0.000000000000000, -95.0000000000000, 0.000000000000000 ) );
#334 = DIRECTION( '', ( -0.000000000000000, 1.00000000000000, 0.000000000000000 ) );
#335 = DIRECTION( '', ( 1.00000000000000, 0.000000000000000, 0.000000000000000 ) );
#336 = CARTESIAN_POINT( '', ( 0.000000000000000, 0.000000000000000, -2.75081407967021E-015 ) );
#337 = DIRECTION( '', ( 0.000000000000000, 1.00000000000000, 0.000000000000000 ) );
#338 = DIRECTION( '', ( 0.000000000000000, 0.000000000000000, 1.00000000000000 ) );
#339 = CARTESIAN_POINT( '', ( 0.000000000000000, -22.0000000000000, 0.000000000000000 ) );
#340 = DIRECTION( '', ( 0.000000000000000, 1.00000000000000, 0.000000000000000 ) );
#341 = DIRECTION( '', ( 0.000000000000000, 0.000000000000000, 1.00000000000000 ) );
ENDSEC;
END-ISO-10303-21;
