ISO-10303-21;
HEADER;
/* Generated by software containing ST-Developer
 * from STEP Tools, Inc. (www.steptools.com) 
 */
/* OPTION: strings as raw bytes, not using required /X/ escapes */

FILE_DESCRIPTION(
/* description */ ('Unknown'),
/* implementation_level */ '2;1');

FILE_NAME(
/* name */ 'F39R2DN54',
/* time_stamp */ '2016-07-07T14:45:24+02:00',
/* author */ ('Unknown'),
/* organization */ ('Unknown'),
/* preprocessor_version */ 'ST-DEVELOPER v16',
/* originating_system */ 'DEX',
/* authorisation */ $);

FILE_SCHEMA (('AUTOMOTIVE_DESIGN {1 0 10303 214 3 1 1}'));
ENDSEC;

DATA;
#10=PROPERTY_DEFINITION_REPRESENTATION(#14,#12);
#11=PROPERTY_DEFINITION_REPRESENTATION(#15,#13);
#12=REPRESENTATION('',(#16),#654);
#13=REPRESENTATION('',(#17),#654);
#14=PROPERTY_DEFINITION('pmi validation property','',#663);
#15=PROPERTY_DEFINITION('pmi validation property','',#663);
#16=VALUE_REPRESENTATION_ITEM('number of annotations',COUNT_MEASURE(0.));
#17=VALUE_REPRESENTATION_ITEM('number of views',COUNT_MEASURE(0.));
#18=LINE('',#595,#36);
#19=LINE('',#598,#37);
#20=LINE('',#600,#38);
#21=LINE('',#602,#39);
#22=LINE('',#604,#40);
#23=LINE('',#606,#41);
#24=LINE('',#608,#42);
#25=LINE('',#610,#43);
#26=LINE('',#612,#44);
#27=LINE('',#614,#45);
#28=LINE('',#616,#46);
#29=LINE('',#618,#47);
#30=LINE('',#620,#48);
#31=LINE('',#622,#49);
#32=LINE('',#624,#50);
#33=LINE('',#626,#51);
#34=LINE('',#628,#52);
#35=LINE('',#629,#53);
#36=VECTOR('',#510,1000.);
#37=VECTOR('',#511,1000.);
#38=VECTOR('',#512,1000.);
#39=VECTOR('',#513,1000.);
#40=VECTOR('',#516,1000.);
#41=VECTOR('',#517,1000.);
#42=VECTOR('',#518,1000.);
#43=VECTOR('',#521,1000.);
#44=VECTOR('',#522,1000.);
#45=VECTOR('',#523,1000.);
#46=VECTOR('',#526,1000.);
#47=VECTOR('',#527,1000.);
#48=VECTOR('',#528,1000.);
#49=VECTOR('',#531,1000.);
#50=VECTOR('',#532,1000.);
#51=VECTOR('',#533,1000.);
#52=VECTOR('',#536,1000.);
#53=VECTOR('',#537,1000.);
#54=CONTEXT_DEPENDENT_SHAPE_REPRESENTATION(#58,#665);
#55=CONTEXT_DEPENDENT_SHAPE_REPRESENTATION(#59,#667);
#56=NEXT_ASSEMBLY_USAGE_OCCURRENCE('COD90MHDN54corteGEN',
'COD90MHDN54corteGEN','COD90MHDN54corteGEN',#668,#669,'');
#57=NEXT_ASSEMBLY_USAGE_OCCURRENCE('ROSCAM2_53gen','ROSCAM2_53gen',
'ROSCAM2_53gen',#668,#670,'');
#58=(
REPRESENTATION_RELATIONSHIP(' ',' ',#432,#433)
REPRESENTATION_RELATIONSHIP_WITH_TRANSFORMATION(#60)
SHAPE_REPRESENTATION_RELATIONSHIP()
);
#59=(
REPRESENTATION_RELATIONSHIP(' ',' ',#434,#433)
REPRESENTATION_RELATIONSHIP_WITH_TRANSFORMATION(#61)
SHAPE_REPRESENTATION_RELATIONSHIP()
);
#60=ITEM_DEFINED_TRANSFORMATION(' ',' ',#435,#451);
#61=ITEM_DEFINED_TRANSFORMATION(' ',' ',#435,#473);
#62=SHAPE_REPRESENTATION_RELATIONSHIP('','',#432,#64);
#63=SHAPE_REPRESENTATION_RELATIONSHIP('','',#434,#65);
#64=ADVANCED_BREP_SHAPE_REPRESENTATION('',(#427),#655);
#65=ADVANCED_BREP_SHAPE_REPRESENTATION('',(#428),#656);
#66=TOROIDAL_SURFACE('',#446,65.,27.5);
#67=CONICAL_SURFACE('',#444,27.5,0.785398163397447);
#68=CONICAL_SURFACE('',#472,30.25,0.0436332312998582);
#69=CYLINDRICAL_SURFACE('',#439,29.5);
#70=CYLINDRICAL_SURFACE('',#441,27.);
#71=CYLINDRICAL_SURFACE('',#448,27.5);
#72=CYLINDRICAL_SURFACE('',#461,30.25);
#73=CYLINDRICAL_SURFACE('',#467,25.);
#74=CYLINDRICAL_SURFACE('',#469,26.5);
#75=ORIENTED_EDGE('',*,*,#139,.F.);
#76=ORIENTED_EDGE('',*,*,#140,.T.);
#77=ORIENTED_EDGE('',*,*,#141,.T.);
#78=ORIENTED_EDGE('',*,*,#139,.T.);
#79=ORIENTED_EDGE('',*,*,#142,.T.);
#80=ORIENTED_EDGE('',*,*,#140,.F.);
#81=ORIENTED_EDGE('',*,*,#142,.F.);
#82=ORIENTED_EDGE('',*,*,#141,.F.);
#83=ORIENTED_EDGE('',*,*,#143,.F.);
#84=ORIENTED_EDGE('',*,*,#144,.F.);
#85=ORIENTED_EDGE('',*,*,#143,.T.);
#86=ORIENTED_EDGE('',*,*,#145,.F.);
#87=ORIENTED_EDGE('',*,*,#144,.T.);
#88=ORIENTED_EDGE('',*,*,#145,.T.);
#89=ORIENTED_EDGE('',*,*,#146,.F.);
#90=ORIENTED_EDGE('',*,*,#147,.T.);
#91=ORIENTED_EDGE('',*,*,#148,.T.);
#92=ORIENTED_EDGE('',*,*,#149,.T.);
#93=ORIENTED_EDGE('',*,*,#148,.F.);
#94=ORIENTED_EDGE('',*,*,#150,.T.);
#95=ORIENTED_EDGE('',*,*,#151,.T.);
#96=ORIENTED_EDGE('',*,*,#152,.T.);
#97=ORIENTED_EDGE('',*,*,#151,.F.);
#98=ORIENTED_EDGE('',*,*,#153,.T.);
#99=ORIENTED_EDGE('',*,*,#154,.T.);
#100=ORIENTED_EDGE('',*,*,#155,.T.);
#101=ORIENTED_EDGE('',*,*,#154,.F.);
#102=ORIENTED_EDGE('',*,*,#156,.T.);
#103=ORIENTED_EDGE('',*,*,#157,.T.);
#104=ORIENTED_EDGE('',*,*,#158,.T.);
#105=ORIENTED_EDGE('',*,*,#157,.F.);
#106=ORIENTED_EDGE('',*,*,#159,.T.);
#107=ORIENTED_EDGE('',*,*,#160,.T.);
#108=ORIENTED_EDGE('',*,*,#161,.T.);
#109=ORIENTED_EDGE('',*,*,#160,.F.);
#110=ORIENTED_EDGE('',*,*,#162,.T.);
#111=ORIENTED_EDGE('',*,*,#146,.T.);
#112=ORIENTED_EDGE('',*,*,#163,.T.);
#113=ORIENTED_EDGE('',*,*,#164,.T.);
#114=ORIENTED_EDGE('',*,*,#165,.T.);
#115=ORIENTED_EDGE('',*,*,#166,.T.);
#116=ORIENTED_EDGE('',*,*,#167,.T.);
#117=ORIENTED_EDGE('',*,*,#166,.F.);
#118=ORIENTED_EDGE('',*,*,#163,.F.);
#119=ORIENTED_EDGE('',*,*,#149,.F.);
#120=ORIENTED_EDGE('',*,*,#152,.F.);
#121=ORIENTED_EDGE('',*,*,#155,.F.);
#122=ORIENTED_EDGE('',*,*,#158,.F.);
#123=ORIENTED_EDGE('',*,*,#161,.F.);
#124=ORIENTED_EDGE('',*,*,#147,.F.);
#125=ORIENTED_EDGE('',*,*,#162,.F.);
#126=ORIENTED_EDGE('',*,*,#159,.F.);
#127=ORIENTED_EDGE('',*,*,#156,.F.);
#128=ORIENTED_EDGE('',*,*,#153,.F.);
#129=ORIENTED_EDGE('',*,*,#150,.F.);
#130=ORIENTED_EDGE('',*,*,#168,.F.);
#131=ORIENTED_EDGE('',*,*,#164,.F.);
#132=ORIENTED_EDGE('',*,*,#169,.F.);
#133=ORIENTED_EDGE('',*,*,#170,.T.);
#134=ORIENTED_EDGE('',*,*,#168,.T.);
#135=ORIENTED_EDGE('',*,*,#169,.T.);
#136=ORIENTED_EDGE('',*,*,#170,.F.);
#137=ORIENTED_EDGE('',*,*,#165,.F.);
#138=ORIENTED_EDGE('',*,*,#167,.F.);
#139=EDGE_CURVE('',#171,#171,#197,.T.);
#140=EDGE_CURVE('',#172,#172,#198,.T.);
#141=EDGE_CURVE('',#173,#173,#199,.F.);
#142=EDGE_CURVE('',#174,#174,#200,.T.);
#143=EDGE_CURVE('',#175,#175,#201,.T.);
#144=EDGE_CURVE('',#176,#176,#202,.T.);
#145=EDGE_CURVE('',#177,#177,#203,.T.);
#146=EDGE_CURVE('',#178,#179,#18,.T.);
#147=EDGE_CURVE('',#178,#180,#19,.T.);
#148=EDGE_CURVE('',#180,#181,#20,.T.);
#149=EDGE_CURVE('',#181,#179,#21,.T.);
#150=EDGE_CURVE('',#180,#182,#22,.T.);
#151=EDGE_CURVE('',#182,#183,#23,.T.);
#152=EDGE_CURVE('',#183,#181,#24,.T.);
#153=EDGE_CURVE('',#182,#184,#25,.T.);
#154=EDGE_CURVE('',#184,#185,#26,.T.);
#155=EDGE_CURVE('',#185,#183,#27,.T.);
#156=EDGE_CURVE('',#184,#186,#28,.T.);
#157=EDGE_CURVE('',#186,#187,#29,.T.);
#158=EDGE_CURVE('',#187,#185,#30,.T.);
#159=EDGE_CURVE('',#186,#188,#31,.T.);
#160=EDGE_CURVE('',#188,#189,#32,.T.);
#161=EDGE_CURVE('',#189,#187,#33,.T.);
#162=EDGE_CURVE('',#188,#178,#34,.T.);
#163=EDGE_CURVE('',#179,#189,#35,.T.);
#164=EDGE_CURVE('',#190,#190,#204,.F.);
#165=EDGE_CURVE('',#191,#191,#205,.T.);
#166=EDGE_CURVE('',#192,#192,#206,.F.);
#167=EDGE_CURVE('',#193,#193,#207,.T.);
#168=EDGE_CURVE('',#194,#194,#208,.T.);
#169=EDGE_CURVE('',#195,#195,#209,.T.);
#170=EDGE_CURVE('',#196,#196,#210,.T.);
#171=VERTEX_POINT('',#573);
#172=VERTEX_POINT('',#575);
#173=VERTEX_POINT('',#578);
#174=VERTEX_POINT('',#581);
#175=VERTEX_POINT('',#585);
#176=VERTEX_POINT('',#588);
#177=VERTEX_POINT('',#591);
#178=VERTEX_POINT('',#596);
#179=VERTEX_POINT('',#597);
#180=VERTEX_POINT('',#599);
#181=VERTEX_POINT('',#601);
#182=VERTEX_POINT('',#605);
#183=VERTEX_POINT('',#607);
#184=VERTEX_POINT('',#611);
#185=VERTEX_POINT('',#613);
#186=VERTEX_POINT('',#617);
#187=VERTEX_POINT('',#619);
#188=VERTEX_POINT('',#623);
#189=VERTEX_POINT('',#625);
#190=VERTEX_POINT('',#632);
#191=VERTEX_POINT('',#634);
#192=VERTEX_POINT('',#637);
#193=VERTEX_POINT('',#639);
#194=VERTEX_POINT('',#643);
#195=VERTEX_POINT('',#646);
#196=VERTEX_POINT('',#649);
#197=CIRCLE('',#437,29.5);
#198=CIRCLE('',#438,27.);
#199=CIRCLE('',#440,29.5);
#200=CIRCLE('',#442,27.);
#201=CIRCLE('',#445,27.5);
#202=CIRCLE('',#447,27.5);
#203=CIRCLE('',#449,27.5);
#204=CIRCLE('',#459,25.);
#205=CIRCLE('',#460,29.1279137672512);
#206=CIRCLE('',#462,30.25);
#207=CIRCLE('',#463,30.25);
#208=CIRCLE('',#466,26.5);
#209=CIRCLE('',#468,25.);
#210=CIRCLE('',#470,26.5);
#211=EDGE_LOOP('',(#75));
#212=EDGE_LOOP('',(#76));
#213=EDGE_LOOP('',(#77));
#214=EDGE_LOOP('',(#78));
#215=EDGE_LOOP('',(#79));
#216=EDGE_LOOP('',(#80));
#217=EDGE_LOOP('',(#81));
#218=EDGE_LOOP('',(#82));
#219=EDGE_LOOP('',(#83));
#220=EDGE_LOOP('',(#84));
#221=EDGE_LOOP('',(#85));
#222=EDGE_LOOP('',(#86));
#223=EDGE_LOOP('',(#87));
#224=EDGE_LOOP('',(#88));
#225=EDGE_LOOP('',(#89,#90,#91,#92));
#226=EDGE_LOOP('',(#93,#94,#95,#96));
#227=EDGE_LOOP('',(#97,#98,#99,#100));
#228=EDGE_LOOP('',(#101,#102,#103,#104));
#229=EDGE_LOOP('',(#105,#106,#107,#108));
#230=EDGE_LOOP('',(#109,#110,#111,#112));
#231=EDGE_LOOP('',(#113));
#232=EDGE_LOOP('',(#114));
#233=EDGE_LOOP('',(#115));
#234=EDGE_LOOP('',(#116));
#235=EDGE_LOOP('',(#117));
#236=EDGE_LOOP('',(#118,#119,#120,#121,#122,#123));
#237=EDGE_LOOP('',(#124,#125,#126,#127,#128,#129));
#238=EDGE_LOOP('',(#130));
#239=EDGE_LOOP('',(#131));
#240=EDGE_LOOP('',(#132));
#241=EDGE_LOOP('',(#133));
#242=EDGE_LOOP('',(#134));
#243=EDGE_LOOP('',(#135));
#244=EDGE_LOOP('',(#136));
#245=EDGE_LOOP('',(#137));
#246=EDGE_LOOP('',(#138));
#247=FACE_BOUND('',#211,.T.);
#248=FACE_BOUND('',#212,.T.);
#249=FACE_BOUND('',#213,.T.);
#250=FACE_BOUND('',#214,.T.);
#251=FACE_BOUND('',#215,.T.);
#252=FACE_BOUND('',#216,.T.);
#253=FACE_BOUND('',#217,.T.);
#254=FACE_BOUND('',#218,.T.);
#255=FACE_BOUND('',#219,.T.);
#256=FACE_BOUND('',#220,.T.);
#257=FACE_BOUND('',#221,.T.);
#258=FACE_BOUND('',#222,.T.);
#259=FACE_BOUND('',#223,.T.);
#260=FACE_BOUND('',#224,.T.);
#261=FACE_BOUND('',#225,.T.);
#262=FACE_BOUND('',#226,.T.);
#263=FACE_BOUND('',#227,.T.);
#264=FACE_BOUND('',#228,.T.);
#265=FACE_BOUND('',#229,.T.);
#266=FACE_BOUND('',#230,.T.);
#267=FACE_BOUND('',#231,.T.);
#268=FACE_BOUND('',#232,.T.);
#269=FACE_BOUND('',#233,.T.);
#270=FACE_BOUND('',#234,.T.);
#271=FACE_BOUND('',#235,.T.);
#272=FACE_BOUND('',#236,.T.);
#273=FACE_BOUND('',#237,.T.);
#274=FACE_BOUND('',#238,.T.);
#275=FACE_BOUND('',#239,.T.);
#276=FACE_BOUND('',#240,.T.);
#277=FACE_BOUND('',#241,.T.);
#278=FACE_BOUND('',#242,.T.);
#279=FACE_BOUND('',#243,.T.);
#280=FACE_BOUND('',#244,.T.);
#281=FACE_BOUND('',#245,.T.);
#282=FACE_BOUND('',#246,.T.);
#283=PLANE('',#436);
#284=PLANE('',#443);
#285=PLANE('',#450);
#286=PLANE('',#452);
#287=PLANE('',#453);
#288=PLANE('',#454);
#289=PLANE('',#455);
#290=PLANE('',#456);
#291=PLANE('',#457);
#292=PLANE('',#458);
#293=PLANE('',#464);
#294=PLANE('',#465);
#295=PLANE('',#471);
#296=ADVANCED_FACE('',(#247,#248),#283,.F.);
#297=ADVANCED_FACE('',(#249,#250),#69,.T.);
#298=ADVANCED_FACE('',(#251,#252),#70,.F.);
#299=ADVANCED_FACE('',(#253),#284,.F.);
#300=ADVANCED_FACE('',(#254,#255),#67,.T.);
#301=ADVANCED_FACE('',(#256,#257),#66,.T.);
#302=ADVANCED_FACE('',(#258,#259),#71,.T.);
#303=ADVANCED_FACE('',(#260),#285,.T.);
#304=ADVANCED_FACE('',(#261),#286,.F.);
#305=ADVANCED_FACE('',(#262),#287,.F.);
#306=ADVANCED_FACE('',(#263),#288,.F.);
#307=ADVANCED_FACE('',(#264),#289,.F.);
#308=ADVANCED_FACE('',(#265),#290,.F.);
#309=ADVANCED_FACE('',(#266),#291,.F.);
#310=ADVANCED_FACE('',(#267,#268),#292,.T.);
#311=ADVANCED_FACE('',(#269,#270),#72,.T.);
#312=ADVANCED_FACE('',(#271,#272),#293,.F.);
#313=ADVANCED_FACE('',(#273,#274),#294,.T.);
#314=ADVANCED_FACE('',(#275,#276),#73,.F.);
#315=ADVANCED_FACE('',(#277,#278),#74,.T.);
#316=ADVANCED_FACE('',(#279,#280),#295,.F.);
#317=ADVANCED_FACE('',(#281,#282),#68,.T.);
#318=CLOSED_SHELL('',(#296,#297,#298,#299,#300,#301,#302,#303));
#319=CLOSED_SHELL('',(#304,#305,#306,#307,#308,#309,#310,#311,#312,#313,
#314,#315,#316,#317));
#320=STYLED_ITEM('',(#335),#427);
#321=STYLED_ITEM('',(#336),#304);
#322=STYLED_ITEM('',(#337),#305);
#323=STYLED_ITEM('',(#338),#306);
#324=STYLED_ITEM('',(#339),#307);
#325=STYLED_ITEM('',(#340),#308);
#326=STYLED_ITEM('',(#341),#309);
#327=STYLED_ITEM('',(#342),#310);
#328=STYLED_ITEM('',(#343),#311);
#329=STYLED_ITEM('',(#344),#312);
#330=STYLED_ITEM('',(#345),#313);
#331=STYLED_ITEM('',(#346),#314);
#332=STYLED_ITEM('',(#347),#315);
#333=STYLED_ITEM('',(#348),#316);
#334=STYLED_ITEM('',(#349),#317);
#335=PRESENTATION_STYLE_ASSIGNMENT((#350));
#336=PRESENTATION_STYLE_ASSIGNMENT((#351));
#337=PRESENTATION_STYLE_ASSIGNMENT((#352));
#338=PRESENTATION_STYLE_ASSIGNMENT((#353));
#339=PRESENTATION_STYLE_ASSIGNMENT((#354));
#340=PRESENTATION_STYLE_ASSIGNMENT((#355));
#341=PRESENTATION_STYLE_ASSIGNMENT((#356));
#342=PRESENTATION_STYLE_ASSIGNMENT((#357));
#343=PRESENTATION_STYLE_ASSIGNMENT((#358));
#344=PRESENTATION_STYLE_ASSIGNMENT((#359));
#345=PRESENTATION_STYLE_ASSIGNMENT((#360));
#346=PRESENTATION_STYLE_ASSIGNMENT((#361));
#347=PRESENTATION_STYLE_ASSIGNMENT((#362));
#348=PRESENTATION_STYLE_ASSIGNMENT((#363));
#349=PRESENTATION_STYLE_ASSIGNMENT((#364));
#350=SURFACE_STYLE_USAGE(.BOTH.,#365);
#351=SURFACE_STYLE_USAGE(.BOTH.,#366);
#352=SURFACE_STYLE_USAGE(.BOTH.,#367);
#353=SURFACE_STYLE_USAGE(.BOTH.,#368);
#354=SURFACE_STYLE_USAGE(.BOTH.,#369);
#355=SURFACE_STYLE_USAGE(.BOTH.,#370);
#356=SURFACE_STYLE_USAGE(.BOTH.,#371);
#357=SURFACE_STYLE_USAGE(.BOTH.,#372);
#358=SURFACE_STYLE_USAGE(.BOTH.,#373);
#359=SURFACE_STYLE_USAGE(.BOTH.,#374);
#360=SURFACE_STYLE_USAGE(.BOTH.,#375);
#361=SURFACE_STYLE_USAGE(.BOTH.,#376);
#362=SURFACE_STYLE_USAGE(.BOTH.,#377);
#363=SURFACE_STYLE_USAGE(.BOTH.,#378);
#364=SURFACE_STYLE_USAGE(.BOTH.,#379);
#365=SURFACE_SIDE_STYLE('',(#380));
#366=SURFACE_SIDE_STYLE('',(#381));
#367=SURFACE_SIDE_STYLE('',(#382));
#368=SURFACE_SIDE_STYLE('',(#383));
#369=SURFACE_SIDE_STYLE('',(#384));
#370=SURFACE_SIDE_STYLE('',(#385));
#371=SURFACE_SIDE_STYLE('',(#386));
#372=SURFACE_SIDE_STYLE('',(#387));
#373=SURFACE_SIDE_STYLE('',(#388));
#374=SURFACE_SIDE_STYLE('',(#389));
#375=SURFACE_SIDE_STYLE('',(#390));
#376=SURFACE_SIDE_STYLE('',(#391));
#377=SURFACE_SIDE_STYLE('',(#392));
#378=SURFACE_SIDE_STYLE('',(#393));
#379=SURFACE_SIDE_STYLE('',(#394));
#380=SURFACE_STYLE_FILL_AREA(#395);
#381=SURFACE_STYLE_FILL_AREA(#396);
#382=SURFACE_STYLE_FILL_AREA(#397);
#383=SURFACE_STYLE_FILL_AREA(#398);
#384=SURFACE_STYLE_FILL_AREA(#399);
#385=SURFACE_STYLE_FILL_AREA(#400);
#386=SURFACE_STYLE_FILL_AREA(#401);
#387=SURFACE_STYLE_FILL_AREA(#402);
#388=SURFACE_STYLE_FILL_AREA(#403);
#389=SURFACE_STYLE_FILL_AREA(#404);
#390=SURFACE_STYLE_FILL_AREA(#405);
#391=SURFACE_STYLE_FILL_AREA(#406);
#392=SURFACE_STYLE_FILL_AREA(#407);
#393=SURFACE_STYLE_FILL_AREA(#408);
#394=SURFACE_STYLE_FILL_AREA(#409);
#395=FILL_AREA_STYLE('',(#410));
#396=FILL_AREA_STYLE('',(#411));
#397=FILL_AREA_STYLE('',(#412));
#398=FILL_AREA_STYLE('',(#413));
#399=FILL_AREA_STYLE('',(#414));
#400=FILL_AREA_STYLE('',(#415));
#401=FILL_AREA_STYLE('',(#416));
#402=FILL_AREA_STYLE('',(#417));
#403=FILL_AREA_STYLE('',(#418));
#404=FILL_AREA_STYLE('',(#419));
#405=FILL_AREA_STYLE('',(#420));
#406=FILL_AREA_STYLE('',(#421));
#407=FILL_AREA_STYLE('',(#422));
#408=FILL_AREA_STYLE('',(#423));
#409=FILL_AREA_STYLE('',(#424));
#410=FILL_AREA_STYLE_COLOUR('',#425);
#411=FILL_AREA_STYLE_COLOUR('',#425);
#412=FILL_AREA_STYLE_COLOUR('',#425);
#413=FILL_AREA_STYLE_COLOUR('',#425);
#414=FILL_AREA_STYLE_COLOUR('',#425);
#415=FILL_AREA_STYLE_COLOUR('',#425);
#416=FILL_AREA_STYLE_COLOUR('',#425);
#417=FILL_AREA_STYLE_COLOUR('',#425);
#418=FILL_AREA_STYLE_COLOUR('',#425);
#419=FILL_AREA_STYLE_COLOUR('',#425);
#420=FILL_AREA_STYLE_COLOUR('',#425);
#421=FILL_AREA_STYLE_COLOUR('',#425);
#422=FILL_AREA_STYLE_COLOUR('',#425);
#423=FILL_AREA_STYLE_COLOUR('',#425);
#424=FILL_AREA_STYLE_COLOUR('',#426);
#425=COLOUR_RGB('',0.400000005960464,0.295081973075867,0.131147548556328);
#426=COLOUR_RGB('',0.639999985694885,0.670000016689301,0.689999997615814);
#427=MANIFOLD_SOLID_BREP('',#318);
#428=MANIFOLD_SOLID_BREP('',#319);
#429=SHAPE_DEFINITION_REPRESENTATION(#664,#432);
#430=SHAPE_DEFINITION_REPRESENTATION(#663,#433);
#431=SHAPE_DEFINITION_REPRESENTATION(#666,#434);
#432=SHAPE_REPRESENTATION('COD90MHDN54corteGEN',(#435),#655);
#433=SHAPE_REPRESENTATION('F39R2DN54',(#435,#451,#473),#654);
#434=SHAPE_REPRESENTATION('ROSCAM2_53gen',(#435),#656);
#435=AXIS2_PLACEMENT_3D('',#570,#474,#475);
#436=AXIS2_PLACEMENT_3D('',#571,#476,#477);
#437=AXIS2_PLACEMENT_3D('',#572,#478,#479);
#438=AXIS2_PLACEMENT_3D('',#574,#480,#481);
#439=AXIS2_PLACEMENT_3D('',#576,#482,#483);
#440=AXIS2_PLACEMENT_3D('',#577,#484,#485);
#441=AXIS2_PLACEMENT_3D('',#579,#486,#487);
#442=AXIS2_PLACEMENT_3D('',#580,#488,#489);
#443=AXIS2_PLACEMENT_3D('',#582,#490,#491);
#444=AXIS2_PLACEMENT_3D('',#583,#492,#493);
#445=AXIS2_PLACEMENT_3D('',#584,#494,#495);
#446=AXIS2_PLACEMENT_3D('',#586,#496,#497);
#447=AXIS2_PLACEMENT_3D('',#587,#498,#499);
#448=AXIS2_PLACEMENT_3D('',#589,#500,#501);
#449=AXIS2_PLACEMENT_3D('',#590,#502,#503);
#450=AXIS2_PLACEMENT_3D('',#592,#504,#505);
#451=AXIS2_PLACEMENT_3D('',#593,#506,#507);
#452=AXIS2_PLACEMENT_3D('',#594,#508,#509);
#453=AXIS2_PLACEMENT_3D('',#603,#514,#515);
#454=AXIS2_PLACEMENT_3D('',#609,#519,#520);
#455=AXIS2_PLACEMENT_3D('',#615,#524,#525);
#456=AXIS2_PLACEMENT_3D('',#621,#529,#530);
#457=AXIS2_PLACEMENT_3D('',#627,#534,#535);
#458=AXIS2_PLACEMENT_3D('',#630,#538,#539);
#459=AXIS2_PLACEMENT_3D('',#631,#540,#541);
#460=AXIS2_PLACEMENT_3D('',#633,#542,#543);
#461=AXIS2_PLACEMENT_3D('',#635,#544,#545);
#462=AXIS2_PLACEMENT_3D('',#636,#546,#547);
#463=AXIS2_PLACEMENT_3D('',#638,#548,#549);
#464=AXIS2_PLACEMENT_3D('',#640,#550,#551);
#465=AXIS2_PLACEMENT_3D('',#641,#552,#553);
#466=AXIS2_PLACEMENT_3D('',#642,#554,#555);
#467=AXIS2_PLACEMENT_3D('',#644,#556,#557);
#468=AXIS2_PLACEMENT_3D('',#645,#558,#559);
#469=AXIS2_PLACEMENT_3D('',#647,#560,#561);
#470=AXIS2_PLACEMENT_3D('',#648,#562,#563);
#471=AXIS2_PLACEMENT_3D('',#650,#564,#565);
#472=AXIS2_PLACEMENT_3D('',#651,#566,#567);
#473=AXIS2_PLACEMENT_3D('',#652,#568,#569);
#474=DIRECTION('',(0.,0.,1.));
#475=DIRECTION('',(1.,0.,0.));
#476=DIRECTION('',(0.,1.,0.));
#477=DIRECTION('',(0.,0.,1.));
#478=DIRECTION('',(0.,1.,0.));
#479=DIRECTION('',(0.,0.,1.));
#480=DIRECTION('',(0.,1.,0.));
#481=DIRECTION('',(1.,0.,0.));
#482=DIRECTION('',(0.,1.,0.));
#483=DIRECTION('',(0.,0.,1.));
#484=DIRECTION('',(0.,1.,0.));
#485=DIRECTION('',(0.,0.,1.));
#486=DIRECTION('',(0.,-1.,0.));
#487=DIRECTION('',(0.,0.,-1.));
#488=DIRECTION('',(0.,1.,0.));
#489=DIRECTION('',(1.,0.,0.));
#490=DIRECTION('',(0.,1.,0.));
#491=DIRECTION('',(0.,0.,1.));
#492=DIRECTION('',(0.,-1.,0.));
#493=DIRECTION('',(0.,0.,-1.));
#494=DIRECTION('',(0.,1.,0.));
#495=DIRECTION('',(0.,0.,1.));
#496=DIRECTION('',(-8.5393266033047E-17,0.,1.));
#497=DIRECTION('',(1.,0.,8.5393266033047E-17));
#498=DIRECTION('',(1.,6.12323399573677E-17,8.5393266033047E-17));
#499=DIRECTION('',(-8.53932660330469E-17,-8.5393266033047E-17,1.));
#500=DIRECTION('',(-1.,-6.12323399573677E-17,-8.5393266033047E-17));
#501=DIRECTION('',(-8.5393266033047E-17,0.,1.));
#502=DIRECTION('',(1.,6.12323399573677E-17,8.53932660330469E-17));
#503=DIRECTION('',(-8.53932660330469E-17,-8.5393266033047E-17,1.));
#504=DIRECTION('',(1.,6.12323399573677E-17,8.53932660330469E-17));
#505=DIRECTION('',(8.53932660330469E-17,0.,-1.));
#506=DIRECTION('',(0.,0.,1.));
#507=DIRECTION('',(1.,0.,0.));
#508=DIRECTION('',(0.866025403784437,0.,-0.500000000000002));
#509=DIRECTION('',(-0.500000000000002,0.,-0.866025403784437));
#510=DIRECTION('',(0.,-1.,0.));
#511=DIRECTION('',(-0.500000000000002,0.,-0.866025403784437));
#512=DIRECTION('',(0.,-1.,0.));
#513=DIRECTION('',(0.500000000000002,0.,0.866025403784437));
#514=DIRECTION('',(0.86602540378444,0.,0.499999999999998));
#515=DIRECTION('',(0.499999999999998,0.,-0.86602540378444));
#516=DIRECTION('',(0.499999999999998,0.,-0.86602540378444));
#517=DIRECTION('',(0.,-1.,0.));
#518=DIRECTION('',(-0.499999999999998,0.,0.86602540378444));
#519=DIRECTION('',(2.03390284136723E-15,0.,1.));
#520=DIRECTION('',(1.,0.,-2.03390284136723E-15));
#521=DIRECTION('',(1.,0.,-2.03390284136723E-15));
#522=DIRECTION('',(0.,-1.,0.));
#523=DIRECTION('',(-1.,0.,2.03390284136723E-15));
#524=DIRECTION('',(-0.866025403784438,0.,0.500000000000001));
#525=DIRECTION('',(0.500000000000001,0.,0.866025403784438));
#526=DIRECTION('',(0.500000000000001,0.,0.866025403784438));
#527=DIRECTION('',(0.,-1.,0.));
#528=DIRECTION('',(-0.500000000000001,0.,-0.866025403784438));
#529=DIRECTION('',(-0.866025403784439,0.,-0.5));
#530=DIRECTION('',(-0.5,0.,0.866025403784439));
#531=DIRECTION('',(-0.5,0.,0.866025403784439));
#532=DIRECTION('',(0.,-1.,0.));
#533=DIRECTION('',(0.5,0.,-0.866025403784439));
#534=DIRECTION('',(-1.4792020664489E-15,0.,-1.));
#535=DIRECTION('',(-1.,0.,1.4792020664489E-15));
#536=DIRECTION('',(-1.,0.,1.4792020664489E-15));
#537=DIRECTION('',(1.,0.,-1.4792020664489E-15));
#538=DIRECTION('',(0.,-1.,0.));
#539=DIRECTION('',(0.,0.,-1.));
#540=DIRECTION('',(0.,-1.,0.));
#541=DIRECTION('',(0.,0.,-1.));
#542=DIRECTION('',(0.,-1.,0.));
#543=DIRECTION('',(0.,0.,-1.));
#544=DIRECTION('',(0.,1.,0.));
#545=DIRECTION('',(0.,0.,1.));
#546=DIRECTION('',(0.,1.,0.));
#547=DIRECTION('',(0.,0.,1.));
#548=DIRECTION('',(0.,1.,0.));
#549=DIRECTION('',(0.,0.,1.));
#550=DIRECTION('',(0.,1.,0.));
#551=DIRECTION('',(0.,0.,1.));
#552=DIRECTION('',(0.,1.,0.));
#553=DIRECTION('',(0.,0.,1.));
#554=DIRECTION('',(0.,1.,0.));
#555=DIRECTION('',(0.,0.,1.));
#556=DIRECTION('',(0.,-1.,0.));
#557=DIRECTION('',(0.,0.,-1.));
#558=DIRECTION('',(0.,-1.,0.));
#559=DIRECTION('',(0.,0.,-1.));
#560=DIRECTION('',(0.,-1.,0.));
#561=DIRECTION('',(0.,0.,-1.));
#562=DIRECTION('',(0.,-1.,0.));
#563=DIRECTION('',(0.,0.,-1.));
#564=DIRECTION('',(0.,-1.,0.));
#565=DIRECTION('',(0.,0.,-1.));
#566=DIRECTION('',(0.,1.,0.));
#567=DIRECTION('',(0.,0.,1.));
#568=DIRECTION('',(-1.70786532066094E-16,1.70786532066094E-16,1.));
#569=DIRECTION('',(2.77555756156289E-17,1.,-1.70786532066094E-16));
#570=CARTESIAN_POINT('',(0.,0.,0.));
#571=CARTESIAN_POINT('',(0.,-40.2,0.));
#572=CARTESIAN_POINT('',(0.,-40.2,0.));
#573=CARTESIAN_POINT('',(0.,-40.2,29.5));
#574=CARTESIAN_POINT('',(0.,-40.2,0.));
#575=CARTESIAN_POINT('',(27.,-40.2,0.));
#576=CARTESIAN_POINT('',(0.,-40.2,0.));
#577=CARTESIAN_POINT('',(0.,-2.,0.));
#578=CARTESIAN_POINT('',(0.,-2.,29.5));
#579=CARTESIAN_POINT('',(0.,-6.50000000000001,0.));
#580=CARTESIAN_POINT('',(0.,-6.50000000000001,0.));
#581=CARTESIAN_POINT('',(27.,-6.50000000000001,0.));
#582=CARTESIAN_POINT('',(0.,-6.50000000000001,0.));
#583=CARTESIAN_POINT('',(0.,0.,0.));
#584=CARTESIAN_POINT('',(0.,0.,0.));
#585=CARTESIAN_POINT('',(0.,0.,27.5));
#586=CARTESIAN_POINT('',(65.,0.,0.));
#587=CARTESIAN_POINT('',(65.,65.,0.));
#588=CARTESIAN_POINT('',(65.,65.,27.5));
#589=CARTESIAN_POINT('',(70.,65.,4.26966330165235E-16));
#590=CARTESIAN_POINT('',(70.,65.,4.26966330165235E-16));
#591=CARTESIAN_POINT('',(70.,65.,27.5));
#592=CARTESIAN_POINT('',(70.,65.,4.26966330165235E-16));
#593=CARTESIAN_POINT('',(0.,0.,0.));
#594=CARTESIAN_POINT('',(-37.5277674973256,10.,1.04083408558608E-13));
#595=CARTESIAN_POINT('',(-18.7638837486627,10.,32.5000000000001));
#596=CARTESIAN_POINT('',(-18.7638837486627,10.,32.5000000000001));
#597=CARTESIAN_POINT('',(-18.7638837486627,2.60208521396521E-15,32.5000000000001));
#598=CARTESIAN_POINT('',(-28.1458256229942,10.,16.2500000000001));
#599=CARTESIAN_POINT('',(-37.5277674973256,10.,1.11022302462516E-13));
#600=CARTESIAN_POINT('',(-37.5277674973256,10.,1.04083408558608E-13));
#601=CARTESIAN_POINT('',(-37.5277674973256,8.67361737988404E-16,1.05818132034585E-13));
#602=CARTESIAN_POINT('',(-37.5277674973256,0.,1.04083408558608E-13));
#603=CARTESIAN_POINT('',(-18.7638837486629,10.,-32.4999999999999));
#604=CARTESIAN_POINT('',(-28.1458256229942,10.,-16.2499999999999));
#605=CARTESIAN_POINT('',(-18.7638837486629,10.,-32.4999999999999));
#606=CARTESIAN_POINT('',(-18.7638837486629,10.,-32.4999999999999));
#607=CARTESIAN_POINT('',(-18.7638837486629,0.,-32.4999999999999));
#608=CARTESIAN_POINT('',(-18.7638837486629,0.,-32.4999999999999));
#609=CARTESIAN_POINT('',(18.7638837486628,10.,-32.5));
#610=CARTESIAN_POINT('',(-6.6101842344435E-14,10.,-32.5));
#611=CARTESIAN_POINT('',(18.7638837486628,10.,-32.5));
#612=CARTESIAN_POINT('',(18.7638837486628,10.,-32.5));
#613=CARTESIAN_POINT('',(18.7638837486628,8.67361737988404E-16,-32.5));
#614=CARTESIAN_POINT('',(18.7638837486628,0.,-32.5));
#615=CARTESIAN_POINT('',(37.5277674973257,10.,-6.93889390390723E-15));
#616=CARTESIAN_POINT('',(28.1458256229942,10.,-16.25));
#617=CARTESIAN_POINT('',(37.5277674973257,10.,-6.93889390390723E-15));
#618=CARTESIAN_POINT('',(37.5277674973257,10.,-6.93889390390723E-15));
#619=CARTESIAN_POINT('',(37.5277674973257,2.60208521396521E-15,-8.67361737988404E-15));
#620=CARTESIAN_POINT('',(37.5277674973257,0.,-6.93889390390723E-15));
#621=CARTESIAN_POINT('',(18.7638837486628,10.,32.5));
#622=CARTESIAN_POINT('',(28.1458256229943,10.,16.25));
#623=CARTESIAN_POINT('',(18.7638837486628,10.,32.5));
#624=CARTESIAN_POINT('',(18.7638837486628,10.,32.5));
#625=CARTESIAN_POINT('',(18.7638837486628,0.,32.5));
#626=CARTESIAN_POINT('',(18.7638837486628,0.,32.5));
#627=CARTESIAN_POINT('',(-18.7638837486627,10.,32.5000000000001));
#628=CARTESIAN_POINT('',(4.80740671595893E-14,10.,32.5));
#629=CARTESIAN_POINT('',(-18.7638837486627,0.,32.5000000000001));
#630=CARTESIAN_POINT('',(0.,-27.,0.));
#631=CARTESIAN_POINT('',(0.,-27.,0.));
#632=CARTESIAN_POINT('',(0.,-27.,-25.));
#633=CARTESIAN_POINT('',(0.,-27.,0.));
#634=CARTESIAN_POINT('',(0.,-27.,-29.1279137672512));
#635=CARTESIAN_POINT('',(0.,-27.,0.));
#636=CARTESIAN_POINT('',(0.,0.,0.));
#637=CARTESIAN_POINT('',(0.,0.,30.25));
#638=CARTESIAN_POINT('',(0.,-1.3,0.));
#639=CARTESIAN_POINT('',(0.,-1.3,30.25));
#640=CARTESIAN_POINT('',(0.,0.,0.));
#641=CARTESIAN_POINT('',(0.,10.,0.));
#642=CARTESIAN_POINT('',(0.,10.,0.));
#643=CARTESIAN_POINT('',(0.,10.,26.5));
#644=CARTESIAN_POINT('',(0.,15.,0.));
#645=CARTESIAN_POINT('',(0.,15.,0.));
#646=CARTESIAN_POINT('',(0.,15.,-25.));
#647=CARTESIAN_POINT('',(0.,15.,0.));
#648=CARTESIAN_POINT('',(0.,15.,0.));
#649=CARTESIAN_POINT('',(0.,15.,-26.5));
#650=CARTESIAN_POINT('',(0.,15.,0.));
#651=CARTESIAN_POINT('',(0.,-1.3,0.));
#652=CARTESIAN_POINT('',(85.,64.9999973787979,8.67361737988404E-15));
#653=MECHANICAL_DESIGN_GEOMETRIC_PRESENTATION_REPRESENTATION('',(#320,#321,
#322,#323,#324,#325,#326,#327,#328,#329,#330,#331,#332,#333,#334),#654);
#654=(
GEOMETRIC_REPRESENTATION_CONTEXT(3)
GLOBAL_UNCERTAINTY_ASSIGNED_CONTEXT((#657))
GLOBAL_UNIT_ASSIGNED_CONTEXT((#662,#661,#660))
REPRESENTATION_CONTEXT('F39R2DN54','TOP_LEVEL_ASSEMBLY_PART')
);
#655=(
GEOMETRIC_REPRESENTATION_CONTEXT(3)
GLOBAL_UNCERTAINTY_ASSIGNED_CONTEXT((#658))
GLOBAL_UNIT_ASSIGNED_CONTEXT((#662,#661,#660))
REPRESENTATION_CONTEXT('COD90MHDN54corteGEN','COMPONENT_PART')
);
#656=(
GEOMETRIC_REPRESENTATION_CONTEXT(3)
GLOBAL_UNCERTAINTY_ASSIGNED_CONTEXT((#659))
GLOBAL_UNIT_ASSIGNED_CONTEXT((#662,#661,#660))
REPRESENTATION_CONTEXT('ROSCAM2_53gen','COMPONENT_PART')
);
#657=UNCERTAINTY_MEASURE_WITH_UNIT(LENGTH_MEASURE(0.005),#662,
'DISTANCE_ACCURACY_VALUE','Maximum Tolerance applied to model');
#658=UNCERTAINTY_MEASURE_WITH_UNIT(LENGTH_MEASURE(0.005),#662,
'DISTANCE_ACCURACY_VALUE','Maximum Tolerance applied to model');
#659=UNCERTAINTY_MEASURE_WITH_UNIT(LENGTH_MEASURE(0.005),#662,
'DISTANCE_ACCURACY_VALUE','Maximum Tolerance applied to model');
#660=(
NAMED_UNIT(*)
SI_UNIT($,.STERADIAN.)
SOLID_ANGLE_UNIT()
);
#661=(
NAMED_UNIT(*)
PLANE_ANGLE_UNIT()
SI_UNIT($,.RADIAN.)
);
#662=(
LENGTH_UNIT()
NAMED_UNIT(*)
SI_UNIT(.MILLI.,.METRE.)
);
#663=PRODUCT_DEFINITION_SHAPE('','',#668);
#664=PRODUCT_DEFINITION_SHAPE('','',#669);
#665=PRODUCT_DEFINITION_SHAPE(' ','NAUO PRDDFN',#56);
#666=PRODUCT_DEFINITION_SHAPE('','',#670);
#667=PRODUCT_DEFINITION_SHAPE(' ','NAUO PRDDFN',#57);
#668=PRODUCT_DEFINITION('','',#674,#671);
#669=PRODUCT_DEFINITION('','',#675,#672);
#670=PRODUCT_DEFINITION('','',#676,#673);
#671=PRODUCT_DEFINITION_CONTEXT('',#690,'design');
#672=PRODUCT_DEFINITION_CONTEXT('',#690,'design');
#673=PRODUCT_DEFINITION_CONTEXT('',#690,'design');
#674=PRODUCT_DEFINITION_FORMATION_WITH_SPECIFIED_SOURCE('','',#680,
 .NOT_KNOWN.);
#675=PRODUCT_DEFINITION_FORMATION_WITH_SPECIFIED_SOURCE('','',#681,
 .NOT_KNOWN.);
#676=PRODUCT_DEFINITION_FORMATION_WITH_SPECIFIED_SOURCE('','',#682,
 .NOT_KNOWN.);
#677=PRODUCT_RELATED_PRODUCT_CATEGORY('','',(#680));
#678=PRODUCT_RELATED_PRODUCT_CATEGORY('','',(#681));
#679=PRODUCT_RELATED_PRODUCT_CATEGORY('','',(#682));
#680=PRODUCT('F39R2DN54','F39R2DN54','F39R2DN54',(#686));
#681=PRODUCT('COD90MHDN54corteGEN','COD90MHDN54corteGEN',
'COD90MHDN54corteGEN',(#687));
#682=PRODUCT('ROSCAM2_53gen','ROSCAM2_53gen','ROSCAM2_53gen',(#688));
#683=PRODUCT_CATEGORY('','');
#684=PRODUCT_CATEGORY('','');
#685=PRODUCT_CATEGORY('','');
#686=PRODUCT_CONTEXT('',#690,'mechanical');
#687=PRODUCT_CONTEXT('',#690,'mechanical');
#688=PRODUCT_CONTEXT('',#690,'mechanical');
#689=APPLICATION_PROTOCOL_DEFINITION('international standard',
'automotive_design',2010,#690);
#690=APPLICATION_CONTEXT(
'core data for automotive mechanical design processes');
ENDSEC;
END-ISO-10303-21;
