ISO-10303-21;
HEADER;
FILE_DESCRIPTION( ( 'Unknown' ), '1' );
FILE_NAME( '//Server/ofimatica/alfredo/Alfredo2/ISOTUBI/PZAS3D/FICHATECNICA/NUMEPRESS/generico 3D/F20DN18.stp', 'Unknown', ( 'Unknown' ), ( 'Unknown' ), 'PSStep 14.0', 'Unknown', '  ' );
FILE_SCHEMA( ( 'AUTOMOTIVE_DESIGN { 1 0 10303 214 1 1 1 1 }' ) );
ENDSEC;
DATA;
#1 = MECHANICAL_DESIGN_GEOMETRIC_PRESENTATION_REPRESENTATION( ' ', ( #10, #11, #12, #13, #14, #15, #16, #17, #18, #19, #20, #21 ), #6 );
#2 = PRODUCT_DEFINITION_CONTEXT( '', #22, 'design' );
#3 = APPLICATION_PROTOCOL_DEFINITION( 'international standard', 'automotive_design', 2001, #22 );
#4 = PRODUCT_CATEGORY_RELATIONSHIP( 'NONE', 'NONE', #23, #24 );
#5 = SHAPE_DEFINITION_REPRESENTATION( #25, #26 );
#6 =  ( GEOMETRIC_REPRESENTATION_CONTEXT( 3 )GLOBAL_UNCERTAINTY_ASSIGNED_CONTEXT( ( #29 ) )GLOBAL_UNIT_ASSIGNED_CONTEXT( ( #31, #32, #33 ) )REPRESENTATION_CONTEXT( 'NONE', 'WORKSPACE' ) );
#10 = STYLED_ITEM( '', ( #35 ), #36 );
#11 = STYLED_ITEM( '', ( #37 ), #38 );
#12 = STYLED_ITEM( '', ( #39 ), #40 );
#13 = STYLED_ITEM( '', ( #41 ), #42 );
#14 = STYLED_ITEM( '', ( #43 ), #44 );
#15 = STYLED_ITEM( '', ( #45 ), #46 );
#16 = STYLED_ITEM( '', ( #47 ), #48 );
#17 = STYLED_ITEM( '', ( #49 ), #50 );
#18 = STYLED_ITEM( '', ( #51 ), #52 );
#19 = STYLED_ITEM( '', ( #53 ), #54 );
#20 = STYLED_ITEM( '', ( #55 ), #56 );
#21 = STYLED_ITEM( '', ( #57 ), #58 );
#22 = APPLICATION_CONTEXT( 'core data for automotive mechanical design processes' );
#23 = PRODUCT_CATEGORY( 'part', 'NONE' );
#24 = PRODUCT_RELATED_PRODUCT_CATEGORY( 'detail', ' ', ( #59 ) );
#25 = PRODUCT_DEFINITION_SHAPE( 'NONE', 'NONE', #60 );
#26 = ADVANCED_BREP_SHAPE_REPRESENTATION( '1', ( #61, #62 ), #6 );
#29 = UNCERTAINTY_MEASURE_WITH_UNIT( LENGTH_MEASURE( 0.00100000000000000 ), #31, '', '' );
#31 =  ( CONVERSION_BASED_UNIT( 'MILLIMETRE', #65 )LENGTH_UNIT(  )NAMED_UNIT( #68 ) );
#32 =  ( NAMED_UNIT( #70 )PLANE_ANGLE_UNIT(  )SI_UNIT( $, .RADIAN. ) );
#33 =  ( NAMED_UNIT( #70 )SI_UNIT( $, .STERADIAN. )SOLID_ANGLE_UNIT(  ) );
#35 = PRESENTATION_STYLE_ASSIGNMENT( ( #76 ) );
#36 = ADVANCED_FACE( '', ( #77, #78 ), #79, .F. );
#37 = PRESENTATION_STYLE_ASSIGNMENT( ( #80 ) );
#38 = ADVANCED_FACE( '', ( #81, #82 ), #83, .F. );
#39 = PRESENTATION_STYLE_ASSIGNMENT( ( #84 ) );
#40 = ADVANCED_FACE( '', ( #85, #86 ), #87, .F. );
#41 = PRESENTATION_STYLE_ASSIGNMENT( ( #88 ) );
#42 = ADVANCED_FACE( '', ( #89, #90 ), #91, .T. );
#43 = PRESENTATION_STYLE_ASSIGNMENT( ( #92 ) );
#44 = ADVANCED_FACE( '', ( #93, #94 ), #95, .T. );
#45 = PRESENTATION_STYLE_ASSIGNMENT( ( #96 ) );
#46 = ADVANCED_FACE( '', ( #97, #98 ), #99, .F. );
#47 = PRESENTATION_STYLE_ASSIGNMENT( ( #100 ) );
#48 = ADVANCED_FACE( '', ( #101, #102 ), #103, .F. );
#49 = PRESENTATION_STYLE_ASSIGNMENT( ( #104 ) );
#50 = ADVANCED_FACE( '', ( #105, #106 ), #107, .T. );
#51 = PRESENTATION_STYLE_ASSIGNMENT( ( #108 ) );
#52 = ADVANCED_FACE( '', ( #109, #110 ), #111, .T. );
#53 = PRESENTATION_STYLE_ASSIGNMENT( ( #112 ) );
#54 = ADVANCED_FACE( '', ( #113, #114 ), #115, .T. );
#55 = PRESENTATION_STYLE_ASSIGNMENT( ( #116 ) );
#56 = ADVANCED_FACE( '', ( #117, #118 ), #119, .F. );
#57 = PRESENTATION_STYLE_ASSIGNMENT( ( #120 ) );
#58 = ADVANCED_FACE( '', ( #121, #122 ), #123, .T. );
#59 = PRODUCT( '1', '1', 'PART-1-DESC', ( #124 ) );
#60 = PRODUCT_DEFINITION( 'NONE', 'NONE', #125, #2 );
#61 = MANIFOLD_SOLID_BREP( '1', #126 );
#62 = AXIS2_PLACEMENT_3D( '', #127, #128, #129 );
#65 = LENGTH_MEASURE_WITH_UNIT( LENGTH_MEASURE( 1.00000000000000 ), #130 );
#68 = DIMENSIONAL_EXPONENTS( 1.00000000000000, 0.000000000000000, 0.000000000000000, 0.000000000000000, 0.000000000000000, 0.000000000000000, 0.000000000000000 );
#70 = DIMENSIONAL_EXPONENTS( 0.000000000000000, 0.000000000000000, 0.000000000000000, 0.000000000000000, 0.000000000000000, 0.000000000000000, 0.000000000000000 );
#76 = SURFACE_STYLE_USAGE( .BOTH., #131 );
#77 = FACE_OUTER_BOUND( '', #132, .T. );
#78 = FACE_OUTER_BOUND( '', #133, .T. );
#79 = TOROIDAL_SURFACE( '', #134, 27.0000000000000, 7.50000000000000 );
#80 = SURFACE_STYLE_USAGE( .BOTH., #135 );
#81 = FACE_BOUND( '', #136, .T. );
#82 = FACE_OUTER_BOUND( '', #137, .T. );
#83 = PLANE( '', #138 );
#84 = SURFACE_STYLE_USAGE( .BOTH., #139 );
#85 = FACE_OUTER_BOUND( '', #140, .T. );
#86 = FACE_OUTER_BOUND( '', #141, .T. );
#87 = CYLINDRICAL_SURFACE( '', #142, 7.50000000000000 );
#88 = SURFACE_STYLE_USAGE( .BOTH., #143 );
#89 = FACE_OUTER_BOUND( '', #144, .T. );
#90 = FACE_OUTER_BOUND( '', #145, .T. );
#91 = CYLINDRICAL_SURFACE( '', #146, 9.00000000000000 );
#92 = SURFACE_STYLE_USAGE( .BOTH., #147 );
#93 = FACE_OUTER_BOUND( '', #148, .T. );
#94 = FACE_OUTER_BOUND( '', #149, .T. );
#95 = TOROIDAL_SURFACE( '', #150, 27.0000000000000, 9.00000000000000 );
#96 = SURFACE_STYLE_USAGE( .BOTH., #151 );
#97 = FACE_OUTER_BOUND( '', #152, .T. );
#98 = FACE_OUTER_BOUND( '', #153, .T. );
#99 = CYLINDRICAL_SURFACE( '', #154, 7.50000000000000 );
#100 = SURFACE_STYLE_USAGE( .BOTH., #155 );
#101 = FACE_OUTER_BOUND( '', #156, .T. );
#102 = FACE_OUTER_BOUND( '', #157, .T. );
#103 = CYLINDRICAL_SURFACE( '', #158, 7.50000000000000 );
#104 = SURFACE_STYLE_USAGE( .BOTH., #159 );
#105 = FACE_OUTER_BOUND( '', #160, .T. );
#106 = FACE_OUTER_BOUND( '', #161, .T. );
#107 = CYLINDRICAL_SURFACE( '', #162, 9.00000000000000 );
#108 = SURFACE_STYLE_USAGE( .BOTH., #163 );
#109 = FACE_OUTER_BOUND( '', #164, .T. );
#110 = FACE_OUTER_BOUND( '', #165, .T. );
#111 = TOROIDAL_SURFACE( '', #166, 27.0000000000000, 9.00000000000000 );
#112 = SURFACE_STYLE_USAGE( .BOTH., #167 );
#113 = FACE_OUTER_BOUND( '', #168, .T. );
#114 = FACE_OUTER_BOUND( '', #169, .T. );
#115 = CYLINDRICAL_SURFACE( '', #170, 9.00000000000000 );
#116 = SURFACE_STYLE_USAGE( .BOTH., #171 );
#117 = FACE_OUTER_BOUND( '', #172, .T. );
#118 = FACE_OUTER_BOUND( '', #173, .T. );
#119 = TOROIDAL_SURFACE( '', #174, 27.0000000000000, 7.50000000000000 );
#120 = SURFACE_STYLE_USAGE( .BOTH., #175 );
#121 = FACE_BOUND( '', #176, .T. );
#122 = FACE_OUTER_BOUND( '', #177, .T. );
#123 = PLANE( '', #178 );
#124 = PRODUCT_CONTEXT( '', #22, 'mechanical' );
#125 = PRODUCT_DEFINITION_FORMATION_WITH_SPECIFIED_SOURCE( ' ', 'NONE', #59, .NOT_KNOWN. );
#126 = CLOSED_SHELL( '', ( #48, #42, #54, #38, #40, #58, #36, #44, #46, #50, #56, #52 ) );
#127 = CARTESIAN_POINT( '', ( 0.000000000000000, 0.000000000000000, 0.000000000000000 ) );
#128 = DIRECTION( '', ( 0.000000000000000, 0.000000000000000, 1.00000000000000 ) );
#129 = DIRECTION( '', ( 1.00000000000000, 0.000000000000000, 0.000000000000000 ) );
#130 =  ( LENGTH_UNIT(  )NAMED_UNIT( #68 )SI_UNIT( .MILLI., .METRE. ) );
#131 = SURFACE_SIDE_STYLE( '', ( #180 ) );
#132 = EDGE_LOOP( '', ( #181 ) );
#133 = EDGE_LOOP( '', ( #182 ) );
#134 = AXIS2_PLACEMENT_3D( '', #183, #184, #185 );
#135 = SURFACE_SIDE_STYLE( '', ( #186 ) );
#136 = EDGE_LOOP( '', ( #187 ) );
#137 = EDGE_LOOP( '', ( #188 ) );
#138 = AXIS2_PLACEMENT_3D( '', #189, #190, #191 );
#139 = SURFACE_SIDE_STYLE( '', ( #192 ) );
#140 = EDGE_LOOP( '', ( #193 ) );
#141 = EDGE_LOOP( '', ( #194 ) );
#142 = AXIS2_PLACEMENT_3D( '', #195, #196, #197 );
#143 = SURFACE_SIDE_STYLE( '', ( #198 ) );
#144 = EDGE_LOOP( '', ( #199 ) );
#145 = EDGE_LOOP( '', ( #200 ) );
#146 = AXIS2_PLACEMENT_3D( '', #201, #202, #203 );
#147 = SURFACE_SIDE_STYLE( '', ( #204 ) );
#148 = EDGE_LOOP( '', ( #205 ) );
#149 = EDGE_LOOP( '', ( #206 ) );
#150 = AXIS2_PLACEMENT_3D( '', #207, #208, #209 );
#151 = SURFACE_SIDE_STYLE( '', ( #210 ) );
#152 = EDGE_LOOP( '', ( #211 ) );
#153 = EDGE_LOOP( '', ( #212 ) );
#154 = AXIS2_PLACEMENT_3D( '', #213, #214, #215 );
#155 = SURFACE_SIDE_STYLE( '', ( #216 ) );
#156 = EDGE_LOOP( '', ( #217 ) );
#157 = EDGE_LOOP( '', ( #218 ) );
#158 = AXIS2_PLACEMENT_3D( '', #219, #220, #221 );
#159 = SURFACE_SIDE_STYLE( '', ( #222 ) );
#160 = EDGE_LOOP( '', ( #223 ) );
#161 = EDGE_LOOP( '', ( #224 ) );
#162 = AXIS2_PLACEMENT_3D( '', #225, #226, #227 );
#163 = SURFACE_SIDE_STYLE( '', ( #228 ) );
#164 = EDGE_LOOP( '', ( #229 ) );
#165 = EDGE_LOOP( '', ( #230 ) );
#166 = AXIS2_PLACEMENT_3D( '', #231, #232, #233 );
#167 = SURFACE_SIDE_STYLE( '', ( #234 ) );
#168 = EDGE_LOOP( '', ( #235 ) );
#169 = EDGE_LOOP( '', ( #236 ) );
#170 = AXIS2_PLACEMENT_3D( '', #237, #238, #239 );
#171 = SURFACE_SIDE_STYLE( '', ( #240 ) );
#172 = EDGE_LOOP( '', ( #241 ) );
#173 = EDGE_LOOP( '', ( #242 ) );
#174 = AXIS2_PLACEMENT_3D( '', #243, #244, #245 );
#175 = SURFACE_SIDE_STYLE( '', ( #246 ) );
#176 = EDGE_LOOP( '', ( #247 ) );
#177 = EDGE_LOOP( '', ( #248 ) );
#178 = AXIS2_PLACEMENT_3D( '', #249, #250, #251 );
#180 = SURFACE_STYLE_FILL_AREA( #252 );
#181 = ORIENTED_EDGE( '', *, *, #253, .F. );
#182 = ORIENTED_EDGE( '', *, *, #254, .T. );
#183 = CARTESIAN_POINT( '', ( 27.0000000000000, 35.6000000000000, 0.000000000000000 ) );
#184 = DIRECTION( '', ( 0.000000000000000, 0.000000000000000, 1.00000000000000 ) );
#185 = DIRECTION( '', ( 1.00000000000000, 0.000000000000000, 0.000000000000000 ) );
#186 = SURFACE_STYLE_FILL_AREA( #255 );
#187 = ORIENTED_EDGE( '', *, *, #256, .T. );
#188 = ORIENTED_EDGE( '', *, *, #257, .F. );
#189 = CARTESIAN_POINT( '', ( 12.4095750560018, 149.279602579455, 0.000000000000000 ) );
#190 = DIRECTION( '', ( 0.619915991670247, -0.784668186733408, 0.000000000000000 ) );
#191 = DIRECTION( '', ( 0.784668186733408, 0.619915991670247, 0.000000000000000 ) );
#192 = SURFACE_STYLE_FILL_AREA( #258 );
#193 = ORIENTED_EDGE( '', *, *, #256, .F. );
#194 = ORIENTED_EDGE( '', *, *, #259, .T. );
#195 = CARTESIAN_POINT( '', ( 12.4095750560018, 149.279602579455, 0.000000000000000 ) );
#196 = DIRECTION( '', ( -0.619915991670247, 0.784668186733408, -0.000000000000000 ) );
#197 = DIRECTION( '', ( 0.784668186733408, 0.619915991670247, 0.000000000000000 ) );
#198 = SURFACE_STYLE_FILL_AREA( #260 );
#199 = ORIENTED_EDGE( '', *, *, #261, .T. );
#200 = ORIENTED_EDGE( '', *, *, #262, .F. );
#201 = CARTESIAN_POINT( '', ( 0.000000000000000, 35.6000000000000, 0.000000000000000 ) );
#202 = DIRECTION( '', ( -0.000000000000000, 1.00000000000000, -0.000000000000000 ) );
#203 = DIRECTION( '', ( 0.000000000000000, 0.000000000000000, -1.00000000000000 ) );
#204 = SURFACE_STYLE_FILL_AREA( #263 );
#205 = ORIENTED_EDGE( '', *, *, #264, .T. );
#206 = ORIENTED_EDGE( '', *, *, #261, .F. );
#207 = CARTESIAN_POINT( '', ( 27.0000000000000, 35.6000000000000, 0.000000000000000 ) );
#208 = DIRECTION( '', ( 0.000000000000000, 0.000000000000000, 1.00000000000000 ) );
#209 = DIRECTION( '', ( 1.00000000000000, 0.000000000000000, 0.000000000000000 ) );
#210 = SURFACE_STYLE_FILL_AREA( #265 );
#211 = ORIENTED_EDGE( '', *, *, #266, .F. );
#212 = ORIENTED_EDGE( '', *, *, #253, .T. );
#213 = CARTESIAN_POINT( '', ( 34.1843022354226, 88.2350482225494, 0.000000000000000 ) );
#214 = DIRECTION( '', ( 0.620052932661633, 0.784559979031373, -0.000000000000000 ) );
#215 = DIRECTION( '', ( 0.784559979031373, -0.620052932661633, 0.000000000000000 ) );
#216 = SURFACE_STYLE_FILL_AREA( #267 );
#217 = ORIENTED_EDGE( '', *, *, #254, .F. );
#218 = ORIENTED_EDGE( '', *, *, #268, .T. );
#219 = CARTESIAN_POINT( '', ( 0.000000000000000, 35.6000000000000, 0.000000000000000 ) );
#220 = DIRECTION( '', ( -0.000000000000000, 1.00000000000000, -0.000000000000000 ) );
#221 = DIRECTION( '', ( 0.000000000000000, 0.000000000000000, -1.00000000000000 ) );
#222 = SURFACE_STYLE_FILL_AREA( #269 );
#223 = ORIENTED_EDGE( '', *, *, #270, .T. );
#224 = ORIENTED_EDGE( '', *, *, #264, .F. );
#225 = CARTESIAN_POINT( '', ( 34.1843022354226, 88.2350482225494, 0.000000000000000 ) );
#226 = DIRECTION( '', ( 0.620052932661633, 0.784559979031373, -0.000000000000000 ) );
#227 = DIRECTION( '', ( 0.784559979031373, -0.620052932661633, 0.000000000000000 ) );
#228 = SURFACE_STYLE_FILL_AREA( #271 );
#229 = ORIENTED_EDGE( '', *, *, #272, .T. );
#230 = ORIENTED_EDGE( '', *, *, #270, .F. );
#231 = CARTESIAN_POINT( '', ( 13.0011828015755, 104.976477404413, 0.000000000000000 ) );
#232 = DIRECTION( '', ( 0.000000000000000, 0.000000000000000, -1.00000000000000 ) );
#233 = DIRECTION( '', ( -1.00000000000000, 0.000000000000000, 0.000000000000000 ) );
#234 = SURFACE_STYLE_FILL_AREA( #273 );
#235 = ORIENTED_EDGE( '', *, *, #257, .T. );
#236 = ORIENTED_EDGE( '', *, *, #272, .F. );
#237 = CARTESIAN_POINT( '', ( 12.4095750560018, 149.279602579455, 0.000000000000000 ) );
#238 = DIRECTION( '', ( -0.619915991670247, 0.784668186733408, -0.000000000000000 ) );
#239 = DIRECTION( '', ( 0.784668186733408, 0.619915991670247, 0.000000000000000 ) );
#240 = SURFACE_STYLE_FILL_AREA( #274 );
#241 = ORIENTED_EDGE( '', *, *, #259, .F. );
#242 = ORIENTED_EDGE( '', *, *, #266, .T. );
#243 = CARTESIAN_POINT( '', ( 13.0011828015755, 104.976477404413, 0.000000000000000 ) );
#244 = DIRECTION( '', ( 0.000000000000000, 0.000000000000000, -1.00000000000000 ) );
#245 = DIRECTION( '', ( -1.00000000000000, 0.000000000000000, 0.000000000000000 ) );
#246 = SURFACE_STYLE_FILL_AREA( #275 );
#247 = ORIENTED_EDGE( '', *, *, #268, .F. );
#248 = ORIENTED_EDGE( '', *, *, #262, .T. );
#249 = CARTESIAN_POINT( '', ( 0.000000000000000, 0.000000000000000, 0.000000000000000 ) );
#250 = DIRECTION( '', ( 0.000000000000000, -1.00000000000000, 0.000000000000000 ) );
#251 = DIRECTION( '', ( 0.000000000000000, 0.000000000000000, -1.00000000000000 ) );
#252 = FILL_AREA_STYLE( '', ( #276 ) );
#253 = EDGE_CURVE( '', #277, #277, #278, .T. );
#254 = EDGE_CURVE( '', #279, #279, #280, .T. );
#255 = FILL_AREA_STYLE( '', ( #281 ) );
#256 = EDGE_CURVE( '', #282, #282, #283, .T. );
#257 = EDGE_CURVE( '', #284, #284, #285, .T. );
#258 = FILL_AREA_STYLE( '', ( #286 ) );
#259 = EDGE_CURVE( '', #287, #287, #288, .T. );
#260 = FILL_AREA_STYLE( '', ( #289 ) );
#261 = EDGE_CURVE( '', #290, #290, #291, .T. );
#262 = EDGE_CURVE( '', #292, #292, #293, .T. );
#263 = FILL_AREA_STYLE( '', ( #294 ) );
#264 = EDGE_CURVE( '', #295, #295, #296, .T. );
#265 = FILL_AREA_STYLE( '', ( #297 ) );
#266 = EDGE_CURVE( '', #298, #298, #299, .T. );
#267 = FILL_AREA_STYLE( '', ( #300 ) );
#268 = EDGE_CURVE( '', #301, #301, #302, .T. );
#269 = FILL_AREA_STYLE( '', ( #303 ) );
#270 = EDGE_CURVE( '', #304, #304, #305, .T. );
#271 = FILL_AREA_STYLE( '', ( #306 ) );
#272 = EDGE_CURVE( '', #307, #307, #308, .T. );
#273 = FILL_AREA_STYLE( '', ( #309 ) );
#274 = FILL_AREA_STYLE( '', ( #310 ) );
#275 = FILL_AREA_STYLE( '', ( #311 ) );
#276 = FILL_AREA_STYLE_COLOUR( '', #312 );
#277 = VERTEX_POINT( '', #313 );
#278 = CIRCLE( '', #314, 7.50000000000000 );
#279 = VERTEX_POINT( '', #315 );
#280 = CIRCLE( '', #316, 7.50000000000000 );
#281 = FILL_AREA_STYLE_COLOUR( '', #317 );
#282 = VERTEX_POINT( '', #318 );
#283 = CIRCLE( '', #319, 7.50000000000000 );
#284 = VERTEX_POINT( '', #320 );
#285 = CIRCLE( '', #321, 9.00000000000000 );
#286 = FILL_AREA_STYLE_COLOUR( '', #322 );
#287 = VERTEX_POINT( '', #323 );
#288 = CIRCLE( '', #324, 7.50000000000000 );
#289 = FILL_AREA_STYLE_COLOUR( '', #325 );
#290 = VERTEX_POINT( '', #326 );
#291 = CIRCLE( '', #327, 9.00000000000000 );
#292 = VERTEX_POINT( '', #328 );
#293 = CIRCLE( '', #329, 9.00000000000000 );
#294 = FILL_AREA_STYLE_COLOUR( '', #330 );
#295 = VERTEX_POINT( '', #331 );
#296 = CIRCLE( '', #332, 9.00000000000000 );
#297 = FILL_AREA_STYLE_COLOUR( '', #333 );
#298 = VERTEX_POINT( '', #334 );
#299 = CIRCLE( '', #335, 7.50000000000000 );
#300 = FILL_AREA_STYLE_COLOUR( '', #336 );
#301 = VERTEX_POINT( '', #337 );
#302 = CIRCLE( '', #338, 7.50000000000000 );
#303 = FILL_AREA_STYLE_COLOUR( '', #339 );
#304 = VERTEX_POINT( '', #340 );
#305 = CIRCLE( '', #341, 9.00000000000000 );
#306 = FILL_AREA_STYLE_COLOUR( '', #342 );
#307 = VERTEX_POINT( '', #343 );
#308 = CIRCLE( '', #344, 9.00000000000000 );
#309 = FILL_AREA_STYLE_COLOUR( '', #345 );
#310 = FILL_AREA_STYLE_COLOUR( '', #346 );
#311 = FILL_AREA_STYLE_COLOUR( '', #347 );
#312 = COLOUR_RGB( '', 0.576470613479614, 0.000000000000000, 0.827450990676880 );
#313 = CARTESIAN_POINT( '', ( 5.81688056615292, 52.3414291818641, -7.50000000000000 ) );
#314 = AXIS2_PLACEMENT_3D( '', #348, #349, #350 );
#315 = CARTESIAN_POINT( '', ( 7.50000000000000, 35.6000000000000, 0.000000000000000 ) );
#316 = AXIS2_PLACEMENT_3D( '', #351, #352, #353 );
#317 = COLOUR_RGB( '', 0.576470613479614, 0.000000000000000, 0.827450990676880 );
#318 = CARTESIAN_POINT( '', ( 18.2945864565024, 153.928972516982, 0.000000000000000 ) );
#319 = AXIS2_PLACEMENT_3D( '', #354, #355, #356 );
#320 = CARTESIAN_POINT( '', ( 19.4715887366025, 154.858846504487, 0.000000000000000 ) );
#321 = AXIS2_PLACEMENT_3D( '', #357, #358, #359 );
#322 = COLOUR_RGB( '', 0.576470613479614, 0.000000000000000, 0.827450990676880 );
#323 = CARTESIAN_POINT( '', ( 40.0722352438781, 126.363579117037, 0.000000000000000 ) );
#324 = AXIS2_PLACEMENT_3D( '', #360, #361, #362 );
#325 = COLOUR_RGB( '', 0.576470613479614, 0.000000000000000, 0.827450990676880 );
#326 = CARTESIAN_POINT( '', ( 0.000000000000000, 35.6000000000000, -9.00000000000000 ) );
#327 = AXIS2_PLACEMENT_3D( '', #363, #364, #365 );
#328 = CARTESIAN_POINT( '', ( 9.00000000000000, 0.000000000000000, 0.000000000000000 ) );
#329 = AXIS2_PLACEMENT_3D( '', #366, #367, #368 );
#330 = COLOUR_RGB( '', 0.576470613479614, 0.000000000000000, 0.827450990676880 );
#331 = CARTESIAN_POINT( '', ( 5.81688056615292, 52.3414291818641, -9.00000000000000 ) );
#332 = AXIS2_PLACEMENT_3D( '', #369, #370, #371 );
#333 = COLOUR_RGB( '', 0.576470613479614, 0.000000000000000, 0.827450990676880 );
#334 = CARTESIAN_POINT( '', ( 34.1843022354226, 88.2350482225494, -7.50000000000000 ) );
#335 = AXIS2_PLACEMENT_3D( '', #372, #373, #374 );
#336 = COLOUR_RGB( '', 0.576470613479614, 0.000000000000000, 0.827450990676880 );
#337 = CARTESIAN_POINT( '', ( 7.50000000000000, 0.000000000000000, 0.000000000000000 ) );
#338 = AXIS2_PLACEMENT_3D( '', #375, #376, #377 );
#339 = COLOUR_RGB( '', 0.576470613479614, 0.000000000000000, 0.827450990676880 );
#340 = CARTESIAN_POINT( '', ( 41.2453420467050, 82.6545718285947, 0.000000000000000 ) );
#341 = AXIS2_PLACEMENT_3D( '', #378, #379, #380 );
#342 = COLOUR_RGB( '', 0.576470613479614, 0.000000000000000, 0.827450990676880 );
#343 = CARTESIAN_POINT( '', ( 41.2492375239782, 127.293453104542, 0.000000000000000 ) );
#344 = AXIS2_PLACEMENT_3D( '', #381, #382, #383 );
#345 = COLOUR_RGB( '', 0.576470613479614, 0.000000000000000, 0.827450990676880 );
#346 = COLOUR_RGB( '', 0.576470613479614, 0.000000000000000, 0.827450990676880 );
#347 = COLOUR_RGB( '', 0.576470613479614, 0.000000000000000, 0.827450990676880 );
#348 = CARTESIAN_POINT( '', ( 5.81688056615292, 52.3414291818641, 0.000000000000000 ) );
#349 = DIRECTION( '', ( -0.620052932661633, -0.784559979031373, -0.000000000000000 ) );
#350 = DIRECTION( '', ( 0.000000000000000, 0.000000000000000, -1.00000000000000 ) );
#351 = CARTESIAN_POINT( '', ( 0.000000000000000, 35.6000000000000, 0.000000000000000 ) );
#352 = DIRECTION( '', ( 0.000000000000000, -1.00000000000000, 0.000000000000000 ) );
#353 = DIRECTION( '', ( 1.00000000000000, 0.000000000000000, 0.000000000000000 ) );
#354 = CARTESIAN_POINT( '', ( 12.4095750560018, 149.279602579455, 0.000000000000000 ) );
#355 = DIRECTION( '', ( 0.619915991670247, -0.784668186733408, 0.000000000000000 ) );
#356 = DIRECTION( '', ( 0.784668186733408, 0.619915991670247, 0.000000000000000 ) );
#357 = CARTESIAN_POINT( '', ( 12.4095750560018, 149.279602579455, 0.000000000000000 ) );
#358 = DIRECTION( '', ( 0.619915991670247, -0.784668186733408, 0.000000000000000 ) );
#359 = DIRECTION( '', ( 0.784668186733408, 0.619915991670247, 0.000000000000000 ) );
#360 = CARTESIAN_POINT( '', ( 34.1872238433776, 121.714209179510, 0.000000000000000 ) );
#361 = DIRECTION( '', ( 0.619915991670247, -0.784668186733408, 0.000000000000000 ) );
#362 = DIRECTION( '', ( 0.784668186733408, 0.619915991670247, 0.000000000000000 ) );
#363 = CARTESIAN_POINT( '', ( 0.000000000000000, 35.6000000000000, 0.000000000000000 ) );
#364 = DIRECTION( '', ( 0.000000000000000, -1.00000000000000, 0.000000000000000 ) );
#365 = DIRECTION( '', ( 0.000000000000000, 0.000000000000000, -1.00000000000000 ) );
#366 = CARTESIAN_POINT( '', ( 0.000000000000000, 0.000000000000000, 0.000000000000000 ) );
#367 = DIRECTION( '', ( 0.000000000000000, -1.00000000000000, 0.000000000000000 ) );
#368 = DIRECTION( '', ( 1.00000000000000, 0.000000000000000, 0.000000000000000 ) );
#369 = CARTESIAN_POINT( '', ( 5.81688056615292, 52.3414291818641, 0.000000000000000 ) );
#370 = DIRECTION( '', ( -0.620052932661633, -0.784559979031373, -0.000000000000000 ) );
#371 = DIRECTION( '', ( 0.000000000000000, 0.000000000000000, -1.00000000000000 ) );
#372 = CARTESIAN_POINT( '', ( 34.1843022354226, 88.2350482225494, 0.000000000000000 ) );
#373 = DIRECTION( '', ( -0.620052932661633, -0.784559979031373, -0.000000000000000 ) );
#374 = DIRECTION( '', ( 0.000000000000000, 0.000000000000000, -1.00000000000000 ) );
#375 = CARTESIAN_POINT( '', ( 0.000000000000000, 0.000000000000000, 0.000000000000000 ) );
#376 = DIRECTION( '', ( 0.000000000000000, -1.00000000000000, 0.000000000000000 ) );
#377 = DIRECTION( '', ( 1.00000000000000, 0.000000000000000, 0.000000000000000 ) );
#378 = CARTESIAN_POINT( '', ( 34.1843022354226, 88.2350482225494, 0.000000000000000 ) );
#379 = DIRECTION( '', ( -0.620052932661633, -0.784559979031373, 0.000000000000000 ) );
#380 = DIRECTION( '', ( 0.784559979031373, -0.620052932661633, 0.000000000000000 ) );
#381 = CARTESIAN_POINT( '', ( 34.1872238433776, 121.714209179510, 0.000000000000000 ) );
#382 = DIRECTION( '', ( 0.619915991670247, -0.784668186733408, 0.000000000000000 ) );
#383 = DIRECTION( '', ( 0.784668186733408, 0.619915991670247, 0.000000000000000 ) );
ENDSEC;
END-ISO-10303-21;
