ISO-10303-21;
HEADER;
FILE_DESCRIPTION( ( 'Unknown' ), '1' );
FILE_NAME( '//Server/ofimatica/alfredo/Alfredo2/ISOTUBI/PZAS3D/FICHATECNICA/NUMEPRESS/generico 3D/F20DN22.stp', 'Unknown', ( 'Unknown' ), ( 'Unknown' ), 'PSStep 14.0', 'Unknown', '  ' );
FILE_SCHEMA( ( 'AUTOMOTIVE_DESIGN { 1 0 10303 214 1 1 1 1 }' ) );
ENDSEC;
DATA;
#1 = MECHANICAL_DESIGN_GEOMETRIC_PRESENTATION_REPRESENTATION( ' ', ( #10, #11, #12, #13, #14, #15, #16, #17, #18, #19, #20, #21 ), #6 );
#2 = PRODUCT_DEFINITION_CONTEXT( '', #22, 'design' );
#3 = APPLICATION_PROTOCOL_DEFINITION( 'international standard', 'automotive_design', 2001, #22 );
#4 = PRODUCT_CATEGORY_RELATIONSHIP( 'NONE', 'NONE', #23, #24 );
#5 = SHAPE_DEFINITION_REPRESENTATION( #25, #26 );
#6 =  ( GEOMETRIC_REPRESENTATION_CONTEXT( 3 )GLOBAL_UNCERTAINTY_ASSIGNED_CONTEXT( ( #29 ) )GLOBAL_UNIT_ASSIGNED_CONTEXT( ( #31, #32, #33 ) )REPRESENTATION_CONTEXT( 'NONE', 'WORKSPACE' ) );
#10 = STYLED_ITEM( '', ( #35 ), #36 );
#11 = STYLED_ITEM( '', ( #37 ), #38 );
#12 = STYLED_ITEM( '', ( #39 ), #40 );
#13 = STYLED_ITEM( '', ( #41 ), #42 );
#14 = STYLED_ITEM( '', ( #43 ), #44 );
#15 = STYLED_ITEM( '', ( #45 ), #46 );
#16 = STYLED_ITEM( '', ( #47 ), #48 );
#17 = STYLED_ITEM( '', ( #49 ), #50 );
#18 = STYLED_ITEM( '', ( #51 ), #52 );
#19 = STYLED_ITEM( '', ( #53 ), #54 );
#20 = STYLED_ITEM( '', ( #55 ), #56 );
#21 = STYLED_ITEM( '', ( #57 ), #58 );
#22 = APPLICATION_CONTEXT( 'core data for automotive mechanical design processes' );
#23 = PRODUCT_CATEGORY( 'part', 'NONE' );
#24 = PRODUCT_RELATED_PRODUCT_CATEGORY( 'detail', ' ', ( #59 ) );
#25 = PRODUCT_DEFINITION_SHAPE( 'NONE', 'NONE', #60 );
#26 = ADVANCED_BREP_SHAPE_REPRESENTATION( '1', ( #61, #62 ), #6 );
#29 = UNCERTAINTY_MEASURE_WITH_UNIT( LENGTH_MEASURE( 0.00100000000000000 ), #31, '', '' );
#31 =  ( CONVERSION_BASED_UNIT( 'MILLIMETRE', #65 )LENGTH_UNIT(  )NAMED_UNIT( #68 ) );
#32 =  ( NAMED_UNIT( #70 )PLANE_ANGLE_UNIT(  )SI_UNIT( $, .RADIAN. ) );
#33 =  ( NAMED_UNIT( #70 )SI_UNIT( $, .STERADIAN. )SOLID_ANGLE_UNIT(  ) );
#35 = PRESENTATION_STYLE_ASSIGNMENT( ( #76 ) );
#36 = ADVANCED_FACE( '', ( #77, #78 ), #79, .T. );
#37 = PRESENTATION_STYLE_ASSIGNMENT( ( #80 ) );
#38 = ADVANCED_FACE( '', ( #81, #82 ), #83, .F. );
#39 = PRESENTATION_STYLE_ASSIGNMENT( ( #84 ) );
#40 = ADVANCED_FACE( '', ( #85, #86 ), #87, .F. );
#41 = PRESENTATION_STYLE_ASSIGNMENT( ( #88 ) );
#42 = ADVANCED_FACE( '', ( #89, #90 ), #91, .T. );
#43 = PRESENTATION_STYLE_ASSIGNMENT( ( #92 ) );
#44 = ADVANCED_FACE( '', ( #93, #94 ), #95, .T. );
#45 = PRESENTATION_STYLE_ASSIGNMENT( ( #96 ) );
#46 = ADVANCED_FACE( '', ( #97, #98 ), #99, .F. );
#47 = PRESENTATION_STYLE_ASSIGNMENT( ( #100 ) );
#48 = ADVANCED_FACE( '', ( #101, #102 ), #103, .T. );
#49 = PRESENTATION_STYLE_ASSIGNMENT( ( #104 ) );
#50 = ADVANCED_FACE( '', ( #105, #106 ), #107, .T. );
#51 = PRESENTATION_STYLE_ASSIGNMENT( ( #108 ) );
#52 = ADVANCED_FACE( '', ( #109, #110 ), #111, .T. );
#53 = PRESENTATION_STYLE_ASSIGNMENT( ( #112 ) );
#54 = ADVANCED_FACE( '', ( #113, #114 ), #115, .F. );
#55 = PRESENTATION_STYLE_ASSIGNMENT( ( #116 ) );
#56 = ADVANCED_FACE( '', ( #117, #118 ), #119, .F. );
#57 = PRESENTATION_STYLE_ASSIGNMENT( ( #120 ) );
#58 = ADVANCED_FACE( '', ( #121, #122 ), #123, .F. );
#59 = PRODUCT( '1', '1', 'PART-1-DESC', ( #124 ) );
#60 = PRODUCT_DEFINITION( 'NONE', 'NONE', #125, #2 );
#61 = MANIFOLD_SOLID_BREP( '1', #126 );
#62 = AXIS2_PLACEMENT_3D( '', #127, #128, #129 );
#65 = LENGTH_MEASURE_WITH_UNIT( LENGTH_MEASURE( 1.00000000000000 ), #130 );
#68 = DIMENSIONAL_EXPONENTS( 1.00000000000000, 0.000000000000000, 0.000000000000000, 0.000000000000000, 0.000000000000000, 0.000000000000000, 0.000000000000000 );
#70 = DIMENSIONAL_EXPONENTS( 0.000000000000000, 0.000000000000000, 0.000000000000000, 0.000000000000000, 0.000000000000000, 0.000000000000000, 0.000000000000000 );
#76 = SURFACE_STYLE_USAGE( .BOTH., #131 );
#77 = FACE_OUTER_BOUND( '', #132, .T. );
#78 = FACE_OUTER_BOUND( '', #133, .T. );
#79 = CYLINDRICAL_SURFACE( '', #134, 11.0000000000000 );
#80 = SURFACE_STYLE_USAGE( .BOTH., #135 );
#81 = FACE_OUTER_BOUND( '', #136, .T. );
#82 = FACE_OUTER_BOUND( '', #137, .T. );
#83 = TOROIDAL_SURFACE( '', #138, 34.0000000000000, 9.50000000000000 );
#84 = SURFACE_STYLE_USAGE( .BOTH., #139 );
#85 = FACE_OUTER_BOUND( '', #140, .T. );
#86 = FACE_OUTER_BOUND( '', #141, .T. );
#87 = TOROIDAL_SURFACE( '', #142, 34.0000000000000, 9.50000000000000 );
#88 = SURFACE_STYLE_USAGE( .BOTH., #143 );
#89 = FACE_BOUND( '', #144, .T. );
#90 = FACE_OUTER_BOUND( '', #145, .T. );
#91 = PLANE( '', #146 );
#92 = SURFACE_STYLE_USAGE( .BOTH., #147 );
#93 = FACE_OUTER_BOUND( '', #148, .T. );
#94 = FACE_OUTER_BOUND( '', #149, .T. );
#95 = CYLINDRICAL_SURFACE( '', #150, 11.0000000000000 );
#96 = SURFACE_STYLE_USAGE( .BOTH., #151 );
#97 = FACE_OUTER_BOUND( '', #152, .T. );
#98 = FACE_OUTER_BOUND( '', #153, .T. );
#99 = CYLINDRICAL_SURFACE( '', #154, 9.50000000000000 );
#100 = SURFACE_STYLE_USAGE( .BOTH., #155 );
#101 = FACE_OUTER_BOUND( '', #156, .T. );
#102 = FACE_OUTER_BOUND( '', #157, .T. );
#103 = TOROIDAL_SURFACE( '', #158, 34.0000000000000, 11.0000000000000 );
#104 = SURFACE_STYLE_USAGE( .BOTH., #159 );
#105 = FACE_OUTER_BOUND( '', #160, .T. );
#106 = FACE_OUTER_BOUND( '', #161, .T. );
#107 = TOROIDAL_SURFACE( '', #162, 34.0000000000000, 11.0000000000000 );
#108 = SURFACE_STYLE_USAGE( .BOTH., #163 );
#109 = FACE_OUTER_BOUND( '', #164, .T. );
#110 = FACE_OUTER_BOUND( '', #165, .T. );
#111 = CYLINDRICAL_SURFACE( '', #166, 11.0000000000000 );
#112 = SURFACE_STYLE_USAGE( .BOTH., #167 );
#113 = FACE_OUTER_BOUND( '', #168, .T. );
#114 = FACE_OUTER_BOUND( '', #169, .T. );
#115 = CYLINDRICAL_SURFACE( '', #170, 9.50000000000000 );
#116 = SURFACE_STYLE_USAGE( .BOTH., #171 );
#117 = FACE_OUTER_BOUND( '', #172, .T. );
#118 = FACE_OUTER_BOUND( '', #173, .T. );
#119 = CYLINDRICAL_SURFACE( '', #174, 9.50000000000000 );
#120 = SURFACE_STYLE_USAGE( .BOTH., #175 );
#121 = FACE_BOUND( '', #176, .T. );
#122 = FACE_OUTER_BOUND( '', #177, .T. );
#123 = PLANE( '', #178 );
#124 = PRODUCT_CONTEXT( '', #22, 'mechanical' );
#125 = PRODUCT_DEFINITION_FORMATION_WITH_SPECIFIED_SOURCE( ' ', 'NONE', #59, .NOT_KNOWN. );
#126 = CLOSED_SHELL( '', ( #46, #44, #42, #36, #56, #50, #38, #52, #54, #48, #58, #40 ) );
#127 = CARTESIAN_POINT( '', ( 0.000000000000000, 0.000000000000000, 0.000000000000000 ) );
#128 = DIRECTION( '', ( 0.000000000000000, 0.000000000000000, 1.00000000000000 ) );
#129 = DIRECTION( '', ( 1.00000000000000, 0.000000000000000, 0.000000000000000 ) );
#130 =  ( LENGTH_UNIT(  )NAMED_UNIT( #68 )SI_UNIT( .MILLI., .METRE. ) );
#131 = SURFACE_SIDE_STYLE( '', ( #180 ) );
#132 = EDGE_LOOP( '', ( #181 ) );
#133 = EDGE_LOOP( '', ( #182 ) );
#134 = AXIS2_PLACEMENT_3D( '', #183, #184, #185 );
#135 = SURFACE_SIDE_STYLE( '', ( #186 ) );
#136 = EDGE_LOOP( '', ( #187 ) );
#137 = EDGE_LOOP( '', ( #188 ) );
#138 = AXIS2_PLACEMENT_3D( '', #189, #190, #191 );
#139 = SURFACE_SIDE_STYLE( '', ( #192 ) );
#140 = EDGE_LOOP( '', ( #193 ) );
#141 = EDGE_LOOP( '', ( #194 ) );
#142 = AXIS2_PLACEMENT_3D( '', #195, #196, #197 );
#143 = SURFACE_SIDE_STYLE( '', ( #198 ) );
#144 = EDGE_LOOP( '', ( #199 ) );
#145 = EDGE_LOOP( '', ( #200 ) );
#146 = AXIS2_PLACEMENT_3D( '', #201, #202, #203 );
#147 = SURFACE_SIDE_STYLE( '', ( #204 ) );
#148 = EDGE_LOOP( '', ( #205 ) );
#149 = EDGE_LOOP( '', ( #206 ) );
#150 = AXIS2_PLACEMENT_3D( '', #207, #208, #209 );
#151 = SURFACE_SIDE_STYLE( '', ( #210 ) );
#152 = EDGE_LOOP( '', ( #211 ) );
#153 = EDGE_LOOP( '', ( #212 ) );
#154 = AXIS2_PLACEMENT_3D( '', #213, #214, #215 );
#155 = SURFACE_SIDE_STYLE( '', ( #216 ) );
#156 = EDGE_LOOP( '', ( #217 ) );
#157 = EDGE_LOOP( '', ( #218 ) );
#158 = AXIS2_PLACEMENT_3D( '', #219, #220, #221 );
#159 = SURFACE_SIDE_STYLE( '', ( #222 ) );
#160 = EDGE_LOOP( '', ( #223 ) );
#161 = EDGE_LOOP( '', ( #224 ) );
#162 = AXIS2_PLACEMENT_3D( '', #225, #226, #227 );
#163 = SURFACE_SIDE_STYLE( '', ( #228 ) );
#164 = EDGE_LOOP( '', ( #229 ) );
#165 = EDGE_LOOP( '', ( #230 ) );
#166 = AXIS2_PLACEMENT_3D( '', #231, #232, #233 );
#167 = SURFACE_SIDE_STYLE( '', ( #234 ) );
#168 = EDGE_LOOP( '', ( #235 ) );
#169 = EDGE_LOOP( '', ( #236 ) );
#170 = AXIS2_PLACEMENT_3D( '', #237, #238, #239 );
#171 = SURFACE_SIDE_STYLE( '', ( #240 ) );
#172 = EDGE_LOOP( '', ( #241 ) );
#173 = EDGE_LOOP( '', ( #242 ) );
#174 = AXIS2_PLACEMENT_3D( '', #243, #244, #245 );
#175 = SURFACE_SIDE_STYLE( '', ( #246 ) );
#176 = EDGE_LOOP( '', ( #247 ) );
#177 = EDGE_LOOP( '', ( #248 ) );
#178 = AXIS2_PLACEMENT_3D( '', #249, #250, #251 );
#180 = SURFACE_STYLE_FILL_AREA( #252 );
#181 = ORIENTED_EDGE( '', *, *, #253, .F. );
#182 = ORIENTED_EDGE( '', *, *, #254, .T. );
#183 = CARTESIAN_POINT( '', ( 6.82056092882461E-015, 161.817754749303, -13.4637654104930 ) );
#184 = DIRECTION( '', ( 3.17167604386844E-016, 0.767422584382187, 0.641141620065462 ) );
#185 = DIRECTION( '', ( 0.000000000000000, 0.641141620065462, -0.767422584382187 ) );
#186 = SURFACE_STYLE_FILL_AREA( #255 );
#187 = ORIENTED_EDGE( '', *, *, #256, .T. );
#188 = ORIENTED_EDGE( '', *, *, #257, .F. );
#189 = CARTESIAN_POINT( '', ( 2.56534140350257E-015, 112.933526973892, -9.99984988008902 ) );
#190 = DIRECTION( '', ( -1.00000000000000, 0.000000000000000, 3.46896972288559E-016 ) );
#191 = DIRECTION( '', ( 3.46896972288559E-016, 0.000000000000000, 1.00000000000000 ) );
#192 = SURFACE_STYLE_FILL_AREA( #258 );
#193 = ORIENTED_EDGE( '', *, *, #259, .T. );
#194 = ORIENTED_EDGE( '', *, *, #260, .F. );
#195 = CARTESIAN_POINT( '', ( -5.08327696337056E-015, 35.6000000000000, -34.0000000000000 ) );
#196 = DIRECTION( '', ( 1.00000000000000, 0.000000000000000, -1.99101985015266E-016 ) );
#197 = DIRECTION( '', ( -1.99101985015266E-016, 0.000000000000000, -1.00000000000000 ) );
#198 = SURFACE_STYLE_FILL_AREA( #261 );
#199 = ORIENTED_EDGE( '', *, *, #262, .F. );
#200 = ORIENTED_EDGE( '', *, *, #253, .T. );
#201 = CARTESIAN_POINT( '', ( 6.82056092882461E-015, 161.817754749303, -13.4637654104930 ) );
#202 = DIRECTION( '', ( 3.17167604386844E-016, 0.767422584382187, 0.641141620065462 ) );
#203 = DIRECTION( '', ( 0.000000000000000, -0.641141620065462, 0.767422584382187 ) );
#204 = SURFACE_STYLE_FILL_AREA( #263 );
#205 = ORIENTED_EDGE( '', *, *, #264, .F. );
#206 = ORIENTED_EDGE( '', *, *, #265, .T. );
#207 = CARTESIAN_POINT( '', ( 0.000000000000000, 35.6000000000000, 0.000000000000000 ) );
#208 = DIRECTION( '', ( -0.000000000000000, 1.00000000000000, -0.000000000000000 ) );
#209 = DIRECTION( '', ( 0.000000000000000, 0.000000000000000, -1.00000000000000 ) );
#210 = SURFACE_STYLE_FILL_AREA( #266 );
#211 = ORIENTED_EDGE( '', *, *, #260, .T. );
#212 = ORIENTED_EDGE( '', *, *, #267, .F. );
#213 = CARTESIAN_POINT( '', ( 0.000000000000000, 35.6000000000000, 0.000000000000000 ) );
#214 = DIRECTION( '', ( -0.000000000000000, 1.00000000000000, -0.000000000000000 ) );
#215 = DIRECTION( '', ( 0.000000000000000, 0.000000000000000, -1.00000000000000 ) );
#216 = SURFACE_STYLE_FILL_AREA( #268 );
#217 = ORIENTED_EDGE( '', *, *, #269, .F. );
#218 = ORIENTED_EDGE( '', *, *, #264, .T. );
#219 = CARTESIAN_POINT( '', ( -5.08327696337056E-015, 35.6000000000000, -34.0000000000000 ) );
#220 = DIRECTION( '', ( 1.00000000000000, 0.000000000000000, -1.99101985015266E-016 ) );
#221 = DIRECTION( '', ( -1.99101985015266E-016, 0.000000000000000, -1.00000000000000 ) );
#222 = SURFACE_STYLE_FILL_AREA( #270 );
#223 = ORIENTED_EDGE( '', *, *, #254, .F. );
#224 = ORIENTED_EDGE( '', *, *, #271, .T. );
#225 = CARTESIAN_POINT( '', ( 2.56534140350257E-015, 112.933526973892, -9.99984988008902 ) );
#226 = DIRECTION( '', ( -1.00000000000000, 0.000000000000000, 3.46896972288559E-016 ) );
#227 = DIRECTION( '', ( 3.46896972288559E-016, 0.000000000000000, 1.00000000000000 ) );
#228 = SURFACE_STYLE_FILL_AREA( #272 );
#229 = ORIENTED_EDGE( '', *, *, #271, .F. );
#230 = ORIENTED_EDGE( '', *, *, #269, .T. );
#231 = CARTESIAN_POINT( '', ( -7.22543695480893E-015, 91.1347118916667, -36.0922177490833 ) );
#232 = DIRECTION( '', ( -1.27652569230937E-016, 0.767422584382187, -0.641141620065462 ) );
#233 = DIRECTION( '', ( 0.000000000000000, -0.641141620065462, -0.767422584382187 ) );
#234 = SURFACE_STYLE_FILL_AREA( #273 );
#235 = ORIENTED_EDGE( '', *, *, #257, .T. );
#236 = ORIENTED_EDGE( '', *, *, #259, .F. );
#237 = CARTESIAN_POINT( '', ( -7.22543695480893E-015, 91.1347118916667, -36.0922177490833 ) );
#238 = DIRECTION( '', ( -1.27652569230937E-016, 0.767422584382187, -0.641141620065462 ) );
#239 = DIRECTION( '', ( 0.000000000000000, -0.641141620065462, -0.767422584382187 ) );
#240 = SURFACE_STYLE_FILL_AREA( #274 );
#241 = ORIENTED_EDGE( '', *, *, #262, .T. );
#242 = ORIENTED_EDGE( '', *, *, #256, .F. );
#243 = CARTESIAN_POINT( '', ( 6.82056092882461E-015, 161.817754749303, -13.4637654104930 ) );
#244 = DIRECTION( '', ( 3.17167604386844E-016, 0.767422584382187, 0.641141620065462 ) );
#245 = DIRECTION( '', ( 0.000000000000000, 0.641141620065462, -0.767422584382187 ) );
#246 = SURFACE_STYLE_FILL_AREA( #275 );
#247 = ORIENTED_EDGE( '', *, *, #267, .T. );
#248 = ORIENTED_EDGE( '', *, *, #265, .F. );
#249 = CARTESIAN_POINT( '', ( 0.000000000000000, 0.000000000000000, 0.000000000000000 ) );
#250 = DIRECTION( '', ( 0.000000000000000, 1.00000000000000, 0.000000000000000 ) );
#251 = DIRECTION( '', ( 0.000000000000000, 0.000000000000000, 1.00000000000000 ) );
#252 = FILL_AREA_STYLE( '', ( #276 ) );
#253 = EDGE_CURVE( '', #277, #277, #278, .T. );
#254 = EDGE_CURVE( '', #279, #279, #280, .T. );
#255 = FILL_AREA_STYLE( '', ( #281 ) );
#256 = EDGE_CURVE( '', #282, #282, #283, .T. );
#257 = EDGE_CURVE( '', #284, #284, #285, .T. );
#258 = FILL_AREA_STYLE( '', ( #286 ) );
#259 = EDGE_CURVE( '', #287, #287, #288, .T. );
#260 = EDGE_CURVE( '', #289, #289, #290, .T. );
#261 = FILL_AREA_STYLE( '', ( #291 ) );
#262 = EDGE_CURVE( '', #292, #292, #293, .T. );
#263 = FILL_AREA_STYLE( '', ( #294 ) );
#264 = EDGE_CURVE( '', #295, #295, #296, .T. );
#265 = EDGE_CURVE( '', #297, #297, #298, .T. );
#266 = FILL_AREA_STYLE( '', ( #299 ) );
#267 = EDGE_CURVE( '', #300, #300, #301, .T. );
#268 = FILL_AREA_STYLE( '', ( #302 ) );
#269 = EDGE_CURVE( '', #303, #303, #304, .T. );
#270 = FILL_AREA_STYLE( '', ( #305 ) );
#271 = EDGE_CURVE( '', #306, #306, #307, .T. );
#272 = FILL_AREA_STYLE( '', ( #308 ) );
#273 = FILL_AREA_STYLE( '', ( #309 ) );
#274 = FILL_AREA_STYLE( '', ( #310 ) );
#275 = FILL_AREA_STYLE( '', ( #311 ) );
#276 = FILL_AREA_STYLE_COLOUR( '', #312 );
#277 = VERTEX_POINT( '', #313 );
#278 = CIRCLE( '', #314, 11.0000000000000 );
#279 = VERTEX_POINT( '', #315 );
#280 = CIRCLE( '', #316, 11.0000000000000 );
#281 = FILL_AREA_STYLE_COLOUR( '', #317 );
#282 = VERTEX_POINT( '', #318 );
#283 = CIRCLE( '', #319, 9.50000000000000 );
#284 = VERTEX_POINT( '', #320 );
#285 = CIRCLE( '', #321, 9.50000000000000 );
#286 = FILL_AREA_STYLE_COLOUR( '', #322 );
#287 = VERTEX_POINT( '', #323 );
#288 = CIRCLE( '', #324, 9.50000000000000 );
#289 = VERTEX_POINT( '', #325 );
#290 = CIRCLE( '', #326, 9.50000000000000 );
#291 = FILL_AREA_STYLE_COLOUR( '', #327 );
#292 = VERTEX_POINT( '', #328 );
#293 = CIRCLE( '', #329, 9.50000000000000 );
#294 = FILL_AREA_STYLE_COLOUR( '', #330 );
#295 = VERTEX_POINT( '', #331 );
#296 = CIRCLE( '', #332, 11.0000000000000 );
#297 = VERTEX_POINT( '', #333 );
#298 = CIRCLE( '', #334, 11.0000000000000 );
#299 = FILL_AREA_STYLE_COLOUR( '', #335 );
#300 = VERTEX_POINT( '', #336 );
#301 = CIRCLE( '', #337, 9.50000000000000 );
#302 = FILL_AREA_STYLE_COLOUR( '', #338 );
#303 = VERTEX_POINT( '', #339 );
#304 = CIRCLE( '', #340, 11.0000000000000 );
#305 = FILL_AREA_STYLE_COLOUR( '', #341 );
#306 = VERTEX_POINT( '', #342 );
#307 = CIRCLE( '', #343, 11.0000000000000 );
#308 = FILL_AREA_STYLE_COLOUR( '', #344 );
#309 = FILL_AREA_STYLE_COLOUR( '', #345 );
#310 = FILL_AREA_STYLE_COLOUR( '', #346 );
#311 = FILL_AREA_STYLE_COLOUR( '', #347 );
#312 = COLOUR_RGB( '', 0.117647059261799, 0.749019622802734, 0.117647059261799 );
#313 = CARTESIAN_POINT( '', ( 6.82056092882461E-015, 154.765196928583, -5.02211698228890 ) );
#314 = AXIS2_PLACEMENT_3D( '', #348, #349, #350 );
#315 = CARTESIAN_POINT( '', ( -4.37355250040465E-015, 127.679784235398, -27.6505693208793 ) );
#316 = AXIS2_PLACEMENT_3D( '', #351, #352, #353 );
#317 = COLOUR_RGB( '', 0.117647059261799, 0.749019622802734, 0.117647059261799 );
#318 = CARTESIAN_POINT( '', ( -4.37355250040465E-015, 128.641496665496, -28.8017031974526 ) );
#319 = AXIS2_PLACEMENT_3D( '', #354, #355, #356 );
#320 = CARTESIAN_POINT( '', ( -7.22543695480893E-015, 97.2255572822886, -28.8017031974526 ) );
#321 = AXIS2_PLACEMENT_3D( '', #357, #358, #359 );
#322 = COLOUR_RGB( '', 0.117647059261799, 0.749019622802734, 0.117647059261799 );
#323 = CARTESIAN_POINT( '', ( -2.05374295004960E-015, 63.4896604728476, -0.617117579374875 ) );
#324 = AXIS2_PLACEMENT_3D( '', #360, #361, #362 );
#325 = CARTESIAN_POINT( '', ( 0.000000000000000, 35.6000000000000, 9.50000000000000 ) );
#326 = AXIS2_PLACEMENT_3D( '', #363, #364, #365 );
#327 = COLOUR_RGB( '', 0.117647059261799, 0.749019622802734, 0.117647059261799 );
#328 = CARTESIAN_POINT( '', ( 6.82056092882461E-015, 155.726909358681, -6.17325085886218 ) );
#329 = AXIS2_PLACEMENT_3D( '', #366, #367, #368 );
#330 = COLOUR_RGB( '', 0.117647059261799, 0.749019622802734, 0.117647059261799 );
#331 = CARTESIAN_POINT( '', ( 11.0000000000000, 35.6000000000000, 0.000000000000000 ) );
#332 = AXIS2_PLACEMENT_3D( '', #369, #370, #371 );
#333 = CARTESIAN_POINT( '', ( 11.0000000000000, 0.000000000000000, 0.000000000000000 ) );
#334 = AXIS2_PLACEMENT_3D( '', #372, #373, #374 );
#335 = COLOUR_RGB( '', 0.117647059261799, 0.749019622802734, 0.117647059261799 );
#336 = CARTESIAN_POINT( '', ( 9.50000000000000, 0.000000000000000, 0.000000000000000 ) );
#337 = AXIS2_PLACEMENT_3D( '', #375, #376, #377 );
#338 = COLOUR_RGB( '', 0.117647059261799, 0.749019622802734, 0.117647059261799 );
#339 = CARTESIAN_POINT( '', ( -2.12320288772844E-015, 64.4513729029458, 0.534016297198405 ) );
#340 = AXIS2_PLACEMENT_3D( '', #378, #379, #380 );
#341 = COLOUR_RGB( '', 0.117647059261799, 0.749019622802734, 0.117647059261799 );
#342 = CARTESIAN_POINT( '', ( -7.73480983112043E-015, 98.1872697123868, -27.6505693208793 ) );
#343 = AXIS2_PLACEMENT_3D( '', #381, #382, #383 );
#344 = COLOUR_RGB( '', 0.117647059261799, 0.749019622802734, 0.117647059261799 );
#345 = COLOUR_RGB( '', 0.117647059261799, 0.749019622802734, 0.117647059261799 );
#346 = COLOUR_RGB( '', 0.117647059261799, 0.749019622802734, 0.117647059261799 );
#347 = COLOUR_RGB( '', 0.117647059261799, 0.749019622802734, 0.117647059261799 );
#348 = CARTESIAN_POINT( '', ( 6.82056092882461E-015, 161.817754749303, -13.4637654104930 ) );
#349 = DIRECTION( '', ( 3.17167604386844E-016, 0.767422584382187, 0.641141620065462 ) );
#350 = DIRECTION( '', ( 2.46519032881566E-032, -0.641141620065462, 0.767422584382187 ) );
#351 = CARTESIAN_POINT( '', ( -4.37355250040465E-015, 134.732342056118, -36.0922177490834 ) );
#352 = DIRECTION( '', ( 3.17167604386844E-016, 0.767422584382187, 0.641141620065462 ) );
#353 = DIRECTION( '', ( 2.46519032881566E-032, -0.641141620065462, 0.767422584382187 ) );
#354 = CARTESIAN_POINT( '', ( -4.37355250040465E-015, 134.732342056118, -36.0922177490834 ) );
#355 = DIRECTION( '', ( 3.17167604386844E-016, 0.767422584382187, 0.641141620065462 ) );
#356 = DIRECTION( '', ( 2.46519032881566E-032, -0.641141620065462, 0.767422584382187 ) );
#357 = CARTESIAN_POINT( '', ( -7.22543695480893E-015, 91.1347118916667, -36.0922177490833 ) );
#358 = DIRECTION( '', ( -1.27652569230937E-016, 0.767422584382187, -0.641141620065462 ) );
#359 = DIRECTION( '', ( 0.000000000000000, 0.641141620065462, 0.767422584382187 ) );
#360 = CARTESIAN_POINT( '', ( -1.61383001141694E-015, 57.3988150822257, -7.90763213100565 ) );
#361 = DIRECTION( '', ( -1.27652569230937E-016, 0.767422584382187, -0.641141620065462 ) );
#362 = DIRECTION( '', ( -4.63066251192271E-017, 0.641141620065462, 0.767422584382187 ) );
#363 = CARTESIAN_POINT( '', ( 0.000000000000000, 35.6000000000000, 0.000000000000000 ) );
#364 = DIRECTION( '', ( 0.000000000000000, 1.00000000000000, 0.000000000000000 ) );
#365 = DIRECTION( '', ( 0.000000000000000, 0.000000000000000, 1.00000000000000 ) );
#366 = CARTESIAN_POINT( '', ( 6.82056092882461E-015, 161.817754749303, -13.4637654104930 ) );
#367 = DIRECTION( '', ( 3.17167604386844E-016, 0.767422584382187, 0.641141620065462 ) );
#368 = DIRECTION( '', ( 2.46519032881566E-032, -0.641141620065462, 0.767422584382187 ) );
#369 = CARTESIAN_POINT( '', ( 0.000000000000000, 35.6000000000000, 0.000000000000000 ) );
#370 = DIRECTION( '', ( -0.000000000000000, 1.00000000000000, 0.000000000000000 ) );
#371 = DIRECTION( '', ( 1.00000000000000, 0.000000000000000, 0.000000000000000 ) );
#372 = CARTESIAN_POINT( '', ( 0.000000000000000, 0.000000000000000, 0.000000000000000 ) );
#373 = DIRECTION( '', ( -0.000000000000000, 1.00000000000000, 0.000000000000000 ) );
#374 = DIRECTION( '', ( 1.00000000000000, 0.000000000000000, 0.000000000000000 ) );
#375 = CARTESIAN_POINT( '', ( 0.000000000000000, 0.000000000000000, 0.000000000000000 ) );
#376 = DIRECTION( '', ( -0.000000000000000, 1.00000000000000, 0.000000000000000 ) );
#377 = DIRECTION( '', ( 1.00000000000000, 0.000000000000000, 0.000000000000000 ) );
#378 = CARTESIAN_POINT( '', ( -1.61383001141694E-015, 57.3988150822257, -7.90763213100565 ) );
#379 = DIRECTION( '', ( -1.27652569230937E-016, 0.767422584382187, -0.641141620065462 ) );
#380 = DIRECTION( '', ( -4.63066251192271E-017, 0.641141620065462, 0.767422584382187 ) );
#381 = CARTESIAN_POINT( '', ( -7.22543695480893E-015, 91.1347118916667, -36.0922177490833 ) );
#382 = DIRECTION( '', ( -1.27652569230937E-016, 0.767422584382187, -0.641141620065462 ) );
#383 = DIRECTION( '', ( -4.63066251192271E-017, 0.641141620065462, 0.767422584382187 ) );
ENDSEC;
END-ISO-10303-21;
